ISO-10303-21;
HEADER;
FILE_DESCRIPTION( ( 'STEP AP214' ), '1' );
FILE_NAME( '//goodhand-server/Shared Folders/GoodHand Data/Kipp CAD/K0762/K0762.245.stp', '2020-12-10T08:54:36', ( '' ), ( '' ), ' ', 'PARTsolutions', ' ' );
FILE_SCHEMA( ( 'AUTOMOTIVE_DESIGN { 1 0 10303 214 1 1 1 1 }' ) );
ENDSEC;
DATA;
#1 = MECHANICAL_DESIGN_GEOMETRIC_PRESENTATION_REPRESENTATION( ' ', ( #10, #11, #12, #13, #14, #15, #16, #17, #18, #19, #20, #21, #22, #23, #24 ), #6 );
#2 = PRODUCT_DEFINITION_CONTEXT( '', #25, 'design' );
#3 = APPLICATION_PROTOCOL_DEFINITION( 'international standard', 'automotive_design', 2001, #25 );
#4 = PRODUCT_CATEGORY_RELATIONSHIP( 'NONE', 'NONE', #26, #27 );
#5 = SHAPE_DEFINITION_REPRESENTATION( #28, #29 );
#6 =  ( GEOMETRIC_REPRESENTATION_CONTEXT( 3 )GLOBAL_UNCERTAINTY_ASSIGNED_CONTEXT( ( #32 ) )GLOBAL_UNIT_ASSIGNED_CONTEXT( ( #34, #35, #36 ) )REPRESENTATION_CONTEXT( 'NONE', 'WORKSPACE' ) );
#10 = STYLED_ITEM( '', ( #38 ), #39 );
#11 = STYLED_ITEM( '', ( #40 ), #41 );
#12 = STYLED_ITEM( '', ( #42 ), #43 );
#13 = STYLED_ITEM( '', ( #44 ), #45 );
#14 = STYLED_ITEM( '', ( #46 ), #47 );
#15 = STYLED_ITEM( '', ( #48 ), #49 );
#16 = STYLED_ITEM( '', ( #50 ), #51 );
#17 = STYLED_ITEM( '', ( #52 ), #53 );
#18 = STYLED_ITEM( '', ( #54 ), #55 );
#19 = STYLED_ITEM( '', ( #56 ), #57 );
#20 = STYLED_ITEM( '', ( #58 ), #59 );
#21 = STYLED_ITEM( '', ( #60 ), #61 );
#22 = STYLED_ITEM( '', ( #62 ), #63 );
#23 = STYLED_ITEM( '', ( #64 ), #65 );
#24 = STYLED_ITEM( '', ( #66 ), #67 );
#25 = APPLICATION_CONTEXT( 'core data for automotive mechanical design processes' );
#26 = PRODUCT_CATEGORY( 'part', 'NONE' );
#27 = PRODUCT_RELATED_PRODUCT_CATEGORY( 'detail', ' ', ( #68 ) );
#28 = PRODUCT_DEFINITION_SHAPE( 'NONE', 'NONE', #69 );
#29 = ADVANCED_BREP_SHAPE_REPRESENTATION( '_K0762.245', ( #70, #71 ), #6 );
#32 = UNCERTAINTY_MEASURE_WITH_UNIT( LENGTH_MEASURE( 0.00100000000000000 ), #34, '', '' );
#34 =  ( CONVERSION_BASED_UNIT( 'MILLIMETRE', #74 )LENGTH_UNIT(  )NAMED_UNIT( #77 ) );
#35 =  ( NAMED_UNIT( #79 )PLANE_ANGLE_UNIT(  )SI_UNIT( $, .RADIAN. ) );
#36 =  ( NAMED_UNIT( #79 )SI_UNIT( $, .STERADIAN. )SOLID_ANGLE_UNIT(  ) );
#38 = PRESENTATION_STYLE_ASSIGNMENT( ( #85 ) );
#39 = ADVANCED_FACE( '', ( #86, #87 ), #88, .F. );
#40 = PRESENTATION_STYLE_ASSIGNMENT( ( #89 ) );
#41 = ADVANCED_FACE( '', ( #90, #91 ), #92, .T. );
#42 = PRESENTATION_STYLE_ASSIGNMENT( ( #93 ) );
#43 = ADVANCED_FACE( '', ( #94, #95 ), #96, .F. );
#44 = PRESENTATION_STYLE_ASSIGNMENT( ( #97 ) );
#45 = ADVANCED_FACE( '', ( #98, #99, #100 ), #101, .F. );
#46 = PRESENTATION_STYLE_ASSIGNMENT( ( #102 ) );
#47 = ADVANCED_FACE( '', ( #103, #104 ), #105, .F. );
#48 = PRESENTATION_STYLE_ASSIGNMENT( ( #106 ) );
#49 = ADVANCED_FACE( '', ( #107, #108 ), #109, .F. );
#50 = PRESENTATION_STYLE_ASSIGNMENT( ( #110 ) );
#51 = ADVANCED_FACE( '', ( #111, #112 ), #113, .F. );
#52 = PRESENTATION_STYLE_ASSIGNMENT( ( #114 ) );
#53 = ADVANCED_FACE( '', ( #115, #116 ), #117, .T. );
#54 = PRESENTATION_STYLE_ASSIGNMENT( ( #118 ) );
#55 = ADVANCED_FACE( '', ( #119, #120 ), #121, .T. );
#56 = PRESENTATION_STYLE_ASSIGNMENT( ( #122 ) );
#57 = ADVANCED_FACE( '', ( #123 ), #124, .F. );
#58 = PRESENTATION_STYLE_ASSIGNMENT( ( #125 ) );
#59 = ADVANCED_FACE( '', ( #126, #127 ), #128, .T. );
#60 = PRESENTATION_STYLE_ASSIGNMENT( ( #129 ) );
#61 = ADVANCED_FACE( '', ( #130, #131 ), #132, .F. );
#62 = PRESENTATION_STYLE_ASSIGNMENT( ( #133 ) );
#63 = ADVANCED_FACE( '', ( #134, #135 ), #136, .T. );
#64 = PRESENTATION_STYLE_ASSIGNMENT( ( #137 ) );
#65 = ADVANCED_FACE( '', ( #138, #139 ), #140, .T. );
#66 = PRESENTATION_STYLE_ASSIGNMENT( ( #141 ) );
#67 = ADVANCED_FACE( '', ( #142, #143 ), #144, .T. );
#68 = PRODUCT( '_K0762.245', '_K0762.245', 'PART-_K0762.245-DESC', ( #145 ) );
#69 = PRODUCT_DEFINITION( 'NONE', 'NONE', #146, #2 );
#70 = MANIFOLD_SOLID_BREP( '_K0762.245', #147 );
#71 = AXIS2_PLACEMENT_3D( '', #148, #149, #150 );
#74 = LENGTH_MEASURE_WITH_UNIT( LENGTH_MEASURE( 1.00000000000000 ), #151 );
#77 = DIMENSIONAL_EXPONENTS( 1.00000000000000, 0.000000000000000, 0.000000000000000, 0.000000000000000, 0.000000000000000, 0.000000000000000, 0.000000000000000 );
#79 = DIMENSIONAL_EXPONENTS( 0.000000000000000, 0.000000000000000, 0.000000000000000, 0.000000000000000, 0.000000000000000, 0.000000000000000, 0.000000000000000 );
#85 = SURFACE_STYLE_USAGE( .BOTH., #152 );
#86 = FACE_OUTER_BOUND( '', #153, .T. );
#87 = FACE_BOUND( '', #154, .T. );
#88 = PLANE( '', #155 );
#89 = SURFACE_STYLE_USAGE( .BOTH., #156 );
#90 = FACE_OUTER_BOUND( '', #157, .T. );
#91 = FACE_OUTER_BOUND( '', #158, .T. );
#92 = CYLINDRICAL_SURFACE( '', #159, 42.5000000000000 );
#93 = SURFACE_STYLE_USAGE( .BOTH., #160 );
#94 = FACE_OUTER_BOUND( '', #161, .T. );
#95 = FACE_OUTER_BOUND( '', #162, .T. );
#96 = TOROIDAL_SURFACE( '', #163, 33.7000000000000, 0.500000000000000 );
#97 = SURFACE_STYLE_USAGE( .BOTH., #164 );
#98 = FACE_BOUND( '', #165, .T. );
#99 = FACE_OUTER_BOUND( '', #166, .T. );
#100 = FACE_OUTER_BOUND( '', #167, .T. );
#101 = TOROIDAL_SURFACE( '', #168, 17.2105997839000, 2.97466855790000 );
#102 = SURFACE_STYLE_USAGE( .BOTH., #169 );
#103 = FACE_OUTER_BOUND( '', #170, .T. );
#104 = FACE_BOUND( '', #171, .T. );
#105 = PLANE( '', #172 );
#106 = SURFACE_STYLE_USAGE( .BOTH., #173 );
#107 = FACE_BOUND( '', #174, .T. );
#108 = FACE_OUTER_BOUND( '', #175, .T. );
#109 = PLANE( '', #176 );
#110 = SURFACE_STYLE_USAGE( .BOTH., #177 );
#111 = FACE_OUTER_BOUND( '', #178, .T. );
#112 = FACE_BOUND( '', #179, .T. );
#113 = PLANE( '', #180 );
#114 = SURFACE_STYLE_USAGE( .BOTH., #181 );
#115 = FACE_BOUND( '', #182, .T. );
#116 = FACE_OUTER_BOUND( '', #183, .T. );
#117 = SPHERICAL_SURFACE( '', #184, 22.5000000000000 );
#118 = SURFACE_STYLE_USAGE( .BOTH., #185 );
#119 = FACE_OUTER_BOUND( '', #186, .T. );
#120 = FACE_OUTER_BOUND( '', #187, .T. );
#121 = TOROIDAL_SURFACE( '', #188, 42.0000000000000, 0.500000000000000 );
#122 = SURFACE_STYLE_USAGE( .BOTH., #189 );
#123 = FACE_OUTER_BOUND( '', #190, .T. );
#124 = PLANE( '', #191 );
#125 = SURFACE_STYLE_USAGE( .BOTH., #192 );
#126 = FACE_OUTER_BOUND( '', #193, .T. );
#127 = FACE_OUTER_BOUND( '', #194, .T. );
#128 = TOROIDAL_SURFACE( '', #195, 42.0000000000000, 0.500000000000000 );
#129 = SURFACE_STYLE_USAGE( .BOTH., #196 );
#130 = FACE_OUTER_BOUND( '', #197, .T. );
#131 = FACE_OUTER_BOUND( '', #198, .T. );
#132 = CYLINDRICAL_SURFACE( '', #199, 39.0000000000000 );
#133 = SURFACE_STYLE_USAGE( .BOTH., #200 );
#134 = FACE_OUTER_BOUND( '', #201, .T. );
#135 = FACE_OUTER_BOUND( '', #202, .T. );
#136 = ( BOUNDED_SURFACE(  )B_SPLINE_SURFACE( 3, 3, ( ( #205, #206, #207, #208, #209, #210, #211 ), ( #212, #213, #214, #215, #216, #217, #218 ), ( #219, #220, #221, #222, #223, #224, #225 ), ( #226, #227, #228, #229, #230, #231, #232 ) ), .UNSPECIFIED., .F., .T., .F. )B_SPLINE_SURFACE_WITH_KNOTS( ( 4, 4 ), ( 4, 3, 4 ), ( 0.000000000000000, 6.28318530717959 ), ( -0.918467825841969, -0.612820202165243, -0.307172578488517 ), .UNSPECIFIED. )GEOMETRIC_REPRESENTATION_ITEM(  )RATIONAL_B_SPLINE_SURFACE( ( ( 1.00000000000000, 0.333333333333333, 0.333333333333333, 1.00000000000000, 0.333333333333333, 0.333333333333333, 1.00000000000000 ), ( 0.969101517054376, 0.323033839018125, 0.323033839018125, 0.969101517054376, 0.323033839018125, 0.323033839018125, 0.969101517054376 ), ( 0.969101517054376, 0.323033839018125, 0.323033839018125, 0.969101517054376, 0.323033839018125, 0.323033839018125, 0.969101517054376 ), ( 1.00000000000000, 0.333333333333333, 0.333333333333333, 1.00000000000000, 0.333333333333333, 0.333333333333333, 1.00000000000000 ) ) )REPRESENTATION_ITEM( '' )SURFACE(  ) );
#137 = SURFACE_STYLE_USAGE( .BOTH., #238 );
#138 = FACE_OUTER_BOUND( '', #239, .T. );
#139 = FACE_OUTER_BOUND( '', #240, .T. );
#140 = TOROIDAL_SURFACE( '', #241, 32.7000000000000, 0.500000000000000 );
#141 = SURFACE_STYLE_USAGE( .BOTH., #242 );
#142 = FACE_OUTER_BOUND( '', #243, .T. );
#143 = FACE_OUTER_BOUND( '', #244, .T. );
#144 = CYLINDRICAL_SURFACE( '', #245, 33.2000000000000 );
#145 = PRODUCT_CONTEXT( '', #25, 'mechanical' );
#146 = PRODUCT_DEFINITION_FORMATION_WITH_SPECIFIED_SOURCE( ' ', 'NONE', #68, .NOT_KNOWN. );
#147 = CLOSED_SHELL( '', ( #65, #57, #67, #45, #51, #63, #47, #61, #39, #59, #41, #55, #49, #43, #53 ) );
#148 = CARTESIAN_POINT( '', ( 0.000000000000000, 0.000000000000000, 0.000000000000000 ) );
#149 = DIRECTION( '', ( 0.000000000000000, 0.000000000000000, 1.00000000000000 ) );
#150 = DIRECTION( '', ( 1.00000000000000, 0.000000000000000, 0.000000000000000 ) );
#151 =  ( LENGTH_UNIT(  )NAMED_UNIT( #77 )SI_UNIT( .MILLI., .METRE. ) );
#152 = SURFACE_SIDE_STYLE( '', ( #247 ) );
#153 = EDGE_LOOP( '', ( #248 ) );
#154 = EDGE_LOOP( '', ( #249 ) );
#155 = AXIS2_PLACEMENT_3D( '', #250, #251, #252 );
#156 = SURFACE_SIDE_STYLE( '', ( #253 ) );
#157 = EDGE_LOOP( '', ( #254 ) );
#158 = EDGE_LOOP( '', ( #255 ) );
#159 = AXIS2_PLACEMENT_3D( '', #256, #257, #258 );
#160 = SURFACE_SIDE_STYLE( '', ( #259 ) );
#161 = EDGE_LOOP( '', ( #260 ) );
#162 = EDGE_LOOP( '', ( #261 ) );
#163 = AXIS2_PLACEMENT_3D( '', #262, #263, #264 );
#164 = SURFACE_SIDE_STYLE( '', ( #265 ) );
#165 = VERTEX_LOOP( '', #266 );
#166 = EDGE_LOOP( '', ( #267 ) );
#167 = EDGE_LOOP( '', ( #268 ) );
#168 = AXIS2_PLACEMENT_3D( '', #269, #270, #271 );
#169 = SURFACE_SIDE_STYLE( '', ( #272 ) );
#170 = EDGE_LOOP( '', ( #273 ) );
#171 = EDGE_LOOP( '', ( #274 ) );
#172 = AXIS2_PLACEMENT_3D( '', #275, #276, #277 );
#173 = SURFACE_SIDE_STYLE( '', ( #278 ) );
#174 = EDGE_LOOP( '', ( #279 ) );
#175 = EDGE_LOOP( '', ( #280 ) );
#176 = AXIS2_PLACEMENT_3D( '', #281, #282, #283 );
#177 = SURFACE_SIDE_STYLE( '', ( #284 ) );
#178 = EDGE_LOOP( '', ( #285 ) );
#179 = EDGE_LOOP( '', ( #286 ) );
#180 = AXIS2_PLACEMENT_3D( '', #287, #288, #289 );
#181 = SURFACE_SIDE_STYLE( '', ( #290 ) );
#182 = VERTEX_LOOP( '', #291 );
#183 = EDGE_LOOP( '', ( #292 ) );
#184 = AXIS2_PLACEMENT_3D( '', #293, #294, #295 );
#185 = SURFACE_SIDE_STYLE( '', ( #296 ) );
#186 = EDGE_LOOP( '', ( #297 ) );
#187 = EDGE_LOOP( '', ( #298 ) );
#188 = AXIS2_PLACEMENT_3D( '', #299, #300, #301 );
#189 = SURFACE_SIDE_STYLE( '', ( #302 ) );
#190 = EDGE_LOOP( '', ( #303 ) );
#191 = AXIS2_PLACEMENT_3D( '', #304, #305, #306 );
#192 = SURFACE_SIDE_STYLE( '', ( #307 ) );
#193 = EDGE_LOOP( '', ( #308 ) );
#194 = EDGE_LOOP( '', ( #309 ) );
#195 = AXIS2_PLACEMENT_3D( '', #310, #311, #312 );
#196 = SURFACE_SIDE_STYLE( '', ( #313 ) );
#197 = EDGE_LOOP( '', ( #314 ) );
#198 = EDGE_LOOP( '', ( #315 ) );
#199 = AXIS2_PLACEMENT_3D( '', #316, #317, #318 );
#200 = SURFACE_SIDE_STYLE( '', ( #319 ) );
#201 = EDGE_LOOP( '', ( #320 ) );
#202 = EDGE_LOOP( '', ( #321 ) );
#205 = CARTESIAN_POINT( '', ( 0.000000000000000, 85.6000000000000, -24.5000000000000 ) );
#206 = CARTESIAN_POINT( '', ( 49.0000000000000, 85.6000000000000, -24.5000000000000 ) );
#207 = CARTESIAN_POINT( '', ( 49.0000000000000, 85.6000000000000, 24.5000000000000 ) );
#208 = CARTESIAN_POINT( '', ( 0.000000000000000, 85.6000000000000, 24.5000000000000 ) );
#209 = CARTESIAN_POINT( '', ( -49.0000000000000, 85.6000000000000, 24.5000000000000 ) );
#210 = CARTESIAN_POINT( '', ( -49.0000000000000, 85.6000000000000, -24.5000000000000 ) );
#211 = CARTESIAN_POINT( '', ( 0.000000000000000, 85.6000000000000, -24.5000000000000 ) );
#212 = CARTESIAN_POINT( '', ( 0.000000000000000, 88.1650815866608, -23.6863233508268 ) );
#213 = CARTESIAN_POINT( '', ( 47.3726467016536, 88.1650815866608, -23.6863233508268 ) );
#214 = CARTESIAN_POINT( '', ( 47.3726467016536, 88.1650815866608, 23.6863233508268 ) );
#215 = CARTESIAN_POINT( '', ( 0.000000000000000, 88.1650815866608, 23.6863233508268 ) );
#216 = CARTESIAN_POINT( '', ( -47.3726467016536, 88.1650815866608, 23.6863233508268 ) );
#217 = CARTESIAN_POINT( '', ( -47.3726467016536, 88.1650815866608, -23.6863233508268 ) );
#218 = CARTESIAN_POINT( '', ( 0.000000000000000, 88.1650815866608, -23.6863233508268 ) );
#219 = CARTESIAN_POINT( '', ( 0.000000000000000, 90.3664333499082, -22.1384978922935 ) );
#220 = CARTESIAN_POINT( '', ( 44.2769957845870, 90.3664333499081, -22.1384978922935 ) );
#221 = CARTESIAN_POINT( '', ( 44.2769957845870, 90.3664333499081, 22.1384978922935 ) );
#222 = CARTESIAN_POINT( '', ( 0.000000000000000, 90.3664333499082, 22.1384978922935 ) );
#223 = CARTESIAN_POINT( '', ( -44.2769957845870, 90.3664333499081, 22.1384978922935 ) );
#224 = CARTESIAN_POINT( '', ( -44.2769957845870, 90.3664333499081, -22.1384978922935 ) );
#225 = CARTESIAN_POINT( '', ( 0.000000000000000, 90.3664333499082, -22.1384978922935 ) );
#226 = CARTESIAN_POINT( '', ( 0.000000000000000, 92.0000000000000, -20.0000000000000 ) );
#227 = CARTESIAN_POINT( '', ( 40.0000000000000, 92.0000000000000, -20.0000000000000 ) );
#228 = CARTESIAN_POINT( '', ( 40.0000000000000, 92.0000000000000, 20.0000000000000 ) );
#229 = CARTESIAN_POINT( '', ( 0.000000000000000, 92.0000000000000, 20.0000000000000 ) );
#230 = CARTESIAN_POINT( '', ( -40.0000000000000, 92.0000000000000, 20.0000000000000 ) );
#231 = CARTESIAN_POINT( '', ( -40.0000000000000, 92.0000000000000, -20.0000000000000 ) );
#232 = CARTESIAN_POINT( '', ( 0.000000000000000, 92.0000000000000, -20.0000000000000 ) );
#238 = SURFACE_SIDE_STYLE( '', ( #322 ) );
#239 = EDGE_LOOP( '', ( #323 ) );
#240 = EDGE_LOOP( '', ( #324 ) );
#241 = AXIS2_PLACEMENT_3D( '', #325, #326, #327 );
#242 = SURFACE_SIDE_STYLE( '', ( #328 ) );
#243 = EDGE_LOOP( '', ( #329 ) );
#244 = EDGE_LOOP( '', ( #330 ) );
#245 = AXIS2_PLACEMENT_3D( '', #331, #332, #333 );
#247 = SURFACE_STYLE_FILL_AREA( #334 );
#248 = ORIENTED_EDGE( '', *, *, #335, .F. );
#249 = ORIENTED_EDGE( '', *, *, #336, .T. );
#250 = CARTESIAN_POINT( '', ( 39.0000000000000, 89.1000000000000, 0.000000000000000 ) );
#251 = DIRECTION( '', ( 0.000000000000000, -1.00000000000000, -0.000000000000000 ) );
#252 = DIRECTION( '', ( 0.000000000000000, 0.000000000000000, -1.00000000000000 ) );
#253 = SURFACE_STYLE_FILL_AREA( #337 );
#254 = ORIENTED_EDGE( '', *, *, #338, .F. );
#255 = ORIENTED_EDGE( '', *, *, #339, .T. );
#256 = CARTESIAN_POINT( '', ( 0.000000000000000, 0.000000000000000, 0.000000000000000 ) );
#257 = DIRECTION( '', ( -0.000000000000000, 1.00000000000000, 0.000000000000000 ) );
#258 = DIRECTION( '', ( 0.000000000000000, 0.000000000000000, -1.00000000000000 ) );
#259 = SURFACE_STYLE_FILL_AREA( #340 );
#260 = ORIENTED_EDGE( '', *, *, #341, .F. );
#261 = ORIENTED_EDGE( '', *, *, #342, .T. );
#262 = CARTESIAN_POINT( '', ( 0.000000000000000, 64.4000000000000, 0.000000000000000 ) );
#263 = DIRECTION( '', ( 0.000000000000000, -1.00000000000000, -0.000000000000000 ) );
#264 = DIRECTION( '', ( 0.000000000000000, 0.000000000000000, -1.00000000000000 ) );
#265 = SURFACE_STYLE_FILL_AREA( #343 );
#266 = VERTEX_POINT( '', #344 );
#267 = ORIENTED_EDGE( '', *, *, #345, .F. );
#268 = ORIENTED_EDGE( '', *, *, #346, .T. );
#269 = CARTESIAN_POINT( '', ( 0.000000000000000, 89.3193097694583, 0.000000000000000 ) );
#270 = DIRECTION( '', ( 0.000000000000000, -1.00000000000000, -0.000000000000000 ) );
#271 = DIRECTION( '', ( 0.000000000000000, 0.000000000000000, -1.00000000000000 ) );
#272 = SURFACE_STYLE_FILL_AREA( #347 );
#273 = ORIENTED_EDGE( '', *, *, #348, .F. );
#274 = ORIENTED_EDGE( '', *, *, #349, .T. );
#275 = CARTESIAN_POINT( '', ( 24.5000000000000, 85.6000000000000, 0.000000000000000 ) );
#276 = DIRECTION( '', ( 0.000000000000000, -1.00000000000000, -0.000000000000000 ) );
#277 = DIRECTION( '', ( 0.000000000000000, 0.000000000000000, -1.00000000000000 ) );
#278 = SURFACE_STYLE_FILL_AREA( #350 );
#279 = ORIENTED_EDGE( '', *, *, #342, .F. );
#280 = ORIENTED_EDGE( '', *, *, #351, .T. );
#281 = CARTESIAN_POINT( '', ( 42.0000000000000, 64.9000000000000, 0.000000000000000 ) );
#282 = DIRECTION( '', ( 0.000000000000000, 1.00000000000000, 0.000000000000000 ) );
#283 = DIRECTION( '', ( 0.000000000000000, -0.000000000000000, 1.00000000000000 ) );
#284 = SURFACE_STYLE_FILL_AREA( #352 );
#285 = ORIENTED_EDGE( '', *, *, #353, .F. );
#286 = ORIENTED_EDGE( '', *, *, #345, .T. );
#287 = CARTESIAN_POINT( '', ( 18.5000000000000, 92.0000000000000, 0.000000000000000 ) );
#288 = DIRECTION( '', ( 0.000000000000000, -1.00000000000000, -0.000000000000000 ) );
#289 = DIRECTION( '', ( 0.000000000000000, 0.000000000000000, -1.00000000000000 ) );
#290 = SURFACE_STYLE_FILL_AREA( #354 );
#291 = VERTEX_POINT( '', #355 );
#292 = ORIENTED_EDGE( '', *, *, #346, .F. );
#293 = CARTESIAN_POINT( '', ( -1.73472347597681E-15, 78.0000000000000, 0.000000000000000 ) );
#294 = DIRECTION( '', ( 0.000000000000000, -1.00000000000000, 0.000000000000000 ) );
#295 = DIRECTION( '', ( -1.00000000000000, 0.000000000000000, 0.000000000000000 ) );
#296 = SURFACE_STYLE_FILL_AREA( #356 );
#297 = ORIENTED_EDGE( '', *, *, #338, .T. );
#298 = ORIENTED_EDGE( '', *, *, #351, .F. );
#299 = CARTESIAN_POINT( '', ( 0.000000000000000, 65.4000000000000, 0.000000000000000 ) );
#300 = DIRECTION( '', ( 0.000000000000000, -1.00000000000000, -0.000000000000000 ) );
#301 = DIRECTION( '', ( 0.000000000000000, 0.000000000000000, -1.00000000000000 ) );
#302 = SURFACE_STYLE_FILL_AREA( #357 );
#303 = ORIENTED_EDGE( '', *, *, #358, .T. );
#304 = CARTESIAN_POINT( '', ( 32.7000000000000, -1.84314369322536E-15, 0.000000000000000 ) );
#305 = DIRECTION( '', ( 0.000000000000000, 1.00000000000000, 0.000000000000000 ) );
#306 = DIRECTION( '', ( 0.000000000000000, -0.000000000000000, 1.00000000000000 ) );
#307 = SURFACE_STYLE_FILL_AREA( #359 );
#308 = ORIENTED_EDGE( '', *, *, #335, .T. );
#309 = ORIENTED_EDGE( '', *, *, #339, .F. );
#310 = CARTESIAN_POINT( '', ( 0.000000000000000, 88.6000000000000, 0.000000000000000 ) );
#311 = DIRECTION( '', ( 0.000000000000000, -1.00000000000000, -0.000000000000000 ) );
#312 = DIRECTION( '', ( 0.000000000000000, 0.000000000000000, -1.00000000000000 ) );
#313 = SURFACE_STYLE_FILL_AREA( #360 );
#314 = ORIENTED_EDGE( '', *, *, #336, .F. );
#315 = ORIENTED_EDGE( '', *, *, #348, .T. );
#316 = CARTESIAN_POINT( '', ( 0.000000000000000, 0.000000000000000, 0.000000000000000 ) );
#317 = DIRECTION( '', ( -0.000000000000000, 1.00000000000000, 0.000000000000000 ) );
#318 = DIRECTION( '', ( 0.000000000000000, 0.000000000000000, -1.00000000000000 ) );
#319 = SURFACE_STYLE_FILL_AREA( #361 );
#320 = ORIENTED_EDGE( '', *, *, #353, .T. );
#321 = ORIENTED_EDGE( '', *, *, #349, .F. );
#322 = SURFACE_STYLE_FILL_AREA( #362 );
#323 = ORIENTED_EDGE( '', *, *, #363, .T. );
#324 = ORIENTED_EDGE( '', *, *, #358, .F. );
#325 = CARTESIAN_POINT( '', ( 0.000000000000000, 0.499999999999997, 0.000000000000000 ) );
#326 = DIRECTION( '', ( 0.000000000000000, -1.00000000000000, -0.000000000000000 ) );
#327 = DIRECTION( '', ( 0.000000000000000, 0.000000000000000, -1.00000000000000 ) );
#328 = SURFACE_STYLE_FILL_AREA( #364 );
#329 = ORIENTED_EDGE( '', *, *, #363, .F. );
#330 = ORIENTED_EDGE( '', *, *, #341, .T. );
#331 = CARTESIAN_POINT( '', ( 0.000000000000000, 0.000000000000000, 0.000000000000000 ) );
#332 = DIRECTION( '', ( -0.000000000000000, 1.00000000000000, 0.000000000000000 ) );
#333 = DIRECTION( '', ( 0.000000000000000, 0.000000000000000, -1.00000000000000 ) );
#334 = FILL_AREA_STYLE( '', ( #365 ) );
#335 = EDGE_CURVE( '', #366, #366, #367, .T. );
#336 = EDGE_CURVE( '', #368, #368, #369, .T. );
#337 = FILL_AREA_STYLE( '', ( #370 ) );
#338 = EDGE_CURVE( '', #371, #371, #372, .T. );
#339 = EDGE_CURVE( '', #373, #373, #374, .T. );
#340 = FILL_AREA_STYLE( '', ( #375 ) );
#341 = EDGE_CURVE( '', #376, #376, #377, .T. );
#342 = EDGE_CURVE( '', #378, #378, #379, .T. );
#343 = FILL_AREA_STYLE( '', ( #380 ) );
#344 = CARTESIAN_POINT( '', ( 0.000000000000000, 89.3193097694583, -20.1852683417849 ) );
#345 = EDGE_CURVE( '', #381, #381, #382, .T. );
#346 = EDGE_CURVE( '', #383, #383, #384, .T. );
#347 = FILL_AREA_STYLE( '', ( #385 ) );
#348 = EDGE_CURVE( '', #386, #386, #387, .T. );
#349 = EDGE_CURVE( '', #388, #388, #389, .T. );
#350 = FILL_AREA_STYLE( '', ( #390 ) );
#351 = EDGE_CURVE( '', #391, #391, #392, .T. );
#352 = FILL_AREA_STYLE( '', ( #393 ) );
#353 = EDGE_CURVE( '', #394, #394, #395, .T. );
#354 = FILL_AREA_STYLE( '', ( #396 ) );
#355 = CARTESIAN_POINT( '', ( -3.11245112501758E-15, 100.500000000000, 0.000000000000000 ) );
#356 = FILL_AREA_STYLE( '', ( #397 ) );
#357 = FILL_AREA_STYLE( '', ( #398 ) );
#358 = EDGE_CURVE( '', #399, #399, #400, .T. );
#359 = FILL_AREA_STYLE( '', ( #401 ) );
#360 = FILL_AREA_STYLE( '', ( #402 ) );
#361 = FILL_AREA_STYLE( '', ( #403 ) );
#362 = FILL_AREA_STYLE( '', ( #404 ) );
#363 = EDGE_CURVE( '', #405, #405, #406, .T. );
#364 = FILL_AREA_STYLE( '', ( #407 ) );
#365 = FILL_AREA_STYLE_COLOUR( '', #408 );
#366 = VERTEX_POINT( '', #409 );
#367 = CIRCLE( '', #410, 42.0000000000000 );
#368 = VERTEX_POINT( '', #411 );
#369 = CIRCLE( '', #412, 39.0000000000000 );
#370 = FILL_AREA_STYLE_COLOUR( '', #413 );
#371 = VERTEX_POINT( '', #414 );
#372 = CIRCLE( '', #415, 42.5000000000000 );
#373 = VERTEX_POINT( '', #416 );
#374 = CIRCLE( '', #417, 42.5000000000000 );
#375 = FILL_AREA_STYLE_COLOUR( '', #418 );
#376 = VERTEX_POINT( '', #419 );
#377 = CIRCLE( '', #420, 33.2000000000000 );
#378 = VERTEX_POINT( '', #421 );
#379 = CIRCLE( '', #422, 33.7000000000000 );
#380 = FILL_AREA_STYLE_COLOUR( '', #423 );
#381 = VERTEX_POINT( '', #424 );
#382 = CIRCLE( '', #425, 18.5000000000000 );
#383 = VERTEX_POINT( '', #426 );
#384 = CIRCLE( '', #427, 20.0046884278000 );
#385 = FILL_AREA_STYLE_COLOUR( '', #428 );
#386 = VERTEX_POINT( '', #429 );
#387 = CIRCLE( '', #430, 39.0000000000000 );
#388 = VERTEX_POINT( '', #431 );
#389 = CIRCLE( '', #432, 24.5000000000000 );
#390 = FILL_AREA_STYLE_COLOUR( '', #433 );
#391 = VERTEX_POINT( '', #434 );
#392 = CIRCLE( '', #435, 42.0000000000000 );
#393 = FILL_AREA_STYLE_COLOUR( '', #436 );
#394 = VERTEX_POINT( '', #437 );
#395 = CIRCLE( '', #438, 20.0000000000000 );
#396 = FILL_AREA_STYLE_COLOUR( '', #439 );
#397 = FILL_AREA_STYLE_COLOUR( '', #440 );
#398 = FILL_AREA_STYLE_COLOUR( '', #441 );
#399 = VERTEX_POINT( '', #442 );
#400 = CIRCLE( '', #443, 32.7000000000000 );
#401 = FILL_AREA_STYLE_COLOUR( '', #444 );
#402 = FILL_AREA_STYLE_COLOUR( '', #445 );
#403 = FILL_AREA_STYLE_COLOUR( '', #446 );
#404 = FILL_AREA_STYLE_COLOUR( '', #447 );
#405 = VERTEX_POINT( '', #448 );
#406 = CIRCLE( '', #449, 33.2000000000000 );
#407 = FILL_AREA_STYLE_COLOUR( '', #450 );
#408 = COLOUR_RGB( '', 0.689999997600000, 0.689999997600000, 0.689999997600000 );
#409 = CARTESIAN_POINT( '', ( 0.000000000000000, 89.1000000000000, -42.0000000000000 ) );
#410 = AXIS2_PLACEMENT_3D( '', #451, #452, #453 );
#411 = CARTESIAN_POINT( '', ( 0.000000000000000, 89.1000000000000, -39.0000000000000 ) );
#412 = AXIS2_PLACEMENT_3D( '', #454, #455, #456 );
#413 = COLOUR_RGB( '', 0.689999997600000, 0.689999997600000, 0.689999997600000 );
#414 = CARTESIAN_POINT( '', ( 0.000000000000000, 65.4000000000000, -42.5000000000000 ) );
#415 = AXIS2_PLACEMENT_3D( '', #457, #458, #459 );
#416 = CARTESIAN_POINT( '', ( 0.000000000000000, 88.6000000000000, -42.5000000000000 ) );
#417 = AXIS2_PLACEMENT_3D( '', #460, #461, #462 );
#418 = COLOUR_RGB( '', 0.689999997600000, 0.689999997600000, 0.689999997600000 );
#419 = CARTESIAN_POINT( '', ( 0.000000000000000, 64.4000000000000, -33.2000000000000 ) );
#420 = AXIS2_PLACEMENT_3D( '', #463, #464, #465 );
#421 = CARTESIAN_POINT( '', ( 0.000000000000000, 64.9000000000000, -33.7000000000000 ) );
#422 = AXIS2_PLACEMENT_3D( '', #466, #467, #468 );
#423 = COLOUR_RGB( '', 0.689999997600000, 0.689999997600000, 0.689999997600000 );
#424 = CARTESIAN_POINT( '', ( 0.000000000000000, 92.0000000000000, -18.5000000000000 ) );
#425 = AXIS2_PLACEMENT_3D( '', #469, #470, #471 );
#426 = CARTESIAN_POINT( '', ( 20.0046884277934, 88.2986620930542, 0.000000000000000 ) );
#427 = AXIS2_PLACEMENT_3D( '', #472, #473, #474 );
#428 = COLOUR_RGB( '', 0.689999997600000, 0.689999997600000, 0.689999997600000 );
#429 = CARTESIAN_POINT( '', ( 0.000000000000000, 85.6000000000000, -39.0000000000000 ) );
#430 = AXIS2_PLACEMENT_3D( '', #475, #476, #477 );
#431 = CARTESIAN_POINT( '', ( 0.000000000000000, 85.6000000000000, -24.5000000000000 ) );
#432 = AXIS2_PLACEMENT_3D( '', #478, #479, #480 );
#433 = COLOUR_RGB( '', 0.689999997600000, 0.689999997600000, 0.689999997600000 );
#434 = CARTESIAN_POINT( '', ( 0.000000000000000, 64.9000000000000, -42.0000000000000 ) );
#435 = AXIS2_PLACEMENT_3D( '', #481, #482, #483 );
#436 = COLOUR_RGB( '', 0.689999997600000, 0.689999997600000, 0.689999997600000 );
#437 = CARTESIAN_POINT( '', ( 0.000000000000000, 92.0000000000000, -20.0000000000000 ) );
#438 = AXIS2_PLACEMENT_3D( '', #484, #485, #486 );
#439 = COLOUR_RGB( '', 0.689999997600000, 0.689999997600000, 0.689999997600000 );
#440 = COLOUR_RGB( '', 0.689999997600000, 0.689999997600000, 0.689999997600000 );
#441 = COLOUR_RGB( '', 0.689999997600000, 0.689999997600000, 0.689999997600000 );
#442 = CARTESIAN_POINT( '', ( 0.000000000000000, -3.68628738645072E-15, -32.7000000000000 ) );
#443 = AXIS2_PLACEMENT_3D( '', #487, #488, #489 );
#444 = COLOUR_RGB( '', 0.689999997600000, 0.689999997600000, 0.689999997600000 );
#445 = COLOUR_RGB( '', 0.689999997600000, 0.689999997600000, 0.689999997600000 );
#446 = COLOUR_RGB( '', 0.689999997600000, 0.689999997600000, 0.689999997600000 );
#447 = COLOUR_RGB( '', 0.689999997600000, 0.689999997600000, 0.689999997600000 );
#448 = CARTESIAN_POINT( '', ( 0.000000000000000, 0.500000000000000, -33.2000000000000 ) );
#449 = AXIS2_PLACEMENT_3D( '', #490, #491, #492 );
#450 = COLOUR_RGB( '', 0.689999997600000, 0.689999997600000, 0.689999997600000 );
#451 = CARTESIAN_POINT( '', ( 0.000000000000000, 89.1000000000000, 0.000000000000000 ) );
#452 = DIRECTION( '', ( 0.000000000000000, -1.00000000000000, -0.000000000000000 ) );
#453 = DIRECTION( '', ( 0.000000000000000, 0.000000000000000, -1.00000000000000 ) );
#454 = CARTESIAN_POINT( '', ( 0.000000000000000, 89.1000000000000, 0.000000000000000 ) );
#455 = DIRECTION( '', ( 0.000000000000000, -1.00000000000000, -0.000000000000000 ) );
#456 = DIRECTION( '', ( 0.000000000000000, 0.000000000000000, -1.00000000000000 ) );
#457 = CARTESIAN_POINT( '', ( 0.000000000000000, 65.4000000000000, 0.000000000000000 ) );
#458 = DIRECTION( '', ( 0.000000000000000, -1.00000000000000, -0.000000000000000 ) );
#459 = DIRECTION( '', ( 0.000000000000000, 0.000000000000000, -1.00000000000000 ) );
#460 = CARTESIAN_POINT( '', ( 0.000000000000000, 88.6000000000000, 0.000000000000000 ) );
#461 = DIRECTION( '', ( 0.000000000000000, -1.00000000000000, -0.000000000000000 ) );
#462 = DIRECTION( '', ( 0.000000000000000, 0.000000000000000, -1.00000000000000 ) );
#463 = CARTESIAN_POINT( '', ( 0.000000000000000, 64.4000000000000, 0.000000000000000 ) );
#464 = DIRECTION( '', ( 0.000000000000000, -1.00000000000000, -0.000000000000000 ) );
#465 = DIRECTION( '', ( 0.000000000000000, 0.000000000000000, -1.00000000000000 ) );
#466 = CARTESIAN_POINT( '', ( 0.000000000000000, 64.9000000000000, 0.000000000000000 ) );
#467 = DIRECTION( '', ( 0.000000000000000, -1.00000000000000, -0.000000000000000 ) );
#468 = DIRECTION( '', ( 0.000000000000000, 0.000000000000000, -1.00000000000000 ) );
#469 = CARTESIAN_POINT( '', ( 0.000000000000000, 92.0000000000000, 0.000000000000000 ) );
#470 = DIRECTION( '', ( 0.000000000000000, -1.00000000000000, -0.000000000000000 ) );
#471 = DIRECTION( '', ( 0.000000000000000, 0.000000000000000, -1.00000000000000 ) );
#472 = CARTESIAN_POINT( '', ( -7.82088979372520E-17, 88.2986620930542, 0.000000000000000 ) );
#473 = DIRECTION( '', ( -7.66267339311376E-17, -1.00000000000000, 0.000000000000000 ) );
#474 = DIRECTION( '', ( 1.00000000000000, -7.66267339311376E-17, 0.000000000000000 ) );
#475 = CARTESIAN_POINT( '', ( 0.000000000000000, 85.6000000000000, 0.000000000000000 ) );
#476 = DIRECTION( '', ( 0.000000000000000, -1.00000000000000, -0.000000000000000 ) );
#477 = DIRECTION( '', ( 0.000000000000000, 0.000000000000000, -1.00000000000000 ) );
#478 = CARTESIAN_POINT( '', ( 0.000000000000000, 85.6000000000000, 0.000000000000000 ) );
#479 = DIRECTION( '', ( 0.000000000000000, -1.00000000000000, -0.000000000000000 ) );
#480 = DIRECTION( '', ( 0.000000000000000, 0.000000000000000, -1.00000000000000 ) );
#481 = CARTESIAN_POINT( '', ( 0.000000000000000, 64.9000000000000, 0.000000000000000 ) );
#482 = DIRECTION( '', ( 0.000000000000000, -1.00000000000000, -0.000000000000000 ) );
#483 = DIRECTION( '', ( 0.000000000000000, 0.000000000000000, -1.00000000000000 ) );
#484 = CARTESIAN_POINT( '', ( 0.000000000000000, 92.0000000000000, 0.000000000000000 ) );
#485 = DIRECTION( '', ( 0.000000000000000, -1.00000000000000, -0.000000000000000 ) );
#486 = DIRECTION( '', ( 0.000000000000000, 0.000000000000000, -1.00000000000000 ) );
#487 = CARTESIAN_POINT( '', ( 0.000000000000000, -3.68628738645072E-15, 0.000000000000000 ) );
#488 = DIRECTION( '', ( 0.000000000000000, -1.00000000000000, -0.000000000000000 ) );
#489 = DIRECTION( '', ( 0.000000000000000, 0.000000000000000, -1.00000000000000 ) );
#490 = CARTESIAN_POINT( '', ( 0.000000000000000, 0.500000000000000, 0.000000000000000 ) );
#491 = DIRECTION( '', ( 0.000000000000000, -1.00000000000000, -0.000000000000000 ) );
#492 = DIRECTION( '', ( 0.000000000000000, 0.000000000000000, -1.00000000000000 ) );
ENDSEC;
END-ISO-10303-21;
