ISO-10303-21;
HEADER;
FILE_DESCRIPTION( ( 'STEP AP214' ), '1' );
FILE_NAME( '//goodhand-server/Shared Folders/GoodHand Data/Kipp CAD/K1129/K1129.10012.stp', '2020-12-10T10:17:03', ( '' ), ( '' ), ' ', 'PARTsolutions', ' ' );
FILE_SCHEMA( ( 'AUTOMOTIVE_DESIGN { 1 0 10303 214 1 1 1 1 }' ) );
ENDSEC;
DATA;
#1 = MECHANICAL_DESIGN_GEOMETRIC_PRESENTATION_REPRESENTATION( ' ', ( #10, #11, #12, #13, #14, #15, #16, #17, #18, #19, #20, #21 ), #6 );
#2 = PRODUCT_DEFINITION_CONTEXT( '', #22, 'design' );
#3 = APPLICATION_PROTOCOL_DEFINITION( 'international standard', 'automotive_design', 2001, #22 );
#4 = PRODUCT_CATEGORY_RELATIONSHIP( 'NONE', 'NONE', #23, #24 );
#5 = SHAPE_DEFINITION_REPRESENTATION( #25, #26 );
#6 =  ( GEOMETRIC_REPRESENTATION_CONTEXT( 3 )GLOBAL_UNCERTAINTY_ASSIGNED_CONTEXT( ( #29 ) )GLOBAL_UNIT_ASSIGNED_CONTEXT( ( #31, #32, #33 ) )REPRESENTATION_CONTEXT( 'NONE', 'WORKSPACE' ) );
#10 = STYLED_ITEM( '', ( #35 ), #36 );
#11 = STYLED_ITEM( '', ( #37 ), #38 );
#12 = STYLED_ITEM( '', ( #39 ), #40 );
#13 = STYLED_ITEM( '', ( #41 ), #42 );
#14 = STYLED_ITEM( '', ( #43 ), #44 );
#15 = STYLED_ITEM( '', ( #45 ), #46 );
#16 = STYLED_ITEM( '', ( #47 ), #48 );
#17 = STYLED_ITEM( '', ( #49 ), #50 );
#18 = STYLED_ITEM( '', ( #51 ), #52 );
#19 = STYLED_ITEM( '', ( #53 ), #54 );
#20 = STYLED_ITEM( '', ( #55 ), #56 );
#21 = STYLED_ITEM( '', ( #57 ), #58 );
#22 = APPLICATION_CONTEXT( 'core data for automotive mechanical design processes' );
#23 = PRODUCT_CATEGORY( 'part', 'NONE' );
#24 = PRODUCT_RELATED_PRODUCT_CATEGORY( 'detail', ' ', ( #59 ) );
#25 = PRODUCT_DEFINITION_SHAPE( 'NONE', 'NONE', #60 );
#26 = ADVANCED_BREP_SHAPE_REPRESENTATION( '_K1129.10012', ( #61, #62 ), #6 );
#29 = UNCERTAINTY_MEASURE_WITH_UNIT( LENGTH_MEASURE( 0.00100000000000000 ), #31, '', '' );
#31 =  ( CONVERSION_BASED_UNIT( 'MILLIMETRE', #65 )LENGTH_UNIT(  )NAMED_UNIT( #68 ) );
#32 =  ( NAMED_UNIT( #70 )PLANE_ANGLE_UNIT(  )SI_UNIT( $, .RADIAN. ) );
#33 =  ( NAMED_UNIT( #70 )SI_UNIT( $, .STERADIAN. )SOLID_ANGLE_UNIT(  ) );
#35 = PRESENTATION_STYLE_ASSIGNMENT( ( #76 ) );
#36 = ADVANCED_FACE( '', ( #77 ), #78, .T. );
#37 = PRESENTATION_STYLE_ASSIGNMENT( ( #79 ) );
#38 = ADVANCED_FACE( '', ( #80 ), #81, .T. );
#39 = PRESENTATION_STYLE_ASSIGNMENT( ( #82 ) );
#40 = ADVANCED_FACE( '', ( #83, #84 ), #85, .T. );
#41 = PRESENTATION_STYLE_ASSIGNMENT( ( #86 ) );
#42 = ADVANCED_FACE( '', ( #87 ), #88, .T. );
#43 = PRESENTATION_STYLE_ASSIGNMENT( ( #89 ) );
#44 = ADVANCED_FACE( '', ( #90 ), #91, .F. );
#45 = PRESENTATION_STYLE_ASSIGNMENT( ( #92 ) );
#46 = ADVANCED_FACE( '', ( #93 ), #94, .T. );
#47 = PRESENTATION_STYLE_ASSIGNMENT( ( #95 ) );
#48 = ADVANCED_FACE( '', ( #96 ), #97, .T. );
#49 = PRESENTATION_STYLE_ASSIGNMENT( ( #98 ) );
#50 = ADVANCED_FACE( '', ( #99 ), #100, .T. );
#51 = PRESENTATION_STYLE_ASSIGNMENT( ( #101 ) );
#52 = ADVANCED_FACE( '', ( #102, #103 ), #104, .T. );
#53 = PRESENTATION_STYLE_ASSIGNMENT( ( #105 ) );
#54 = ADVANCED_FACE( '', ( #106, #107 ), #108, .F. );
#55 = PRESENTATION_STYLE_ASSIGNMENT( ( #109 ) );
#56 = ADVANCED_FACE( '', ( #110 ), #111, .F. );
#57 = PRESENTATION_STYLE_ASSIGNMENT( ( #112 ) );
#58 = ADVANCED_FACE( '', ( #113, #114 ), #115, .T. );
#59 = PRODUCT( '_K1129.10012', '_K1129.10012', 'PART-_K1129.10012-DESC', ( #116 ) );
#60 = PRODUCT_DEFINITION( 'NONE', 'NONE', #117, #2 );
#61 = MANIFOLD_SOLID_BREP( '_K1129.10012', #118 );
#62 = AXIS2_PLACEMENT_3D( '', #119, #120, #121 );
#65 = LENGTH_MEASURE_WITH_UNIT( LENGTH_MEASURE( 1.00000000000000 ), #122 );
#68 = DIMENSIONAL_EXPONENTS( 1.00000000000000, 0.000000000000000, 0.000000000000000, 0.000000000000000, 0.000000000000000, 0.000000000000000, 0.000000000000000 );
#70 = DIMENSIONAL_EXPONENTS( 0.000000000000000, 0.000000000000000, 0.000000000000000, 0.000000000000000, 0.000000000000000, 0.000000000000000, 0.000000000000000 );
#76 = SURFACE_STYLE_USAGE( .BOTH., #123 );
#77 = FACE_OUTER_BOUND( '', #124, .T. );
#78 = PLANE( '', #125 );
#79 = SURFACE_STYLE_USAGE( .BOTH., #126 );
#80 = FACE_OUTER_BOUND( '', #127, .T. );
#81 = PLANE( '', #128 );
#82 = SURFACE_STYLE_USAGE( .BOTH., #129 );
#83 = FACE_OUTER_BOUND( '', #130, .T. );
#84 = FACE_BOUND( '', #131, .T. );
#85 = CONICAL_SURFACE( '', #132, 10.1346313302000, 0.769690200100000 );
#86 = SURFACE_STYLE_USAGE( .BOTH., #133 );
#87 = FACE_OUTER_BOUND( '', #134, .T. );
#88 = PLANE( '', #135 );
#89 = SURFACE_STYLE_USAGE( .BOTH., #136 );
#90 = FACE_OUTER_BOUND( '', #137, .T. );
#91 = PLANE( '', #138 );
#92 = SURFACE_STYLE_USAGE( .BOTH., #139 );
#93 = FACE_OUTER_BOUND( '', #140, .T. );
#94 = PLANE( '', #141 );
#95 = SURFACE_STYLE_USAGE( .BOTH., #142 );
#96 = FACE_OUTER_BOUND( '', #143, .T. );
#97 = PLANE( '', #144 );
#98 = SURFACE_STYLE_USAGE( .BOTH., #145 );
#99 = FACE_OUTER_BOUND( '', #146, .T. );
#100 = PLANE( '', #147 );
#101 = SURFACE_STYLE_USAGE( .BOTH., #148 );
#102 = FACE_BOUND( '', #149, .T. );
#103 = FACE_OUTER_BOUND( '', #150, .T. );
#104 = CONICAL_SURFACE( '', #151, 10.6189259507000, 0.0314159265000000 );
#105 = SURFACE_STYLE_USAGE( .BOTH., #152 );
#106 = FACE_OUTER_BOUND( '', #153, .T. );
#107 = FACE_BOUND( '', #154, .T. );
#108 = PLANE( '', #155 );
#109 = SURFACE_STYLE_USAGE( .BOTH., #156 );
#110 = FACE_OUTER_BOUND( '', #157, .T. );
#111 = PLANE( '', #158 );
#112 = SURFACE_STYLE_USAGE( .BOTH., #159 );
#113 = FACE_BOUND( '', #160, .T. );
#114 = FACE_OUTER_BOUND( '', #161, .T. );
#115 = CONICAL_SURFACE( '', #162, 10.3360740493000, 0.801106126700000 );
#116 = PRODUCT_CONTEXT( '', #22, 'mechanical' );
#117 = PRODUCT_DEFINITION_FORMATION_WITH_SPECIFIED_SOURCE( ' ', 'NONE', #59, .NOT_KNOWN. );
#118 = CLOSED_SHELL( '', ( #40, #54, #38, #50, #48, #44, #58, #52, #36, #42, #46, #56 ) );
#119 = CARTESIAN_POINT( '', ( 0.000000000000000, 0.000000000000000, 0.000000000000000 ) );
#120 = DIRECTION( '', ( 0.000000000000000, 0.000000000000000, 1.00000000000000 ) );
#121 = DIRECTION( '', ( 1.00000000000000, 0.000000000000000, 0.000000000000000 ) );
#122 =  ( LENGTH_UNIT(  )NAMED_UNIT( #68 )SI_UNIT( .MILLI., .METRE. ) );
#123 = SURFACE_SIDE_STYLE( '', ( #164 ) );
#124 = EDGE_LOOP( '', ( #165, #166, #167, #168 ) );
#125 = AXIS2_PLACEMENT_3D( '', #169, #170, #171 );
#126 = SURFACE_SIDE_STYLE( '', ( #172 ) );
#127 = EDGE_LOOP( '', ( #173, #174, #175, #176 ) );
#128 = AXIS2_PLACEMENT_3D( '', #177, #178, #179 );
#129 = SURFACE_SIDE_STYLE( '', ( #180 ) );
#130 = EDGE_LOOP( '', ( #181 ) );
#131 = EDGE_LOOP( '', ( #182 ) );
#132 = AXIS2_PLACEMENT_3D( '', #183, #184, #185 );
#133 = SURFACE_SIDE_STYLE( '', ( #186 ) );
#134 = EDGE_LOOP( '', ( #187, #188, #189, #190 ) );
#135 = AXIS2_PLACEMENT_3D( '', #191, #192, #193 );
#136 = SURFACE_SIDE_STYLE( '', ( #194 ) );
#137 = EDGE_LOOP( '', ( #195 ) );
#138 = AXIS2_PLACEMENT_3D( '', #196, #197, #198 );
#139 = SURFACE_SIDE_STYLE( '', ( #199 ) );
#140 = EDGE_LOOP( '', ( #200, #201, #202, #203 ) );
#141 = AXIS2_PLACEMENT_3D( '', #204, #205, #206 );
#142 = SURFACE_SIDE_STYLE( '', ( #207 ) );
#143 = EDGE_LOOP( '', ( #208, #209, #210, #211 ) );
#144 = AXIS2_PLACEMENT_3D( '', #212, #213, #214 );
#145 = SURFACE_SIDE_STYLE( '', ( #215 ) );
#146 = EDGE_LOOP( '', ( #216, #217, #218, #219 ) );
#147 = AXIS2_PLACEMENT_3D( '', #220, #221, #222 );
#148 = SURFACE_SIDE_STYLE( '', ( #223 ) );
#149 = EDGE_LOOP( '', ( #224 ) );
#150 = EDGE_LOOP( '', ( #225 ) );
#151 = AXIS2_PLACEMENT_3D( '', #226, #227, #228 );
#152 = SURFACE_SIDE_STYLE( '', ( #229 ) );
#153 = EDGE_LOOP( '', ( #230 ) );
#154 = EDGE_LOOP( '', ( #231, #232, #233, #234, #235, #236 ) );
#155 = AXIS2_PLACEMENT_3D( '', #237, #238, #239 );
#156 = SURFACE_SIDE_STYLE( '', ( #240 ) );
#157 = EDGE_LOOP( '', ( #241, #242, #243, #244, #245, #246 ) );
#158 = AXIS2_PLACEMENT_3D( '', #247, #248, #249 );
#159 = SURFACE_SIDE_STYLE( '', ( #250 ) );
#160 = EDGE_LOOP( '', ( #251 ) );
#161 = EDGE_LOOP( '', ( #252 ) );
#162 = AXIS2_PLACEMENT_3D( '', #253, #254, #255 );
#164 = SURFACE_STYLE_FILL_AREA( #256 );
#165 = ORIENTED_EDGE( '', *, *, #257, .F. );
#166 = ORIENTED_EDGE( '', *, *, #258, .F. );
#167 = ORIENTED_EDGE( '', *, *, #259, .T. );
#168 = ORIENTED_EDGE( '', *, *, #260, .T. );
#169 = CARTESIAN_POINT( '', ( 5.00000000000000, -2.88675134594813, -5.00000000000000 ) );
#170 = DIRECTION( '', ( 0.000000000000000, 0.000000000000000, 1.00000000000000 ) );
#171 = DIRECTION( '', ( 1.00000000000000, 0.000000000000000, -0.000000000000000 ) );
#172 = SURFACE_STYLE_FILL_AREA( #261 );
#173 = ORIENTED_EDGE( '', *, *, #262, .F. );
#174 = ORIENTED_EDGE( '', *, *, #263, .F. );
#175 = ORIENTED_EDGE( '', *, *, #264, .T. );
#176 = ORIENTED_EDGE( '', *, *, #265, .T. );
#177 = CARTESIAN_POINT( '', ( 5.00000000000000, -2.88675134594813, 5.00000000000000 ) );
#178 = DIRECTION( '', ( 0.000000000000000, 0.866025403784439, -0.500000000000000 ) );
#179 = DIRECTION( '', ( 0.000000000000000, 0.500000000000000, 0.866025403784439 ) );
#180 = SURFACE_STYLE_FILL_AREA( #266 );
#181 = ORIENTED_EDGE( '', *, *, #267, .F. );
#182 = ORIENTED_EDGE( '', *, *, #268, .T. );
#183 = CARTESIAN_POINT( '', ( -1.73472347597681E-15, 0.000000000000000, 0.000000000000000 ) );
#184 = DIRECTION( '', ( 1.00000000000000, -0.000000000000000, -0.000000000000000 ) );
#185 = DIRECTION( '', ( -0.000000000000000, 0.000000000000000, -1.00000000000000 ) );
#186 = SURFACE_STYLE_FILL_AREA( #269 );
#187 = ORIENTED_EDGE( '', *, *, #270, .F. );
#188 = ORIENTED_EDGE( '', *, *, #260, .F. );
#189 = ORIENTED_EDGE( '', *, *, #271, .T. );
#190 = ORIENTED_EDGE( '', *, *, #272, .T. );
#191 = CARTESIAN_POINT( '', ( 5.00000000000000, 2.88675134594813, -5.00000000000000 ) );
#192 = DIRECTION( '', ( 0.000000000000000, -0.866025403784439, 0.500000000000000 ) );
#193 = DIRECTION( '', ( 0.000000000000000, -0.500000000000000, -0.866025403784439 ) );
#194 = SURFACE_STYLE_FILL_AREA( #273 );
#195 = ORIENTED_EDGE( '', *, *, #274, .T. );
#196 = CARTESIAN_POINT( '', ( 10.0000000000000, 9.82036866978324, 0.000000000000000 ) );
#197 = DIRECTION( '', ( -1.00000000000000, 0.000000000000000, 0.000000000000000 ) );
#198 = DIRECTION( '', ( 0.000000000000000, 0.000000000000000, 1.00000000000000 ) );
#199 = SURFACE_STYLE_FILL_AREA( #275 );
#200 = ORIENTED_EDGE( '', *, *, #276, .F. );
#201 = ORIENTED_EDGE( '', *, *, #272, .F. );
#202 = ORIENTED_EDGE( '', *, *, #277, .T. );
#203 = ORIENTED_EDGE( '', *, *, #278, .T. );
#204 = CARTESIAN_POINT( '', ( 5.00000000000000, 5.77350269189626, 0.000000000000000 ) );
#205 = DIRECTION( '', ( 0.000000000000000, -0.866025403784439, -0.500000000000000 ) );
#206 = DIRECTION( '', ( 0.000000000000000, 0.500000000000000, -0.866025403784439 ) );
#207 = SURFACE_STYLE_FILL_AREA( #279 );
#208 = ORIENTED_EDGE( '', *, *, #280, .F. );
#209 = ORIENTED_EDGE( '', *, *, #278, .F. );
#210 = ORIENTED_EDGE( '', *, *, #281, .T. );
#211 = ORIENTED_EDGE( '', *, *, #263, .T. );
#212 = CARTESIAN_POINT( '', ( 5.00000000000000, 2.88675134594813, 5.00000000000000 ) );
#213 = DIRECTION( '', ( 0.000000000000000, 0.000000000000000, -1.00000000000000 ) );
#214 = DIRECTION( '', ( -1.00000000000000, 0.000000000000000, 0.000000000000000 ) );
#215 = SURFACE_STYLE_FILL_AREA( #282 );
#216 = ORIENTED_EDGE( '', *, *, #283, .F. );
#217 = ORIENTED_EDGE( '', *, *, #265, .F. );
#218 = ORIENTED_EDGE( '', *, *, #284, .T. );
#219 = ORIENTED_EDGE( '', *, *, #258, .T. );
#220 = CARTESIAN_POINT( '', ( 5.00000000000000, -5.77350269189626, 0.000000000000000 ) );
#221 = DIRECTION( '', ( -0.000000000000000, 0.866025403784439, 0.500000000000000 ) );
#222 = DIRECTION( '', ( 0.000000000000000, -0.500000000000000, 0.866025403784439 ) );
#223 = SURFACE_STYLE_FILL_AREA( #285 );
#224 = ORIENTED_EDGE( '', *, *, #286, .F. );
#225 = ORIENTED_EDGE( '', *, *, #267, .T. );
#226 = CARTESIAN_POINT( '', ( 0.499753280182863, 0.000000000000000, 0.000000000000000 ) );
#227 = DIRECTION( '', ( -1.00000000000000, 0.000000000000000, -0.000000000000000 ) );
#228 = DIRECTION( '', ( 0.000000000000000, 0.000000000000000, 1.00000000000000 ) );
#229 = SURFACE_STYLE_FILL_AREA( #287 );
#230 = ORIENTED_EDGE( '', *, *, #268, .F. );
#231 = ORIENTED_EDGE( '', *, *, #280, .T. );
#232 = ORIENTED_EDGE( '', *, *, #262, .T. );
#233 = ORIENTED_EDGE( '', *, *, #283, .T. );
#234 = ORIENTED_EDGE( '', *, *, #257, .T. );
#235 = ORIENTED_EDGE( '', *, *, #270, .T. );
#236 = ORIENTED_EDGE( '', *, *, #276, .T. );
#237 = CARTESIAN_POINT( '', ( -8.46419641604241E-16, 0.000000000000000, 0.000000000000000 ) );
#238 = DIRECTION( '', ( 1.00000000000000, 0.000000000000000, -0.000000000000000 ) );
#239 = DIRECTION( '', ( -0.000000000000000, 0.000000000000000, -1.00000000000000 ) );
#240 = SURFACE_STYLE_FILL_AREA( #288 );
#241 = ORIENTED_EDGE( '', *, *, #281, .F. );
#242 = ORIENTED_EDGE( '', *, *, #277, .F. );
#243 = ORIENTED_EDGE( '', *, *, #271, .F. );
#244 = ORIENTED_EDGE( '', *, *, #259, .F. );
#245 = ORIENTED_EDGE( '', *, *, #284, .F. );
#246 = ORIENTED_EDGE( '', *, *, #264, .F. );
#247 = CARTESIAN_POINT( '', ( 5.00000000000000, 0.000000000000000, 0.000000000000000 ) );
#248 = DIRECTION( '', ( 1.00000000000000, 0.000000000000000, 0.000000000000000 ) );
#249 = DIRECTION( '', ( 0.000000000000000, 0.000000000000000, -1.00000000000000 ) );
#250 = SURFACE_STYLE_FILL_AREA( #289 );
#251 = ORIENTED_EDGE( '', *, *, #274, .F. );
#252 = ORIENTED_EDGE( '', *, *, #286, .T. );
#253 = CARTESIAN_POINT( '', ( 9.50024671981713, 0.000000000000000, 0.000000000000000 ) );
#254 = DIRECTION( '', ( -1.00000000000000, 0.000000000000000, -0.000000000000000 ) );
#255 = DIRECTION( '', ( 0.000000000000000, 0.000000000000000, 1.00000000000000 ) );
#256 = FILL_AREA_STYLE( '', ( #290 ) );
#257 = EDGE_CURVE( '', #291, #292, #293, .T. );
#258 = EDGE_CURVE( '', #294, #291, #295, .T. );
#259 = EDGE_CURVE( '', #294, #296, #297, .T. );
#260 = EDGE_CURVE( '', #296, #292, #298, .T. );
#261 = FILL_AREA_STYLE( '', ( #299 ) );
#262 = EDGE_CURVE( '', #300, #301, #302, .T. );
#263 = EDGE_CURVE( '', #303, #300, #304, .T. );
#264 = EDGE_CURVE( '', #303, #305, #306, .T. );
#265 = EDGE_CURVE( '', #305, #301, #307, .T. );
#266 = FILL_AREA_STYLE( '', ( #308 ) );
#267 = EDGE_CURVE( '', #309, #309, #310, .T. );
#268 = EDGE_CURVE( '', #311, #311, #312, .T. );
#269 = FILL_AREA_STYLE( '', ( #313 ) );
#270 = EDGE_CURVE( '', #292, #314, #315, .T. );
#271 = EDGE_CURVE( '', #296, #316, #317, .T. );
#272 = EDGE_CURVE( '', #316, #314, #318, .T. );
#273 = FILL_AREA_STYLE( '', ( #319 ) );
#274 = EDGE_CURVE( '', #320, #320, #321, .T. );
#275 = FILL_AREA_STYLE( '', ( #322 ) );
#276 = EDGE_CURVE( '', #314, #323, #324, .T. );
#277 = EDGE_CURVE( '', #316, #325, #326, .T. );
#278 = EDGE_CURVE( '', #325, #323, #327, .T. );
#279 = FILL_AREA_STYLE( '', ( #328 ) );
#280 = EDGE_CURVE( '', #323, #300, #329, .T. );
#281 = EDGE_CURVE( '', #325, #303, #330, .T. );
#282 = FILL_AREA_STYLE( '', ( #331 ) );
#283 = EDGE_CURVE( '', #301, #291, #332, .T. );
#284 = EDGE_CURVE( '', #305, #294, #333, .T. );
#285 = FILL_AREA_STYLE( '', ( #334 ) );
#286 = EDGE_CURVE( '', #335, #335, #336, .T. );
#287 = FILL_AREA_STYLE( '', ( #337 ) );
#288 = FILL_AREA_STYLE( '', ( #338 ) );
#289 = FILL_AREA_STYLE( '', ( #339 ) );
#290 = FILL_AREA_STYLE_COLOUR( '', #340 );
#291 = VERTEX_POINT( '', #341 );
#292 = VERTEX_POINT( '', #342 );
#293 = LINE( '', #343, #344 );
#294 = VERTEX_POINT( '', #345 );
#295 = LINE( '', #346, #347 );
#296 = VERTEX_POINT( '', #348 );
#297 = LINE( '', #349, #350 );
#298 = LINE( '', #351, #352 );
#299 = FILL_AREA_STYLE_COLOUR( '', #353 );
#300 = VERTEX_POINT( '', #354 );
#301 = VERTEX_POINT( '', #355 );
#302 = LINE( '', #356, #357 );
#303 = VERTEX_POINT( '', #358 );
#304 = LINE( '', #359, #360 );
#305 = VERTEX_POINT( '', #361 );
#306 = LINE( '', #362, #363 );
#307 = LINE( '', #364, #365 );
#308 = FILL_AREA_STYLE_COLOUR( '', #366 );
#309 = VERTEX_POINT( '', #367 );
#310 = CIRCLE( '', #368, 10.6189259507000 );
#311 = VERTEX_POINT( '', #369 );
#312 = CIRCLE( '', #370, 10.1346313302000 );
#313 = FILL_AREA_STYLE_COLOUR( '', #371 );
#314 = VERTEX_POINT( '', #372 );
#315 = LINE( '', #373, #374 );
#316 = VERTEX_POINT( '', #375 );
#317 = LINE( '', #376, #377 );
#318 = LINE( '', #378, #379 );
#319 = FILL_AREA_STYLE_COLOUR( '', #380 );
#320 = VERTEX_POINT( '', #381 );
#321 = CIRCLE( '', #382, 9.82036866980000 );
#322 = FILL_AREA_STYLE_COLOUR( '', #383 );
#323 = VERTEX_POINT( '', #384 );
#324 = LINE( '', #385, #386 );
#325 = VERTEX_POINT( '', #387 );
#326 = LINE( '', #388, #389 );
#327 = LINE( '', #390, #391 );
#328 = FILL_AREA_STYLE_COLOUR( '', #392 );
#329 = LINE( '', #393, #394 );
#330 = LINE( '', #395, #396 );
#331 = FILL_AREA_STYLE_COLOUR( '', #397 );
#332 = LINE( '', #398, #399 );
#333 = LINE( '', #400, #401 );
#334 = FILL_AREA_STYLE_COLOUR( '', #402 );
#335 = VERTEX_POINT( '', #403 );
#336 = CIRCLE( '', #404, 10.3360740493000 );
#337 = FILL_AREA_STYLE_COLOUR( '', #405 );
#338 = FILL_AREA_STYLE_COLOUR( '', #406 );
#339 = FILL_AREA_STYLE_COLOUR( '', #407 );
#340 = COLOUR_RGB( '', 0.689999997600000, 0.689999997600000, 0.689999997600000 );
#341 = CARTESIAN_POINT( '', ( 0.000000000000000, -2.88675134594813, -5.00000000000000 ) );
#342 = CARTESIAN_POINT( '', ( 0.000000000000000, 2.88675134594813, -5.00000000000000 ) );
#343 = CARTESIAN_POINT( '', ( 0.000000000000000, -2.88675134594813, -5.00000000000000 ) );
#344 = VECTOR( '', #408, 1000.00000000000 );
#345 = CARTESIAN_POINT( '', ( 5.00000000000000, -2.88675134594813, -5.00000000000000 ) );
#346 = CARTESIAN_POINT( '', ( 5.00000000000000, -2.88675134594813, -5.00000000000000 ) );
#347 = VECTOR( '', #409, 1000.00000000000 );
#348 = CARTESIAN_POINT( '', ( 5.00000000000000, 2.88675134594813, -5.00000000000000 ) );
#349 = CARTESIAN_POINT( '', ( 5.00000000000000, -2.88675134594813, -5.00000000000000 ) );
#350 = VECTOR( '', #410, 1000.00000000000 );
#351 = CARTESIAN_POINT( '', ( 5.00000000000000, 2.88675134594813, -5.00000000000000 ) );
#352 = VECTOR( '', #411, 1000.00000000000 );
#353 = COLOUR_RGB( '', 0.689999997600000, 0.689999997600000, 0.689999997600000 );
#354 = CARTESIAN_POINT( '', ( 0.000000000000000, -2.88675134594813, 5.00000000000000 ) );
#355 = CARTESIAN_POINT( '', ( 0.000000000000000, -5.77350269189626, 0.000000000000000 ) );
#356 = CARTESIAN_POINT( '', ( 0.000000000000000, -2.88675134594813, 5.00000000000000 ) );
#357 = VECTOR( '', #412, 1000.00000000000 );
#358 = CARTESIAN_POINT( '', ( 5.00000000000000, -2.88675134594813, 5.00000000000000 ) );
#359 = CARTESIAN_POINT( '', ( 5.00000000000000, -2.88675134594813, 5.00000000000000 ) );
#360 = VECTOR( '', #413, 1000.00000000000 );
#361 = CARTESIAN_POINT( '', ( 5.00000000000000, -5.77350269189626, 0.000000000000000 ) );
#362 = CARTESIAN_POINT( '', ( 5.00000000000000, -2.88675134594813, 5.00000000000000 ) );
#363 = VECTOR( '', #414, 1000.00000000000 );
#364 = CARTESIAN_POINT( '', ( 5.00000000000000, -5.77350269189626, 0.000000000000000 ) );
#365 = VECTOR( '', #415, 1000.00000000000 );
#366 = COLOUR_RGB( '', 0.689999997600000, 0.689999997600000, 0.689999997600000 );
#367 = CARTESIAN_POINT( '', ( 0.499753280182863, 0.000000000000000, -10.6189259506777 ) );
#368 = AXIS2_PLACEMENT_3D( '', #416, #417, #418 );
#369 = CARTESIAN_POINT( '', ( -1.73472347597681E-15, 0.000000000000000, -10.1346313302168 ) );
#370 = AXIS2_PLACEMENT_3D( '', #419, #420, #421 );
#371 = COLOUR_RGB( '', 0.689999997600000, 0.689999997600000, 0.689999997600000 );
#372 = CARTESIAN_POINT( '', ( 0.000000000000000, 5.77350269189626, 0.000000000000000 ) );
#373 = CARTESIAN_POINT( '', ( 0.000000000000000, 2.88675134594813, -5.00000000000000 ) );
#374 = VECTOR( '', #422, 1000.00000000000 );
#375 = CARTESIAN_POINT( '', ( 5.00000000000000, 5.77350269189626, 0.000000000000000 ) );
#376 = CARTESIAN_POINT( '', ( 5.00000000000000, 2.88675134594813, -5.00000000000000 ) );
#377 = VECTOR( '', #423, 1000.00000000000 );
#378 = CARTESIAN_POINT( '', ( 5.00000000000000, 5.77350269189626, 0.000000000000000 ) );
#379 = VECTOR( '', #424, 1000.00000000000 );
#380 = COLOUR_RGB( '', 0.689999997600000, 0.689999997600000, 0.689999997600000 );
#381 = CARTESIAN_POINT( '', ( 10.0000000000000, 0.000000000000000, -9.82036866978324 ) );
#382 = AXIS2_PLACEMENT_3D( '', #425, #426, #427 );
#383 = COLOUR_RGB( '', 0.689999997600000, 0.689999997600000, 0.689999997600000 );
#384 = CARTESIAN_POINT( '', ( -8.46419641604241E-16, 2.88675134594813, 5.00000000000000 ) );
#385 = CARTESIAN_POINT( '', ( 0.000000000000000, 5.77350269189626, 0.000000000000000 ) );
#386 = VECTOR( '', #428, 1000.00000000000 );
#387 = CARTESIAN_POINT( '', ( 5.00000000000000, 2.88675134594813, 5.00000000000000 ) );
#388 = CARTESIAN_POINT( '', ( 5.00000000000000, 5.77350269189626, 0.000000000000000 ) );
#389 = VECTOR( '', #429, 1000.00000000000 );
#390 = CARTESIAN_POINT( '', ( 5.00000000000000, 2.88675134594813, 5.00000000000000 ) );
#391 = VECTOR( '', #430, 1000.00000000000 );
#392 = COLOUR_RGB( '', 0.689999997600000, 0.689999997600000, 0.689999997600000 );
#393 = CARTESIAN_POINT( '', ( 0.000000000000000, 2.88675134594813, 5.00000000000000 ) );
#394 = VECTOR( '', #431, 1000.00000000000 );
#395 = CARTESIAN_POINT( '', ( 5.00000000000000, 2.88675134594813, 5.00000000000000 ) );
#396 = VECTOR( '', #432, 1000.00000000000 );
#397 = COLOUR_RGB( '', 0.689999997600000, 0.689999997600000, 0.689999997600000 );
#398 = CARTESIAN_POINT( '', ( 0.000000000000000, -5.77350269189626, 0.000000000000000 ) );
#399 = VECTOR( '', #433, 1000.00000000000 );
#400 = CARTESIAN_POINT( '', ( 5.00000000000000, -5.77350269189626, 0.000000000000000 ) );
#401 = VECTOR( '', #434, 1000.00000000000 );
#402 = COLOUR_RGB( '', 0.689999997600000, 0.689999997600000, 0.689999997600000 );
#403 = CARTESIAN_POINT( '', ( 9.50024671981713, 0.000000000000000, -10.3360740493223 ) );
#404 = AXIS2_PLACEMENT_3D( '', #435, #436, #437 );
#405 = COLOUR_RGB( '', 0.689999997600000, 0.689999997600000, 0.689999997600000 );
#406 = COLOUR_RGB( '', 0.689999997600000, 0.689999997600000, 0.689999997600000 );
#407 = COLOUR_RGB( '', 0.689999997600000, 0.689999997600000, 0.689999997600000 );
#408 = DIRECTION( '', ( 0.000000000000000, 1.00000000000000, 0.000000000000000 ) );
#409 = DIRECTION( '', ( -1.00000000000000, -0.000000000000000, -0.000000000000000 ) );
#410 = DIRECTION( '', ( 0.000000000000000, 1.00000000000000, 0.000000000000000 ) );
#411 = DIRECTION( '', ( -1.00000000000000, -0.000000000000000, -0.000000000000000 ) );
#412 = DIRECTION( '', ( 0.000000000000000, -0.500000000000000, -0.866025403784439 ) );
#413 = DIRECTION( '', ( -1.00000000000000, -0.000000000000000, -0.000000000000000 ) );
#414 = DIRECTION( '', ( 0.000000000000000, -0.500000000000000, -0.866025403784439 ) );
#415 = DIRECTION( '', ( -1.00000000000000, -0.000000000000000, -0.000000000000000 ) );
#416 = CARTESIAN_POINT( '', ( 0.499753280182863, 0.000000000000000, 0.000000000000000 ) );
#417 = DIRECTION( '', ( 1.00000000000000, 0.000000000000000, -0.000000000000000 ) );
#418 = DIRECTION( '', ( -0.000000000000000, 0.000000000000000, -1.00000000000000 ) );
#419 = CARTESIAN_POINT( '', ( -1.73472347597681E-15, 0.000000000000000, 0.000000000000000 ) );
#420 = DIRECTION( '', ( 1.00000000000000, 0.000000000000000, -0.000000000000000 ) );
#421 = DIRECTION( '', ( -0.000000000000000, 0.000000000000000, -1.00000000000000 ) );
#422 = DIRECTION( '', ( 0.000000000000000, 0.500000000000000, 0.866025403784439 ) );
#423 = DIRECTION( '', ( 0.000000000000000, 0.500000000000000, 0.866025403784439 ) );
#424 = DIRECTION( '', ( -1.00000000000000, -0.000000000000000, -0.000000000000000 ) );
#425 = CARTESIAN_POINT( '', ( 10.0000000000000, 0.000000000000000, 0.000000000000000 ) );
#426 = DIRECTION( '', ( 1.00000000000000, 0.000000000000000, -0.000000000000000 ) );
#427 = DIRECTION( '', ( -0.000000000000000, 0.000000000000000, -1.00000000000000 ) );
#428 = DIRECTION( '', ( 0.000000000000000, -0.500000000000000, 0.866025403784439 ) );
#429 = DIRECTION( '', ( 0.000000000000000, -0.500000000000000, 0.866025403784439 ) );
#430 = DIRECTION( '', ( -1.00000000000000, -0.000000000000000, -0.000000000000000 ) );
#431 = DIRECTION( '', ( 0.000000000000000, -1.00000000000000, 0.000000000000000 ) );
#432 = DIRECTION( '', ( 0.000000000000000, -1.00000000000000, 0.000000000000000 ) );
#433 = DIRECTION( '', ( 0.000000000000000, 0.500000000000000, -0.866025403784439 ) );
#434 = DIRECTION( '', ( 0.000000000000000, 0.500000000000000, -0.866025403784439 ) );
#435 = CARTESIAN_POINT( '', ( 9.50024671981713, 0.000000000000000, 0.000000000000000 ) );
#436 = DIRECTION( '', ( 1.00000000000000, 0.000000000000000, -0.000000000000000 ) );
#437 = DIRECTION( '', ( -0.000000000000000, 0.000000000000000, -1.00000000000000 ) );
ENDSEC;
END-ISO-10303-21;
