ISO-10303-21;
HEADER;
FILE_DESCRIPTION( ( 'STEP AP214' ), '1' );
FILE_NAME( '//goodhand-server/Shared Folders/GoodHand Data/Kipp CAD/K1152/K1152.181030.stp', '2020-12-10T10:25:38', ( '' ), ( '' ), ' ', 'PARTsolutions', ' ' );
FILE_SCHEMA( ( 'AUTOMOTIVE_DESIGN { 1 0 10303 214 1 1 1 1 }' ) );
ENDSEC;
DATA;
#1 = MECHANICAL_DESIGN_GEOMETRIC_PRESENTATION_REPRESENTATION( ' ', ( #10, #11, #12, #13, #14, #15, #16, #17, #18, #19, #20, #21, #22, #23, #24, #25 ), #6 );
#2 = PRODUCT_DEFINITION_CONTEXT( '', #26, 'design' );
#3 = APPLICATION_PROTOCOL_DEFINITION( 'international standard', 'automotive_design', 2001, #26 );
#4 = PRODUCT_CATEGORY_RELATIONSHIP( 'NONE', 'NONE', #27, #28 );
#5 = SHAPE_DEFINITION_REPRESENTATION( #29, #30 );
#6 =  ( GEOMETRIC_REPRESENTATION_CONTEXT( 3 )GLOBAL_UNCERTAINTY_ASSIGNED_CONTEXT( ( #33 ) )GLOBAL_UNIT_ASSIGNED_CONTEXT( ( #35, #36, #37 ) )REPRESENTATION_CONTEXT( 'NONE', 'WORKSPACE' ) );
#10 = STYLED_ITEM( '', ( #39 ), #40 );
#11 = STYLED_ITEM( '', ( #41 ), #42 );
#12 = STYLED_ITEM( '', ( #43 ), #44 );
#13 = STYLED_ITEM( '', ( #45 ), #46 );
#14 = STYLED_ITEM( '', ( #47 ), #48 );
#15 = STYLED_ITEM( '', ( #49 ), #50 );
#16 = STYLED_ITEM( '', ( #51 ), #52 );
#17 = STYLED_ITEM( '', ( #53 ), #54 );
#18 = STYLED_ITEM( '', ( #55 ), #56 );
#19 = STYLED_ITEM( '', ( #57 ), #58 );
#20 = STYLED_ITEM( '', ( #59 ), #60 );
#21 = STYLED_ITEM( '', ( #61 ), #62 );
#22 = STYLED_ITEM( '', ( #63 ), #64 );
#23 = STYLED_ITEM( '', ( #65 ), #66 );
#24 = STYLED_ITEM( '', ( #67 ), #68 );
#25 = STYLED_ITEM( '', ( #69 ), #70 );
#26 = APPLICATION_CONTEXT( 'core data for automotive mechanical design processes' );
#27 = PRODUCT_CATEGORY( 'part', 'NONE' );
#28 = PRODUCT_RELATED_PRODUCT_CATEGORY( 'detail', ' ', ( #71 ) );
#29 = PRODUCT_DEFINITION_SHAPE( 'NONE', 'NONE', #72 );
#30 = ADVANCED_BREP_SHAPE_REPRESENTATION( '_K1152.181030', ( #73, #74 ), #6 );
#33 = UNCERTAINTY_MEASURE_WITH_UNIT( LENGTH_MEASURE( 0.00100000000000000 ), #35, '', '' );
#35 =  ( CONVERSION_BASED_UNIT( 'MILLIMETRE', #77 )LENGTH_UNIT(  )NAMED_UNIT( #80 ) );
#36 =  ( NAMED_UNIT( #82 )PLANE_ANGLE_UNIT(  )SI_UNIT( $, .RADIAN. ) );
#37 =  ( NAMED_UNIT( #82 )SI_UNIT( $, .STERADIAN. )SOLID_ANGLE_UNIT(  ) );
#39 = PRESENTATION_STYLE_ASSIGNMENT( ( #88 ) );
#40 = ADVANCED_FACE( '', ( #89 ), #90, .F. );
#41 = PRESENTATION_STYLE_ASSIGNMENT( ( #91 ) );
#42 = ADVANCED_FACE( '', ( #92, #93 ), #94, .F. );
#43 = PRESENTATION_STYLE_ASSIGNMENT( ( #95 ) );
#44 = ADVANCED_FACE( '', ( #96, #97 ), #98, .F. );
#45 = PRESENTATION_STYLE_ASSIGNMENT( ( #99 ) );
#46 = ADVANCED_FACE( '', ( #100, #101 ), #102, .T. );
#47 = PRESENTATION_STYLE_ASSIGNMENT( ( #103 ) );
#48 = ADVANCED_FACE( '', ( #104, #105 ), #106, .T. );
#49 = PRESENTATION_STYLE_ASSIGNMENT( ( #107 ) );
#50 = ADVANCED_FACE( '', ( #108, #109 ), #110, .T. );
#51 = PRESENTATION_STYLE_ASSIGNMENT( ( #111 ) );
#52 = ADVANCED_FACE( '', ( #112, #113 ), #114, .F. );
#53 = PRESENTATION_STYLE_ASSIGNMENT( ( #115 ) );
#54 = ADVANCED_FACE( '', ( #116, #117 ), #118, .F. );
#55 = PRESENTATION_STYLE_ASSIGNMENT( ( #119 ) );
#56 = ADVANCED_FACE( '', ( #120, #121 ), #122, .T. );
#57 = PRESENTATION_STYLE_ASSIGNMENT( ( #123 ) );
#58 = ADVANCED_FACE( '', ( #124, #125 ), #126, .F. );
#59 = PRESENTATION_STYLE_ASSIGNMENT( ( #127 ) );
#60 = ADVANCED_FACE( '', ( #128, #129 ), #130, .T. );
#61 = PRESENTATION_STYLE_ASSIGNMENT( ( #131 ) );
#62 = ADVANCED_FACE( '', ( #132, #133 ), #134, .T. );
#63 = PRESENTATION_STYLE_ASSIGNMENT( ( #135 ) );
#64 = ADVANCED_FACE( '', ( #136, #137 ), #138, .T. );
#65 = PRESENTATION_STYLE_ASSIGNMENT( ( #139 ) );
#66 = ADVANCED_FACE( '', ( #140, #141 ), #142, .T. );
#67 = PRESENTATION_STYLE_ASSIGNMENT( ( #143 ) );
#68 = ADVANCED_FACE( '', ( #144 ), #145, .F. );
#69 = PRESENTATION_STYLE_ASSIGNMENT( ( #146 ) );
#70 = ADVANCED_FACE( '', ( #147, #148 ), #149, .F. );
#71 = PRODUCT( '_K1152.181030', '_K1152.181030', 'PART-_K1152.181030-DESC', ( #150 ) );
#72 = PRODUCT_DEFINITION( 'NONE', 'NONE', #151, #2 );
#73 = MANIFOLD_SOLID_BREP( '_K1152.181030', #152 );
#74 = AXIS2_PLACEMENT_3D( '', #153, #154, #155 );
#77 = LENGTH_MEASURE_WITH_UNIT( LENGTH_MEASURE( 1.00000000000000 ), #156 );
#80 = DIMENSIONAL_EXPONENTS( 1.00000000000000, 0.000000000000000, 0.000000000000000, 0.000000000000000, 0.000000000000000, 0.000000000000000, 0.000000000000000 );
#82 = DIMENSIONAL_EXPONENTS( 0.000000000000000, 0.000000000000000, 0.000000000000000, 0.000000000000000, 0.000000000000000, 0.000000000000000, 0.000000000000000 );
#88 = SURFACE_STYLE_USAGE( .BOTH., #157 );
#89 = FACE_OUTER_BOUND( '', #158, .T. );
#90 = PLANE( '', #159 );
#91 = SURFACE_STYLE_USAGE( .BOTH., #160 );
#92 = FACE_BOUND( '', #161, .T. );
#93 = FACE_OUTER_BOUND( '', #162, .T. );
#94 = PLANE( '', #163 );
#95 = SURFACE_STYLE_USAGE( .BOTH., #164 );
#96 = FACE_OUTER_BOUND( '', #165, .T. );
#97 = FACE_BOUND( '', #166, .T. );
#98 = CONICAL_SURFACE( '', #167, 6.00000000000000, 1.15927948070000 );
#99 = SURFACE_STYLE_USAGE( .BOTH., #168 );
#100 = FACE_OUTER_BOUND( '', #169, .T. );
#101 = FACE_OUTER_BOUND( '', #170, .T. );
#102 = CYLINDRICAL_SURFACE( '', #171, 8.63500000000000 );
#103 = SURFACE_STYLE_USAGE( .BOTH., #172 );
#104 = FACE_OUTER_BOUND( '', #173, .T. );
#105 = FACE_OUTER_BOUND( '', #174, .T. );
#106 = CYLINDRICAL_SURFACE( '', #175, 9.00000000000000 );
#107 = SURFACE_STYLE_USAGE( .BOTH., #176 );
#108 = FACE_OUTER_BOUND( '', #177, .T. );
#109 = FACE_OUTER_BOUND( '', #178, .T. );
#110 = CYLINDRICAL_SURFACE( '', #179, 9.00000000000000 );
#111 = SURFACE_STYLE_USAGE( .BOTH., #180 );
#112 = FACE_OUTER_BOUND( '', #181, .T. );
#113 = FACE_BOUND( '', #182, .T. );
#114 = PLANE( '', #183 );
#115 = SURFACE_STYLE_USAGE( .BOTH., #184 );
#116 = FACE_BOUND( '', #185, .T. );
#117 = FACE_OUTER_BOUND( '', #186, .T. );
#118 = PLANE( '', #187 );
#119 = SURFACE_STYLE_USAGE( .BOTH., #188 );
#120 = FACE_OUTER_BOUND( '', #189, .T. );
#121 = FACE_OUTER_BOUND( '', #190, .T. );
#122 = CYLINDRICAL_SURFACE( '', #191, 10.0000000000000 );
#123 = SURFACE_STYLE_USAGE( .BOTH., #192 );
#124 = FACE_BOUND( '', #193, .T. );
#125 = FACE_OUTER_BOUND( '', #194, .T. );
#126 = PLANE( '', #195 );
#127 = SURFACE_STYLE_USAGE( .BOTH., #196 );
#128 = FACE_OUTER_BOUND( '', #197, .T. );
#129 = FACE_OUTER_BOUND( '', #198, .T. );
#130 = CYLINDRICAL_SURFACE( '', #199, 8.63500000000000 );
#131 = SURFACE_STYLE_USAGE( .BOTH., #200 );
#132 = FACE_OUTER_BOUND( '', #201, .T. );
#133 = FACE_OUTER_BOUND( '', #202, .T. );
#134 = TOROIDAL_SURFACE( '', #203, 8.00000000000000, 0.800000000000000 );
#135 = SURFACE_STYLE_USAGE( .BOTH., #204 );
#136 = FACE_OUTER_BOUND( '', #205, .T. );
#137 = FACE_BOUND( '', #206, .T. );
#138 = CONICAL_SURFACE( '', #207, 8.28257843440000, 1.20978233570000 );
#139 = SURFACE_STYLE_USAGE( .BOTH., #208 );
#140 = FACE_OUTER_BOUND( '', #209, .T. );
#141 = FACE_OUTER_BOUND( '', #210, .T. );
#142 = CYLINDRICAL_SURFACE( '', #211, 9.00000000000000 );
#143 = SURFACE_STYLE_USAGE( .BOTH., #212 );
#144 = FACE_OUTER_BOUND( '', #213, .T. );
#145 = PLANE( '', #214 );
#146 = SURFACE_STYLE_USAGE( .BOTH., #215 );
#147 = FACE_OUTER_BOUND( '', #216, .T. );
#148 = FACE_BOUND( '', #217, .T. );
#149 = PLANE( '', #218 );
#150 = PRODUCT_CONTEXT( '', #26, 'mechanical' );
#151 = PRODUCT_DEFINITION_FORMATION_WITH_SPECIFIED_SOURCE( ' ', 'NONE', #71, .NOT_KNOWN. );
#152 = CLOSED_SHELL( '', ( #48, #52, #46, #58, #66, #70, #60, #54, #50, #42, #56, #64, #62, #44, #40, #68 ) );
#153 = CARTESIAN_POINT( '', ( 0.000000000000000, 0.000000000000000, 0.000000000000000 ) );
#154 = DIRECTION( '', ( 0.000000000000000, 0.000000000000000, 1.00000000000000 ) );
#155 = DIRECTION( '', ( 1.00000000000000, 0.000000000000000, 0.000000000000000 ) );
#156 =  ( LENGTH_UNIT(  )NAMED_UNIT( #80 )SI_UNIT( .MILLI., .METRE. ) );
#157 = SURFACE_SIDE_STYLE( '', ( #220 ) );
#158 = EDGE_LOOP( '', ( #221 ) );
#159 = AXIS2_PLACEMENT_3D( '', #222, #223, #224 );
#160 = SURFACE_SIDE_STYLE( '', ( #225 ) );
#161 = EDGE_LOOP( '', ( #226 ) );
#162 = EDGE_LOOP( '', ( #227 ) );
#163 = AXIS2_PLACEMENT_3D( '', #228, #229, #230 );
#164 = SURFACE_SIDE_STYLE( '', ( #231 ) );
#165 = EDGE_LOOP( '', ( #232 ) );
#166 = EDGE_LOOP( '', ( #233 ) );
#167 = AXIS2_PLACEMENT_3D( '', #234, #235, #236 );
#168 = SURFACE_SIDE_STYLE( '', ( #237 ) );
#169 = EDGE_LOOP( '', ( #238 ) );
#170 = EDGE_LOOP( '', ( #239 ) );
#171 = AXIS2_PLACEMENT_3D( '', #240, #241, #242 );
#172 = SURFACE_SIDE_STYLE( '', ( #243 ) );
#173 = EDGE_LOOP( '', ( #244 ) );
#174 = EDGE_LOOP( '', ( #245 ) );
#175 = AXIS2_PLACEMENT_3D( '', #246, #247, #248 );
#176 = SURFACE_SIDE_STYLE( '', ( #249 ) );
#177 = EDGE_LOOP( '', ( #250 ) );
#178 = EDGE_LOOP( '', ( #251 ) );
#179 = AXIS2_PLACEMENT_3D( '', #252, #253, #254 );
#180 = SURFACE_SIDE_STYLE( '', ( #255 ) );
#181 = EDGE_LOOP( '', ( #256 ) );
#182 = EDGE_LOOP( '', ( #257 ) );
#183 = AXIS2_PLACEMENT_3D( '', #258, #259, #260 );
#184 = SURFACE_SIDE_STYLE( '', ( #261 ) );
#185 = EDGE_LOOP( '', ( #262 ) );
#186 = EDGE_LOOP( '', ( #263 ) );
#187 = AXIS2_PLACEMENT_3D( '', #264, #265, #266 );
#188 = SURFACE_SIDE_STYLE( '', ( #267 ) );
#189 = EDGE_LOOP( '', ( #268 ) );
#190 = EDGE_LOOP( '', ( #269 ) );
#191 = AXIS2_PLACEMENT_3D( '', #270, #271, #272 );
#192 = SURFACE_SIDE_STYLE( '', ( #273 ) );
#193 = EDGE_LOOP( '', ( #274 ) );
#194 = EDGE_LOOP( '', ( #275 ) );
#195 = AXIS2_PLACEMENT_3D( '', #276, #277, #278 );
#196 = SURFACE_SIDE_STYLE( '', ( #279 ) );
#197 = EDGE_LOOP( '', ( #280 ) );
#198 = EDGE_LOOP( '', ( #281 ) );
#199 = AXIS2_PLACEMENT_3D( '', #282, #283, #284 );
#200 = SURFACE_SIDE_STYLE( '', ( #285 ) );
#201 = EDGE_LOOP( '', ( #286 ) );
#202 = EDGE_LOOP( '', ( #287 ) );
#203 = AXIS2_PLACEMENT_3D( '', #288, #289, #290 );
#204 = SURFACE_SIDE_STYLE( '', ( #291 ) );
#205 = EDGE_LOOP( '', ( #292 ) );
#206 = EDGE_LOOP( '', ( #293 ) );
#207 = AXIS2_PLACEMENT_3D( '', #294, #295, #296 );
#208 = SURFACE_SIDE_STYLE( '', ( #297 ) );
#209 = EDGE_LOOP( '', ( #298 ) );
#210 = EDGE_LOOP( '', ( #299 ) );
#211 = AXIS2_PLACEMENT_3D( '', #300, #301, #302 );
#212 = SURFACE_SIDE_STYLE( '', ( #303 ) );
#213 = EDGE_LOOP( '', ( #304 ) );
#214 = AXIS2_PLACEMENT_3D( '', #305, #306, #307 );
#215 = SURFACE_SIDE_STYLE( '', ( #308 ) );
#216 = EDGE_LOOP( '', ( #309 ) );
#217 = EDGE_LOOP( '', ( #310 ) );
#218 = AXIS2_PLACEMENT_3D( '', #311, #312, #313 );
#220 = SURFACE_STYLE_FILL_AREA( #314 );
#221 = ORIENTED_EDGE( '', *, *, #315, .F. );
#222 = CARTESIAN_POINT( '', ( 0.000000000000000, 9.20000000000000, 0.000000000000000 ) );
#223 = DIRECTION( '', ( 0.000000000000000, -1.00000000000000, -0.000000000000000 ) );
#224 = DIRECTION( '', ( 0.000000000000000, 0.000000000000000, -1.00000000000000 ) );
#225 = SURFACE_STYLE_FILL_AREA( #316 );
#226 = ORIENTED_EDGE( '', *, *, #317, .F. );
#227 = ORIENTED_EDGE( '', *, *, #318, .T. );
#228 = CARTESIAN_POINT( '', ( 10.0000000000000, 8.00000000000000, 0.000000000000000 ) );
#229 = DIRECTION( '', ( 0.000000000000000, 1.00000000000000, 0.000000000000000 ) );
#230 = DIRECTION( '', ( 0.000000000000000, -0.000000000000000, 1.00000000000000 ) );
#231 = SURFACE_STYLE_FILL_AREA( #319 );
#232 = ORIENTED_EDGE( '', *, *, #320, .F. );
#233 = ORIENTED_EDGE( '', *, *, #315, .T. );
#234 = CARTESIAN_POINT( '', ( 0.000000000000000, 9.20000000000000, 0.000000000000000 ) );
#235 = DIRECTION( '', ( -0.000000000000000, 1.00000000000000, 0.000000000000000 ) );
#236 = DIRECTION( '', ( 0.000000000000000, -0.000000000000000, 1.00000000000000 ) );
#237 = SURFACE_STYLE_FILL_AREA( #321 );
#238 = ORIENTED_EDGE( '', *, *, #322, .F. );
#239 = ORIENTED_EDGE( '', *, *, #323, .T. );
#240 = CARTESIAN_POINT( '', ( 0.000000000000000, 0.000000000000000, 0.000000000000000 ) );
#241 = DIRECTION( '', ( -0.000000000000000, 1.00000000000000, 0.000000000000000 ) );
#242 = DIRECTION( '', ( 0.000000000000000, 0.000000000000000, -1.00000000000000 ) );
#243 = SURFACE_STYLE_FILL_AREA( #324 );
#244 = ORIENTED_EDGE( '', *, *, #325, .F. );
#245 = ORIENTED_EDGE( '', *, *, #326, .T. );
#246 = CARTESIAN_POINT( '', ( 0.000000000000000, 0.000000000000000, 0.000000000000000 ) );
#247 = DIRECTION( '', ( -0.000000000000000, 1.00000000000000, 0.000000000000000 ) );
#248 = DIRECTION( '', ( 0.000000000000000, 0.000000000000000, -1.00000000000000 ) );
#249 = SURFACE_STYLE_FILL_AREA( #327 );
#250 = ORIENTED_EDGE( '', *, *, #328, .F. );
#251 = ORIENTED_EDGE( '', *, *, #317, .T. );
#252 = CARTESIAN_POINT( '', ( 0.000000000000000, 0.000000000000000, 0.000000000000000 ) );
#253 = DIRECTION( '', ( -0.000000000000000, 1.00000000000000, 0.000000000000000 ) );
#254 = DIRECTION( '', ( 0.000000000000000, 0.000000000000000, -1.00000000000000 ) );
#255 = SURFACE_STYLE_FILL_AREA( #329 );
#256 = ORIENTED_EDGE( '', *, *, #326, .F. );
#257 = ORIENTED_EDGE( '', *, *, #322, .T. );
#258 = CARTESIAN_POINT( '', ( 8.63500000000000, 2.00000000000000, 0.000000000000000 ) );
#259 = DIRECTION( '', ( 0.000000000000000, -1.00000000000000, -0.000000000000000 ) );
#260 = DIRECTION( '', ( 0.000000000000000, 0.000000000000000, -1.00000000000000 ) );
#261 = SURFACE_STYLE_FILL_AREA( #330 );
#262 = ORIENTED_EDGE( '', *, *, #331, .F. );
#263 = ORIENTED_EDGE( '', *, *, #328, .T. );
#264 = CARTESIAN_POINT( '', ( 9.00000000000000, 6.10000000000000, 0.000000000000000 ) );
#265 = DIRECTION( '', ( 0.000000000000000, 1.00000000000000, 0.000000000000000 ) );
#266 = DIRECTION( '', ( 0.000000000000000, -0.000000000000000, 1.00000000000000 ) );
#267 = SURFACE_STYLE_FILL_AREA( #332 );
#268 = ORIENTED_EDGE( '', *, *, #318, .F. );
#269 = ORIENTED_EDGE( '', *, *, #333, .T. );
#270 = CARTESIAN_POINT( '', ( 0.000000000000000, 0.000000000000000, 0.000000000000000 ) );
#271 = DIRECTION( '', ( -0.000000000000000, 1.00000000000000, 0.000000000000000 ) );
#272 = DIRECTION( '', ( 0.000000000000000, 0.000000000000000, -1.00000000000000 ) );
#273 = SURFACE_STYLE_FILL_AREA( #334 );
#274 = ORIENTED_EDGE( '', *, *, #323, .F. );
#275 = ORIENTED_EDGE( '', *, *, #335, .T. );
#276 = CARTESIAN_POINT( '', ( 9.00000000000000, 2.80000000000000, 0.000000000000000 ) );
#277 = DIRECTION( '', ( 0.000000000000000, 1.00000000000000, 0.000000000000000 ) );
#278 = DIRECTION( '', ( 0.000000000000000, -0.000000000000000, 1.00000000000000 ) );
#279 = SURFACE_STYLE_FILL_AREA( #336 );
#280 = ORIENTED_EDGE( '', *, *, #337, .F. );
#281 = ORIENTED_EDGE( '', *, *, #331, .T. );
#282 = CARTESIAN_POINT( '', ( 0.000000000000000, 0.000000000000000, 0.000000000000000 ) );
#283 = DIRECTION( '', ( -0.000000000000000, 1.00000000000000, 0.000000000000000 ) );
#284 = DIRECTION( '', ( 0.000000000000000, 0.000000000000000, -1.00000000000000 ) );
#285 = SURFACE_STYLE_FILL_AREA( #338 );
#286 = ORIENTED_EDGE( '', *, *, #320, .T. );
#287 = ORIENTED_EDGE( '', *, *, #339, .F. );
#288 = CARTESIAN_POINT( '', ( 0.000000000000000, 9.19999999999998, 0.000000000000000 ) );
#289 = DIRECTION( '', ( 0.000000000000000, -1.00000000000000, -0.000000000000000 ) );
#290 = DIRECTION( '', ( 0.000000000000000, 0.000000000000000, -1.00000000000000 ) );
#291 = SURFACE_STYLE_FILL_AREA( #340 );
#292 = ORIENTED_EDGE( '', *, *, #333, .F. );
#293 = ORIENTED_EDGE( '', *, *, #339, .T. );
#294 = CARTESIAN_POINT( '', ( 0.000000000000000, 9.94843131174806, 0.000000000000000 ) );
#295 = DIRECTION( '', ( -0.000000000000000, -1.00000000000000, -0.000000000000000 ) );
#296 = DIRECTION( '', ( 0.000000000000000, 0.000000000000000, -1.00000000000000 ) );
#297 = SURFACE_STYLE_FILL_AREA( #341 );
#298 = ORIENTED_EDGE( '', *, *, #335, .F. );
#299 = ORIENTED_EDGE( '', *, *, #342, .T. );
#300 = CARTESIAN_POINT( '', ( 0.000000000000000, 0.000000000000000, 0.000000000000000 ) );
#301 = DIRECTION( '', ( -0.000000000000000, 1.00000000000000, 0.000000000000000 ) );
#302 = DIRECTION( '', ( 0.000000000000000, 0.000000000000000, -1.00000000000000 ) );
#303 = SURFACE_STYLE_FILL_AREA( #343 );
#304 = ORIENTED_EDGE( '', *, *, #325, .T. );
#305 = CARTESIAN_POINT( '', ( 9.00000000000000, 0.000000000000000, 0.000000000000000 ) );
#306 = DIRECTION( '', ( 0.000000000000000, 1.00000000000000, 0.000000000000000 ) );
#307 = DIRECTION( '', ( 0.000000000000000, -0.000000000000000, 1.00000000000000 ) );
#308 = SURFACE_STYLE_FILL_AREA( #344 );
#309 = ORIENTED_EDGE( '', *, *, #342, .F. );
#310 = ORIENTED_EDGE( '', *, *, #337, .T. );
#311 = CARTESIAN_POINT( '', ( 8.63500000000000, 5.10000000000000, 0.000000000000000 ) );
#312 = DIRECTION( '', ( 0.000000000000000, -1.00000000000000, -0.000000000000000 ) );
#313 = DIRECTION( '', ( 0.000000000000000, 0.000000000000000, -1.00000000000000 ) );
#314 = FILL_AREA_STYLE( '', ( #345 ) );
#315 = EDGE_CURVE( '', #346, #346, #347, .T. );
#316 = FILL_AREA_STYLE( '', ( #348 ) );
#317 = EDGE_CURVE( '', #349, #349, #350, .T. );
#318 = EDGE_CURVE( '', #351, #351, #352, .T. );
#319 = FILL_AREA_STYLE( '', ( #353 ) );
#320 = EDGE_CURVE( '', #354, #354, #355, .T. );
#321 = FILL_AREA_STYLE( '', ( #356 ) );
#322 = EDGE_CURVE( '', #357, #357, #358, .T. );
#323 = EDGE_CURVE( '', #359, #359, #360, .T. );
#324 = FILL_AREA_STYLE( '', ( #361 ) );
#325 = EDGE_CURVE( '', #362, #362, #363, .T. );
#326 = EDGE_CURVE( '', #364, #364, #365, .T. );
#327 = FILL_AREA_STYLE( '', ( #366 ) );
#328 = EDGE_CURVE( '', #367, #367, #368, .T. );
#329 = FILL_AREA_STYLE( '', ( #369 ) );
#330 = FILL_AREA_STYLE( '', ( #370 ) );
#331 = EDGE_CURVE( '', #371, #371, #372, .T. );
#332 = FILL_AREA_STYLE( '', ( #373 ) );
#333 = EDGE_CURVE( '', #374, #374, #375, .T. );
#334 = FILL_AREA_STYLE( '', ( #376 ) );
#335 = EDGE_CURVE( '', #377, #377, #378, .T. );
#336 = FILL_AREA_STYLE( '', ( #379 ) );
#337 = EDGE_CURVE( '', #380, #380, #381, .T. );
#338 = FILL_AREA_STYLE( '', ( #382 ) );
#339 = EDGE_CURVE( '', #383, #383, #384, .T. );
#340 = FILL_AREA_STYLE( '', ( #385 ) );
#341 = FILL_AREA_STYLE( '', ( #386 ) );
#342 = EDGE_CURVE( '', #387, #387, #388, .T. );
#343 = FILL_AREA_STYLE( '', ( #389 ) );
#344 = FILL_AREA_STYLE( '', ( #390 ) );
#345 = FILL_AREA_STYLE_COLOUR( '', #391 );
#346 = VERTEX_POINT( '', #392 );
#347 = CIRCLE( '', #393, 6.00000000000000 );
#348 = FILL_AREA_STYLE_COLOUR( '', #394 );
#349 = VERTEX_POINT( '', #395 );
#350 = CIRCLE( '', #396, 9.00000000000000 );
#351 = VERTEX_POINT( '', #397 );
#352 = CIRCLE( '', #398, 10.0000000000000 );
#353 = FILL_AREA_STYLE_COLOUR( '', #399 );
#354 = VERTEX_POINT( '', #400 );
#355 = CIRCLE( '', #401, 7.68000000000000 );
#356 = FILL_AREA_STYLE_COLOUR( '', #402 );
#357 = VERTEX_POINT( '', #403 );
#358 = CIRCLE( '', #404, 8.63500000000000 );
#359 = VERTEX_POINT( '', #405 );
#360 = CIRCLE( '', #406, 8.63500000000000 );
#361 = FILL_AREA_STYLE_COLOUR( '', #407 );
#362 = VERTEX_POINT( '', #408 );
#363 = CIRCLE( '', #409, 9.00000000000000 );
#364 = VERTEX_POINT( '', #410 );
#365 = CIRCLE( '', #411, 9.00000000000000 );
#366 = FILL_AREA_STYLE_COLOUR( '', #412 );
#367 = VERTEX_POINT( '', #413 );
#368 = CIRCLE( '', #414, 9.00000000000000 );
#369 = FILL_AREA_STYLE_COLOUR( '', #415 );
#370 = FILL_AREA_STYLE_COLOUR( '', #416 );
#371 = VERTEX_POINT( '', #417 );
#372 = CIRCLE( '', #418, 8.63500000000000 );
#373 = FILL_AREA_STYLE_COLOUR( '', #419 );
#374 = VERTEX_POINT( '', #420 );
#375 = CIRCLE( '', #421, 10.0000000000000 );
#376 = FILL_AREA_STYLE_COLOUR( '', #422 );
#377 = VERTEX_POINT( '', #423 );
#378 = CIRCLE( '', #424, 9.00000000000000 );
#379 = FILL_AREA_STYLE_COLOUR( '', #425 );
#380 = VERTEX_POINT( '', #426 );
#381 = CIRCLE( '', #427, 8.63500000000000 );
#382 = FILL_AREA_STYLE_COLOUR( '', #428 );
#383 = VERTEX_POINT( '', #429 );
#384 = CIRCLE( '', #430, 8.28257843440000 );
#385 = FILL_AREA_STYLE_COLOUR( '', #431 );
#386 = FILL_AREA_STYLE_COLOUR( '', #432 );
#387 = VERTEX_POINT( '', #433 );
#388 = CIRCLE( '', #434, 9.00000000000000 );
#389 = FILL_AREA_STYLE_COLOUR( '', #435 );
#390 = FILL_AREA_STYLE_COLOUR( '', #436 );
#391 = COLOUR_RGB( '', 0.689999997600000, 0.689999997600000, 0.689999997600000 );
#392 = CARTESIAN_POINT( '', ( 0.000000000000000, 9.20000000000000, -6.00000000000000 ) );
#393 = AXIS2_PLACEMENT_3D( '', #437, #438, #439 );
#394 = COLOUR_RGB( '', 0.689999997600000, 0.689999997600000, 0.689999997600000 );
#395 = CARTESIAN_POINT( '', ( 0.000000000000000, 8.00000000000000, -9.00000000000000 ) );
#396 = AXIS2_PLACEMENT_3D( '', #440, #441, #442 );
#397 = CARTESIAN_POINT( '', ( 0.000000000000000, 8.00000000000000, -10.0000000000000 ) );
#398 = AXIS2_PLACEMENT_3D( '', #443, #444, #445 );
#399 = COLOUR_RGB( '', 0.689999997600000, 0.689999997600000, 0.689999997600000 );
#400 = CARTESIAN_POINT( '', ( 0.000000000000000, 9.93321211119293, -7.68000000000000 ) );
#401 = AXIS2_PLACEMENT_3D( '', #446, #447, #448 );
#402 = COLOUR_RGB( '', 0.689999997600000, 0.689999997600000, 0.689999997600000 );
#403 = CARTESIAN_POINT( '', ( 0.000000000000000, 2.00000000000000, -8.63500000000000 ) );
#404 = AXIS2_PLACEMENT_3D( '', #449, #450, #451 );
#405 = CARTESIAN_POINT( '', ( 0.000000000000000, 2.80000000000000, -8.63500000000000 ) );
#406 = AXIS2_PLACEMENT_3D( '', #452, #453, #454 );
#407 = COLOUR_RGB( '', 0.689999997600000, 0.689999997600000, 0.689999997600000 );
#408 = CARTESIAN_POINT( '', ( 0.000000000000000, 0.000000000000000, -9.00000000000000 ) );
#409 = AXIS2_PLACEMENT_3D( '', #455, #456, #457 );
#410 = CARTESIAN_POINT( '', ( 0.000000000000000, 2.00000000000000, -9.00000000000000 ) );
#411 = AXIS2_PLACEMENT_3D( '', #458, #459, #460 );
#412 = COLOUR_RGB( '', 0.689999997600000, 0.689999997600000, 0.689999997600000 );
#413 = CARTESIAN_POINT( '', ( 0.000000000000000, 6.10000000000000, -9.00000000000000 ) );
#414 = AXIS2_PLACEMENT_3D( '', #461, #462, #463 );
#415 = COLOUR_RGB( '', 0.689999997600000, 0.689999997600000, 0.689999997600000 );
#416 = COLOUR_RGB( '', 0.689999997600000, 0.689999997600000, 0.689999997600000 );
#417 = CARTESIAN_POINT( '', ( 0.000000000000000, 6.10000000000000, -8.63500000000000 ) );
#418 = AXIS2_PLACEMENT_3D( '', #464, #465, #466 );
#419 = COLOUR_RGB( '', 0.689999997600000, 0.689999997600000, 0.689999997600000 );
#420 = CARTESIAN_POINT( '', ( 0.000000000000000, 9.30000000000000, -10.0000000000000 ) );
#421 = AXIS2_PLACEMENT_3D( '', #467, #468, #469 );
#422 = COLOUR_RGB( '', 0.689999997600000, 0.689999997600000, 0.689999997600000 );
#423 = CARTESIAN_POINT( '', ( 0.000000000000000, 2.80000000000000, -9.00000000000000 ) );
#424 = AXIS2_PLACEMENT_3D( '', #470, #471, #472 );
#425 = COLOUR_RGB( '', 0.689999997600000, 0.689999997600000, 0.689999997600000 );
#426 = CARTESIAN_POINT( '', ( 0.000000000000000, 5.10000000000000, -8.63500000000000 ) );
#427 = AXIS2_PLACEMENT_3D( '', #473, #474, #475 );
#428 = COLOUR_RGB( '', 0.689999997600000, 0.689999997600000, 0.689999997600000 );
#429 = CARTESIAN_POINT( '', ( 0.000000000000000, 9.94843131174806, -8.28257843441260 ) );
#430 = AXIS2_PLACEMENT_3D( '', #476, #477, #478 );
#431 = COLOUR_RGB( '', 0.689999997600000, 0.689999997600000, 0.689999997600000 );
#432 = COLOUR_RGB( '', 0.689999997600000, 0.689999997600000, 0.689999997600000 );
#433 = CARTESIAN_POINT( '', ( 0.000000000000000, 5.10000000000000, -9.00000000000000 ) );
#434 = AXIS2_PLACEMENT_3D( '', #479, #480, #481 );
#435 = COLOUR_RGB( '', 0.689999997600000, 0.689999997600000, 0.689999997600000 );
#436 = COLOUR_RGB( '', 0.689999997600000, 0.689999997600000, 0.689999997600000 );
#437 = CARTESIAN_POINT( '', ( 0.000000000000000, 9.20000000000000, 0.000000000000000 ) );
#438 = DIRECTION( '', ( 0.000000000000000, -1.00000000000000, -0.000000000000000 ) );
#439 = DIRECTION( '', ( 0.000000000000000, 0.000000000000000, -1.00000000000000 ) );
#440 = CARTESIAN_POINT( '', ( 0.000000000000000, 8.00000000000000, 0.000000000000000 ) );
#441 = DIRECTION( '', ( 0.000000000000000, -1.00000000000000, -0.000000000000000 ) );
#442 = DIRECTION( '', ( 0.000000000000000, 0.000000000000000, -1.00000000000000 ) );
#443 = CARTESIAN_POINT( '', ( 0.000000000000000, 8.00000000000000, 0.000000000000000 ) );
#444 = DIRECTION( '', ( 0.000000000000000, -1.00000000000000, -0.000000000000000 ) );
#445 = DIRECTION( '', ( 0.000000000000000, 0.000000000000000, -1.00000000000000 ) );
#446 = CARTESIAN_POINT( '', ( 0.000000000000000, 9.93321211119293, 0.000000000000000 ) );
#447 = DIRECTION( '', ( 0.000000000000000, -1.00000000000000, -0.000000000000000 ) );
#448 = DIRECTION( '', ( 0.000000000000000, 0.000000000000000, -1.00000000000000 ) );
#449 = CARTESIAN_POINT( '', ( 0.000000000000000, 2.00000000000000, 0.000000000000000 ) );
#450 = DIRECTION( '', ( 0.000000000000000, -1.00000000000000, -0.000000000000000 ) );
#451 = DIRECTION( '', ( 0.000000000000000, 0.000000000000000, -1.00000000000000 ) );
#452 = CARTESIAN_POINT( '', ( 0.000000000000000, 2.80000000000000, 0.000000000000000 ) );
#453 = DIRECTION( '', ( 0.000000000000000, -1.00000000000000, -0.000000000000000 ) );
#454 = DIRECTION( '', ( 0.000000000000000, 0.000000000000000, -1.00000000000000 ) );
#455 = CARTESIAN_POINT( '', ( 0.000000000000000, 0.000000000000000, 0.000000000000000 ) );
#456 = DIRECTION( '', ( 0.000000000000000, -1.00000000000000, -0.000000000000000 ) );
#457 = DIRECTION( '', ( 0.000000000000000, 0.000000000000000, -1.00000000000000 ) );
#458 = CARTESIAN_POINT( '', ( 0.000000000000000, 2.00000000000000, 0.000000000000000 ) );
#459 = DIRECTION( '', ( 0.000000000000000, -1.00000000000000, -0.000000000000000 ) );
#460 = DIRECTION( '', ( 0.000000000000000, 0.000000000000000, -1.00000000000000 ) );
#461 = CARTESIAN_POINT( '', ( 0.000000000000000, 6.10000000000000, 0.000000000000000 ) );
#462 = DIRECTION( '', ( 0.000000000000000, -1.00000000000000, -0.000000000000000 ) );
#463 = DIRECTION( '', ( 0.000000000000000, 0.000000000000000, -1.00000000000000 ) );
#464 = CARTESIAN_POINT( '', ( 0.000000000000000, 6.10000000000000, 0.000000000000000 ) );
#465 = DIRECTION( '', ( 0.000000000000000, -1.00000000000000, -0.000000000000000 ) );
#466 = DIRECTION( '', ( 0.000000000000000, 0.000000000000000, -1.00000000000000 ) );
#467 = CARTESIAN_POINT( '', ( 0.000000000000000, 9.30000000000000, 0.000000000000000 ) );
#468 = DIRECTION( '', ( 0.000000000000000, -1.00000000000000, -0.000000000000000 ) );
#469 = DIRECTION( '', ( 0.000000000000000, 0.000000000000000, -1.00000000000000 ) );
#470 = CARTESIAN_POINT( '', ( 0.000000000000000, 2.80000000000000, 0.000000000000000 ) );
#471 = DIRECTION( '', ( 0.000000000000000, -1.00000000000000, -0.000000000000000 ) );
#472 = DIRECTION( '', ( 0.000000000000000, 0.000000000000000, -1.00000000000000 ) );
#473 = CARTESIAN_POINT( '', ( 0.000000000000000, 5.10000000000000, 0.000000000000000 ) );
#474 = DIRECTION( '', ( 0.000000000000000, -1.00000000000000, -0.000000000000000 ) );
#475 = DIRECTION( '', ( 0.000000000000000, 0.000000000000000, -1.00000000000000 ) );
#476 = CARTESIAN_POINT( '', ( 0.000000000000000, 9.94843131174806, 0.000000000000000 ) );
#477 = DIRECTION( '', ( 0.000000000000000, -1.00000000000000, -0.000000000000000 ) );
#478 = DIRECTION( '', ( 0.000000000000000, 0.000000000000000, -1.00000000000000 ) );
#479 = CARTESIAN_POINT( '', ( 0.000000000000000, 5.10000000000000, 0.000000000000000 ) );
#480 = DIRECTION( '', ( 0.000000000000000, -1.00000000000000, -0.000000000000000 ) );
#481 = DIRECTION( '', ( 0.000000000000000, 0.000000000000000, -1.00000000000000 ) );
ENDSEC;
END-ISO-10303-21;
