ISO-10303-21;
HEADER;
FILE_DESCRIPTION( ( 'STEP AP214' ), '1' );
FILE_NAME( '//goodhand-server/Shared Folders/GoodHand Data/Kipp CAD/K0344/K0344.90.stp', '2020-12-03T13:53:18', ( '' ), ( '' ), ' ', 'PARTsolutions', ' ' );
FILE_SCHEMA( ( 'AUTOMOTIVE_DESIGN { 1 0 10303 214 1 1 1 1 }' ) );
ENDSEC;
DATA;
#1 = MECHANICAL_DESIGN_GEOMETRIC_PRESENTATION_REPRESENTATION( ' ', ( #10, #11, #12, #13, #14, #15, #16, #17, #18, #19, #20, #21, #22, #23 ), #6 );
#2 = PRODUCT_DEFINITION_CONTEXT( '', #24, 'design' );
#3 = APPLICATION_PROTOCOL_DEFINITION( 'international standard', 'automotive_design', 2001, #24 );
#4 = PRODUCT_CATEGORY_RELATIONSHIP( 'NONE', 'NONE', #25, #26 );
#5 = SHAPE_DEFINITION_REPRESENTATION( #27, #28 );
#6 =  ( GEOMETRIC_REPRESENTATION_CONTEXT( 3 )GLOBAL_UNCERTAINTY_ASSIGNED_CONTEXT( ( #31 ) )GLOBAL_UNIT_ASSIGNED_CONTEXT( ( #33, #34, #35 ) )REPRESENTATION_CONTEXT( 'NONE', 'WORKSPACE' ) );
#10 = STYLED_ITEM( '', ( #37 ), #38 );
#11 = STYLED_ITEM( '', ( #39 ), #40 );
#12 = STYLED_ITEM( '', ( #41 ), #42 );
#13 = STYLED_ITEM( '', ( #43 ), #44 );
#14 = STYLED_ITEM( '', ( #45 ), #46 );
#15 = STYLED_ITEM( '', ( #47 ), #48 );
#16 = STYLED_ITEM( '', ( #49 ), #50 );
#17 = STYLED_ITEM( '', ( #51 ), #52 );
#18 = STYLED_ITEM( '', ( #53 ), #54 );
#19 = STYLED_ITEM( '', ( #55 ), #56 );
#20 = STYLED_ITEM( '', ( #57 ), #58 );
#21 = STYLED_ITEM( '', ( #59 ), #60 );
#22 = STYLED_ITEM( '', ( #61 ), #62 );
#23 = STYLED_ITEM( '', ( #63 ), #64 );
#24 = APPLICATION_CONTEXT( 'core data for automotive mechanical design processes' );
#25 = PRODUCT_CATEGORY( 'part', 'NONE' );
#26 = PRODUCT_RELATED_PRODUCT_CATEGORY( 'detail', ' ', ( #65 ) );
#27 = PRODUCT_DEFINITION_SHAPE( 'NONE', 'NONE', #66 );
#28 = ADVANCED_BREP_SHAPE_REPRESENTATION( '_K0344.90', ( #67, #68 ), #6 );
#31 = UNCERTAINTY_MEASURE_WITH_UNIT( LENGTH_MEASURE( 0.00100000000000000 ), #33, '', '' );
#33 =  ( CONVERSION_BASED_UNIT( 'MILLIMETRE', #71 )LENGTH_UNIT(  )NAMED_UNIT( #74 ) );
#34 =  ( NAMED_UNIT( #76 )PLANE_ANGLE_UNIT(  )SI_UNIT( $, .RADIAN. ) );
#35 =  ( NAMED_UNIT( #76 )SI_UNIT( $, .STERADIAN. )SOLID_ANGLE_UNIT(  ) );
#37 = PRESENTATION_STYLE_ASSIGNMENT( ( #82 ) );
#38 = ADVANCED_FACE( '', ( #83 ), #84, .T. );
#39 = PRESENTATION_STYLE_ASSIGNMENT( ( #85 ) );
#40 = ADVANCED_FACE( '', ( #86, #87 ), #88, .T. );
#41 = PRESENTATION_STYLE_ASSIGNMENT( ( #89 ) );
#42 = ADVANCED_FACE( '', ( #90 ), #91, .T. );
#43 = PRESENTATION_STYLE_ASSIGNMENT( ( #92 ) );
#44 = ADVANCED_FACE( '', ( #93 ), #94, .T. );
#45 = PRESENTATION_STYLE_ASSIGNMENT( ( #95 ) );
#46 = ADVANCED_FACE( '', ( #96, #97 ), #98, .T. );
#47 = PRESENTATION_STYLE_ASSIGNMENT( ( #99 ) );
#48 = ADVANCED_FACE( '', ( #100 ), #101, .F. );
#49 = PRESENTATION_STYLE_ASSIGNMENT( ( #102 ) );
#50 = ADVANCED_FACE( '', ( #103, #104 ), #105, .T. );
#51 = PRESENTATION_STYLE_ASSIGNMENT( ( #106 ) );
#52 = ADVANCED_FACE( '', ( #107 ), #108, .T. );
#53 = PRESENTATION_STYLE_ASSIGNMENT( ( #109 ) );
#54 = ADVANCED_FACE( '', ( #110, #111 ), #112, .T. );
#55 = PRESENTATION_STYLE_ASSIGNMENT( ( #113 ) );
#56 = ADVANCED_FACE( '', ( #114 ), #115, .F. );
#57 = PRESENTATION_STYLE_ASSIGNMENT( ( #116 ) );
#58 = ADVANCED_FACE( '', ( #117 ), #118, .T. );
#59 = PRESENTATION_STYLE_ASSIGNMENT( ( #119 ) );
#60 = ADVANCED_FACE( '', ( #120, #121, #122 ), #123, .F. );
#61 = PRESENTATION_STYLE_ASSIGNMENT( ( #124 ) );
#62 = ADVANCED_FACE( '', ( #125 ), #126, .F. );
#63 = PRESENTATION_STYLE_ASSIGNMENT( ( #127 ) );
#64 = ADVANCED_FACE( '', ( #128 ), #129, .F. );
#65 = PRODUCT( '_K0344.90', '_K0344.90', 'PART-_K0344.90-DESC', ( #130 ) );
#66 = PRODUCT_DEFINITION( 'NONE', 'NONE', #131, #2 );
#67 = MANIFOLD_SOLID_BREP( '_K0344.90', #132 );
#68 = AXIS2_PLACEMENT_3D( '', #133, #134, #135 );
#71 = LENGTH_MEASURE_WITH_UNIT( LENGTH_MEASURE( 1.00000000000000 ), #136 );
#74 = DIMENSIONAL_EXPONENTS( 1.00000000000000, 0.000000000000000, 0.000000000000000, 0.000000000000000, 0.000000000000000, 0.000000000000000, 0.000000000000000 );
#76 = DIMENSIONAL_EXPONENTS( 0.000000000000000, 0.000000000000000, 0.000000000000000, 0.000000000000000, 0.000000000000000, 0.000000000000000, 0.000000000000000 );
#82 = SURFACE_STYLE_USAGE( .BOTH., #137 );
#83 = FACE_OUTER_BOUND( '', #138, .T. );
#84 = PLANE( '', #139 );
#85 = SURFACE_STYLE_USAGE( .BOTH., #140 );
#86 = FACE_BOUND( '', #141, .T. );
#87 = FACE_OUTER_BOUND( '', #142, .T. );
#88 = CONICAL_SURFACE( '', #143, 0.600000000000000, 0.261799387800000 );
#89 = SURFACE_STYLE_USAGE( .BOTH., #144 );
#90 = FACE_OUTER_BOUND( '', #145, .T. );
#91 = CONICAL_SURFACE( '', #146, 9.00000000000000, 0.785398163400000 );
#92 = SURFACE_STYLE_USAGE( .BOTH., #147 );
#93 = FACE_OUTER_BOUND( '', #148, .T. );
#94 = PLANE( '', #149 );
#95 = SURFACE_STYLE_USAGE( .BOTH., #150 );
#96 = FACE_BOUND( '', #151, .T. );
#97 = FACE_OUTER_BOUND( '', #152, .T. );
#98 = CONICAL_SURFACE( '', #153, 0.600000000000000, 0.261799387800000 );
#99 = SURFACE_STYLE_USAGE( .BOTH., #154 );
#100 = FACE_OUTER_BOUND( '', #155, .T. );
#101 = CYLINDRICAL_SURFACE( '', #156, 2.00000000000000 );
#102 = SURFACE_STYLE_USAGE( .BOTH., #157 );
#103 = FACE_OUTER_BOUND( '', #158, .T. );
#104 = FACE_OUTER_BOUND( '', #159, .T. );
#105 = CYLINDRICAL_SURFACE( '', #160, 0.600000000000000 );
#106 = SURFACE_STYLE_USAGE( .BOTH., #161 );
#107 = FACE_OUTER_BOUND( '', #162, .T. );
#108 = CYLINDRICAL_SURFACE( '', #163, 9.00000000000000 );
#109 = SURFACE_STYLE_USAGE( .BOTH., #164 );
#110 = FACE_OUTER_BOUND( '', #165, .T. );
#111 = FACE_OUTER_BOUND( '', #166, .T. );
#112 = CYLINDRICAL_SURFACE( '', #167, 0.600000000000000 );
#113 = SURFACE_STYLE_USAGE( .BOTH., #168 );
#114 = FACE_OUTER_BOUND( '', #169, .T. );
#115 = PLANE( '', #170 );
#116 = SURFACE_STYLE_USAGE( .BOTH., #171 );
#117 = FACE_OUTER_BOUND( '', #172, .T. );
#118 = CONICAL_SURFACE( '', #173, 8.50000000000000, 0.785398163400000 );
#119 = SURFACE_STYLE_USAGE( .BOTH., #174 );
#120 = FACE_OUTER_BOUND( '', #175, .T. );
#121 = FACE_BOUND( '', #176, .T. );
#122 = FACE_BOUND( '', #177, .T. );
#123 = PLANE( '', #178 );
#124 = SURFACE_STYLE_USAGE( .BOTH., #179 );
#125 = FACE_OUTER_BOUND( '', #180, .T. );
#126 = PLANE( '', #181 );
#127 = SURFACE_STYLE_USAGE( .BOTH., #182 );
#128 = FACE_OUTER_BOUND( '', #183, .T. );
#129 = PLANE( '', #184 );
#130 = PRODUCT_CONTEXT( '', #24, 'mechanical' );
#131 = PRODUCT_DEFINITION_FORMATION_WITH_SPECIFIED_SOURCE( ' ', 'NONE', #65, .NOT_KNOWN. );
#132 = CLOSED_SHELL( '', ( #44, #58, #60, #54, #62, #46, #64, #50, #40, #56, #48, #38, #52, #42 ) );
#133 = CARTESIAN_POINT( '', ( 0.000000000000000, 0.000000000000000, 0.000000000000000 ) );
#134 = DIRECTION( '', ( 0.000000000000000, 0.000000000000000, 1.00000000000000 ) );
#135 = DIRECTION( '', ( 1.00000000000000, 0.000000000000000, 0.000000000000000 ) );
#136 =  ( LENGTH_UNIT(  )NAMED_UNIT( #74 )SI_UNIT( .MILLI., .METRE. ) );
#137 = SURFACE_SIDE_STYLE( '', ( #186 ) );
#138 = EDGE_LOOP( '', ( #187, #188, #189, #190, #191, #192 ) );
#139 = AXIS2_PLACEMENT_3D( '', #193, #194, #195 );
#140 = SURFACE_SIDE_STYLE( '', ( #196 ) );
#141 = EDGE_LOOP( '', ( #197 ) );
#142 = EDGE_LOOP( '', ( #198 ) );
#143 = AXIS2_PLACEMENT_3D( '', #199, #200, #201 );
#144 = SURFACE_SIDE_STYLE( '', ( #202 ) );
#145 = EDGE_LOOP( '', ( #203, #204, #205, #206 ) );
#146 = AXIS2_PLACEMENT_3D( '', #207, #208, #209 );
#147 = SURFACE_SIDE_STYLE( '', ( #210 ) );
#148 = EDGE_LOOP( '', ( #211, #212, #213, #214, #215, #216 ) );
#149 = AXIS2_PLACEMENT_3D( '', #217, #218, #219 );
#150 = SURFACE_SIDE_STYLE( '', ( #220 ) );
#151 = EDGE_LOOP( '', ( #221 ) );
#152 = EDGE_LOOP( '', ( #222 ) );
#153 = AXIS2_PLACEMENT_3D( '', #223, #224, #225 );
#154 = SURFACE_SIDE_STYLE( '', ( #226 ) );
#155 = EDGE_LOOP( '', ( #227, #228, #229, #230 ) );
#156 = AXIS2_PLACEMENT_3D( '', #231, #232, #233 );
#157 = SURFACE_SIDE_STYLE( '', ( #234 ) );
#158 = EDGE_LOOP( '', ( #235 ) );
#159 = EDGE_LOOP( '', ( #236 ) );
#160 = AXIS2_PLACEMENT_3D( '', #237, #238, #239 );
#161 = SURFACE_SIDE_STYLE( '', ( #240 ) );
#162 = EDGE_LOOP( '', ( #241, #242, #243, #244 ) );
#163 = AXIS2_PLACEMENT_3D( '', #245, #246, #247 );
#164 = SURFACE_SIDE_STYLE( '', ( #248 ) );
#165 = EDGE_LOOP( '', ( #249 ) );
#166 = EDGE_LOOP( '', ( #250 ) );
#167 = AXIS2_PLACEMENT_3D( '', #251, #252, #253 );
#168 = SURFACE_SIDE_STYLE( '', ( #254 ) );
#169 = EDGE_LOOP( '', ( #255 ) );
#170 = AXIS2_PLACEMENT_3D( '', #256, #257, #258 );
#171 = SURFACE_SIDE_STYLE( '', ( #259 ) );
#172 = EDGE_LOOP( '', ( #260, #261, #262, #263 ) );
#173 = AXIS2_PLACEMENT_3D( '', #264, #265, #266 );
#174 = SURFACE_SIDE_STYLE( '', ( #267 ) );
#175 = EDGE_LOOP( '', ( #268, #269, #270, #271 ) );
#176 = EDGE_LOOP( '', ( #272 ) );
#177 = EDGE_LOOP( '', ( #273 ) );
#178 = AXIS2_PLACEMENT_3D( '', #274, #275, #276 );
#179 = SURFACE_SIDE_STYLE( '', ( #277 ) );
#180 = EDGE_LOOP( '', ( #278, #279, #280, #281 ) );
#181 = AXIS2_PLACEMENT_3D( '', #282, #283, #284 );
#182 = SURFACE_SIDE_STYLE( '', ( #285 ) );
#183 = EDGE_LOOP( '', ( #286 ) );
#184 = AXIS2_PLACEMENT_3D( '', #287, #288, #289 );
#186 = SURFACE_STYLE_FILL_AREA( #290 );
#187 = ORIENTED_EDGE( '', *, *, #291, .T. );
#188 = ORIENTED_EDGE( '', *, *, #292, .T. );
#189 = ORIENTED_EDGE( '', *, *, #293, .T. );
#190 = ORIENTED_EDGE( '', *, *, #294, .F. );
#191 = ORIENTED_EDGE( '', *, *, #295, .F. );
#192 = ORIENTED_EDGE( '', *, *, #296, .T. );
#193 = CARTESIAN_POINT( '', ( -2.00000000000000, 2.50000000000000, 0.000000000000000 ) );
#194 = DIRECTION( '', ( 1.00000000000000, 0.000000000000000, 0.000000000000000 ) );
#195 = DIRECTION( '', ( 0.000000000000000, 0.000000000000000, -1.00000000000000 ) );
#196 = SURFACE_STYLE_FILL_AREA( #297 );
#197 = ORIENTED_EDGE( '', *, *, #298, .F. );
#198 = ORIENTED_EDGE( '', *, *, #299, .T. );
#199 = CARTESIAN_POINT( '', ( -2.80000000000000, -1.10000000000000, 0.000000000000000 ) );
#200 = DIRECTION( '', ( -0.000000000000000, 1.00000000000000, 0.000000000000000 ) );
#201 = DIRECTION( '', ( 0.000000000000000, -0.000000000000000, 1.00000000000000 ) );
#202 = SURFACE_STYLE_FILL_AREA( #300 );
#203 = ORIENTED_EDGE( '', *, *, #301, .F. );
#204 = ORIENTED_EDGE( '', *, *, #302, .F. );
#205 = ORIENTED_EDGE( '', *, *, #293, .F. );
#206 = ORIENTED_EDGE( '', *, *, #303, .T. );
#207 = CARTESIAN_POINT( '', ( 0.000000000000000, 0.500000000000000, 0.000000000000000 ) );
#208 = DIRECTION( '', ( -0.000000000000000, 1.00000000000000, 0.000000000000000 ) );
#209 = DIRECTION( '', ( 0.000000000000000, -0.000000000000000, 1.00000000000000 ) );
#210 = SURFACE_STYLE_FILL_AREA( #304 );
#211 = ORIENTED_EDGE( '', *, *, #305, .T. );
#212 = ORIENTED_EDGE( '', *, *, #306, .T. );
#213 = ORIENTED_EDGE( '', *, *, #307, .T. );
#214 = ORIENTED_EDGE( '', *, *, #308, .T. );
#215 = ORIENTED_EDGE( '', *, *, #301, .T. );
#216 = ORIENTED_EDGE( '', *, *, #309, .T. );
#217 = CARTESIAN_POINT( '', ( 2.00000000000000, 2.50000000000000, 10.0000000000000 ) );
#218 = DIRECTION( '', ( -1.00000000000000, 0.000000000000000, 0.000000000000000 ) );
#219 = DIRECTION( '', ( 0.000000000000000, 0.000000000000000, 1.00000000000000 ) );
#220 = SURFACE_STYLE_FILL_AREA( #310 );
#221 = ORIENTED_EDGE( '', *, *, #311, .F. );
#222 = ORIENTED_EDGE( '', *, *, #312, .T. );
#223 = CARTESIAN_POINT( '', ( 2.80000000000000, -1.10000000000000, 0.000000000000000 ) );
#224 = DIRECTION( '', ( -0.000000000000000, 1.00000000000000, 0.000000000000000 ) );
#225 = DIRECTION( '', ( 0.000000000000000, -0.000000000000000, 1.00000000000000 ) );
#226 = SURFACE_STYLE_FILL_AREA( #313 );
#227 = ORIENTED_EDGE( '', *, *, #314, .F. );
#228 = ORIENTED_EDGE( '', *, *, #307, .F. );
#229 = ORIENTED_EDGE( '', *, *, #315, .T. );
#230 = ORIENTED_EDGE( '', *, *, #295, .T. );
#231 = CARTESIAN_POINT( '', ( -9.75781955236954E-16, 2.50000000000000, -4.33680868994202E-16 ) );
#232 = DIRECTION( '', ( -0.000000000000000, 1.00000000000000, 0.000000000000000 ) );
#233 = DIRECTION( '', ( 0.000000000000000, 0.000000000000000, -1.00000000000000 ) );
#234 = SURFACE_STYLE_FILL_AREA( #316 );
#235 = ORIENTED_EDGE( '', *, *, #299, .F. );
#236 = ORIENTED_EDGE( '', *, *, #317, .T. );
#237 = CARTESIAN_POINT( '', ( -2.80000000000000, -1.50000000000000, 0.000000000000000 ) );
#238 = DIRECTION( '', ( -0.000000000000000, 1.00000000000000, 0.000000000000000 ) );
#239 = DIRECTION( '', ( 0.000000000000000, 0.000000000000000, -1.00000000000000 ) );
#240 = SURFACE_STYLE_FILL_AREA( #318 );
#241 = ORIENTED_EDGE( '', *, *, #309, .F. );
#242 = ORIENTED_EDGE( '', *, *, #303, .F. );
#243 = ORIENTED_EDGE( '', *, *, #292, .F. );
#244 = ORIENTED_EDGE( '', *, *, #319, .T. );
#245 = CARTESIAN_POINT( '', ( 0.000000000000000, 0.000000000000000, 0.000000000000000 ) );
#246 = DIRECTION( '', ( -0.000000000000000, 1.00000000000000, 0.000000000000000 ) );
#247 = DIRECTION( '', ( 0.000000000000000, 0.000000000000000, -1.00000000000000 ) );
#248 = SURFACE_STYLE_FILL_AREA( #320 );
#249 = ORIENTED_EDGE( '', *, *, #312, .F. );
#250 = ORIENTED_EDGE( '', *, *, #321, .T. );
#251 = CARTESIAN_POINT( '', ( 2.80000000000000, -1.50000000000000, 0.000000000000000 ) );
#252 = DIRECTION( '', ( -0.000000000000000, 1.00000000000000, 0.000000000000000 ) );
#253 = DIRECTION( '', ( 0.000000000000000, 0.000000000000000, -1.00000000000000 ) );
#254 = SURFACE_STYLE_FILL_AREA( #322 );
#255 = ORIENTED_EDGE( '', *, *, #298, .T. );
#256 = CARTESIAN_POINT( '', ( -2.30717967697245, -1.50000000000000, 0.000000000000000 ) );
#257 = DIRECTION( '', ( 0.000000000000000, 1.00000000000000, 0.000000000000000 ) );
#258 = DIRECTION( '', ( 0.000000000000000, -0.000000000000000, 1.00000000000000 ) );
#259 = SURFACE_STYLE_FILL_AREA( #323 );
#260 = ORIENTED_EDGE( '', *, *, #305, .F. );
#261 = ORIENTED_EDGE( '', *, *, #319, .F. );
#262 = ORIENTED_EDGE( '', *, *, #291, .F. );
#263 = ORIENTED_EDGE( '', *, *, #324, .T. );
#264 = CARTESIAN_POINT( '', ( 0.000000000000000, 2.50000000000000, 0.000000000000000 ) );
#265 = DIRECTION( '', ( -0.000000000000000, -1.00000000000000, -0.000000000000000 ) );
#266 = DIRECTION( '', ( 0.000000000000000, 0.000000000000000, -1.00000000000000 ) );
#267 = SURFACE_STYLE_FILL_AREA( #325 );
#268 = ORIENTED_EDGE( '', *, *, #308, .F. );
#269 = ORIENTED_EDGE( '', *, *, #314, .T. );
#270 = ORIENTED_EDGE( '', *, *, #294, .T. );
#271 = ORIENTED_EDGE( '', *, *, #302, .T. );
#272 = ORIENTED_EDGE( '', *, *, #321, .F. );
#273 = ORIENTED_EDGE( '', *, *, #317, .F. );
#274 = CARTESIAN_POINT( '', ( 8.50000000000000, 0.000000000000000, 0.000000000000000 ) );
#275 = DIRECTION( '', ( 0.000000000000000, 1.00000000000000, 0.000000000000000 ) );
#276 = DIRECTION( '', ( 0.000000000000000, -0.000000000000000, 1.00000000000000 ) );
#277 = SURFACE_STYLE_FILL_AREA( #326 );
#278 = ORIENTED_EDGE( '', *, *, #306, .F. );
#279 = ORIENTED_EDGE( '', *, *, #324, .F. );
#280 = ORIENTED_EDGE( '', *, *, #296, .F. );
#281 = ORIENTED_EDGE( '', *, *, #315, .F. );
#282 = CARTESIAN_POINT( '', ( 0.000000000000000, 2.50000000000000, 0.000000000000000 ) );
#283 = DIRECTION( '', ( 0.000000000000000, -1.00000000000000, -0.000000000000000 ) );
#284 = DIRECTION( '', ( 0.000000000000000, 0.000000000000000, -1.00000000000000 ) );
#285 = SURFACE_STYLE_FILL_AREA( #327 );
#286 = ORIENTED_EDGE( '', *, *, #311, .T. );
#287 = CARTESIAN_POINT( '', ( 3.29282032302755, -1.50000000000000, 0.000000000000000 ) );
#288 = DIRECTION( '', ( 0.000000000000000, 1.00000000000000, 0.000000000000000 ) );
#289 = DIRECTION( '', ( 0.000000000000000, -0.000000000000000, 1.00000000000000 ) );
#290 = FILL_AREA_STYLE( '', ( #328 ) );
#291 = EDGE_CURVE( '', #329, #330, #331, .T. );
#292 = EDGE_CURVE( '', #330, #332, #333, .T. );
#293 = EDGE_CURVE( '', #332, #334, #335, .T. );
#294 = EDGE_CURVE( '', #336, #334, #337, .T. );
#295 = EDGE_CURVE( '', #338, #336, #339, .T. );
#296 = EDGE_CURVE( '', #338, #329, #340, .T. );
#297 = FILL_AREA_STYLE( '', ( #341 ) );
#298 = EDGE_CURVE( '', #342, #342, #343, .T. );
#299 = EDGE_CURVE( '', #344, #344, #345, .T. );
#300 = FILL_AREA_STYLE( '', ( #346 ) );
#301 = EDGE_CURVE( '', #347, #348, #349, .T. );
#302 = EDGE_CURVE( '', #334, #347, #350, .T. );
#303 = EDGE_CURVE( '', #332, #348, #351, .T. );
#304 = FILL_AREA_STYLE( '', ( #352 ) );
#305 = EDGE_CURVE( '', #353, #354, #355, .T. );
#306 = EDGE_CURVE( '', #354, #356, #357, .T. );
#307 = EDGE_CURVE( '', #356, #358, #359, .T. );
#308 = EDGE_CURVE( '', #358, #347, #360, .T. );
#309 = EDGE_CURVE( '', #348, #353, #361, .F. );
#310 = FILL_AREA_STYLE( '', ( #362 ) );
#311 = EDGE_CURVE( '', #363, #363, #364, .T. );
#312 = EDGE_CURVE( '', #365, #365, #366, .T. );
#313 = FILL_AREA_STYLE( '', ( #367 ) );
#314 = EDGE_CURVE( '', #358, #336, #368, .T. );
#315 = EDGE_CURVE( '', #356, #338, #369, .T. );
#316 = FILL_AREA_STYLE( '', ( #370 ) );
#317 = EDGE_CURVE( '', #371, #371, #372, .F. );
#318 = FILL_AREA_STYLE( '', ( #373 ) );
#319 = EDGE_CURVE( '', #330, #353, #374, .T. );
#320 = FILL_AREA_STYLE( '', ( #375 ) );
#321 = EDGE_CURVE( '', #376, #376, #377, .F. );
#322 = FILL_AREA_STYLE( '', ( #378 ) );
#323 = FILL_AREA_STYLE( '', ( #379 ) );
#324 = EDGE_CURVE( '', #329, #354, #380, .T. );
#325 = FILL_AREA_STYLE( '', ( #381 ) );
#326 = FILL_AREA_STYLE( '', ( #382 ) );
#327 = FILL_AREA_STYLE( '', ( #383 ) );
#328 = FILL_AREA_STYLE_COLOUR( '', #384 );
#329 = VERTEX_POINT( '', #385 );
#330 = VERTEX_POINT( '', #386 );
#331 = B_SPLINE_CURVE_WITH_KNOTS( '', 3, ( #387, #388, #389, #390 ), .UNSPECIFIED., .F., .F., ( 4, 4 ), ( 0.00695380221160359, 0.00767045018299421 ), .UNSPECIFIED. );
#332 = VERTEX_POINT( '', #391 );
#333 = LINE( '', #392, #393 );
#334 = VERTEX_POINT( '', #394 );
#335 = B_SPLINE_CURVE_WITH_KNOTS( '', 3, ( #395, #396, #397, #398 ), .UNSPECIFIED., .F., .F., ( 4, 4 ), ( 0.00905392374500763, 0.00977070678091960 ), .UNSPECIFIED. );
#336 = VERTEX_POINT( '', #399 );
#337 = LINE( '', #400, #401 );
#338 = VERTEX_POINT( '', #402 );
#339 = LINE( '', #403, #404 );
#340 = LINE( '', #405, #406 );
#341 = FILL_AREA_STYLE_COLOUR( '', #407 );
#342 = VERTEX_POINT( '', #408 );
#343 = CIRCLE( '', #409, 0.492820323000000 );
#344 = VERTEX_POINT( '', #410 );
#345 = CIRCLE( '', #411, 0.600000000000000 );
#346 = FILL_AREA_STYLE_COLOUR( '', #412 );
#347 = VERTEX_POINT( '', #413 );
#348 = VERTEX_POINT( '', #414 );
#349 = B_SPLINE_CURVE_WITH_KNOTS( '', 3, ( #415, #416, #417, #418 ), .UNSPECIFIED., .F., .F., ( 4, 4 ), ( 0.00695380221160359, 0.00767045018299422 ), .UNSPECIFIED. );
#350 = CIRCLE( '', #419, 8.50000000000000 );
#351 = CIRCLE( '', #420, 9.00000000000000 );
#352 = FILL_AREA_STYLE_COLOUR( '', #421 );
#353 = VERTEX_POINT( '', #422 );
#354 = VERTEX_POINT( '', #423 );
#355 = B_SPLINE_CURVE_WITH_KNOTS( '', 3, ( #424, #425, #426, #427 ), .UNSPECIFIED., .F., .F., ( 4, 4 ), ( 0.00905392374500763, 0.00977070678091959 ), .UNSPECIFIED. );
#356 = VERTEX_POINT( '', #428 );
#357 = LINE( '', #429, #430 );
#358 = VERTEX_POINT( '', #431 );
#359 = LINE( '', #432, #433 );
#360 = LINE( '', #434, #435 );
#361 = LINE( '', #436, #437 );
#362 = FILL_AREA_STYLE_COLOUR( '', #438 );
#363 = VERTEX_POINT( '', #439 );
#364 = CIRCLE( '', #440, 0.492820323000000 );
#365 = VERTEX_POINT( '', #441 );
#366 = CIRCLE( '', #442, 0.600000000000000 );
#367 = FILL_AREA_STYLE_COLOUR( '', #443 );
#368 = CIRCLE( '', #444, 2.00000000000000 );
#369 = CIRCLE( '', #445, 2.00000000000000 );
#370 = FILL_AREA_STYLE_COLOUR( '', #446 );
#371 = VERTEX_POINT( '', #447 );
#372 = CIRCLE( '', #448, 0.600000000000000 );
#373 = FILL_AREA_STYLE_COLOUR( '', #449 );
#374 = CIRCLE( '', #450, 9.00000000000000 );
#375 = FILL_AREA_STYLE_COLOUR( '', #451 );
#376 = VERTEX_POINT( '', #452 );
#377 = CIRCLE( '', #453, 0.600000000000000 );
#378 = FILL_AREA_STYLE_COLOUR( '', #454 );
#379 = FILL_AREA_STYLE_COLOUR( '', #455 );
#380 = CIRCLE( '', #456, 8.50000000000000 );
#381 = FILL_AREA_STYLE_COLOUR( '', #457 );
#382 = FILL_AREA_STYLE_COLOUR( '', #458 );
#383 = FILL_AREA_STYLE_COLOUR( '', #459 );
#384 = COLOUR_RGB( '', 0.689999997600000, 0.689999997600000, 0.689999997600000 );
#385 = CARTESIAN_POINT( '', ( -2.00000000000000, 2.50000000000000, 8.26135582092915 ) );
#386 = CARTESIAN_POINT( '', ( -2.00000000000000, 2.00000000000000, 8.77496438739212 ) );
#387 = CARTESIAN_POINT( '', ( -2.00000000000000, 2.50000000000000, 8.26135582092915 ) );
#388 = CARTESIAN_POINT( '', ( -2.00000000000000, 2.33347155602943, 8.43269473967707 ) );
#389 = CARTESIAN_POINT( '', ( -2.00000000000000, 2.16679700890040, 8.60388983781783 ) );
#390 = CARTESIAN_POINT( '', ( -2.00000000000000, 2.00000000000000, 8.77496438739212 ) );
#391 = CARTESIAN_POINT( '', ( -2.00000000000000, 0.500000000000000, 8.77496438739212 ) );
#392 = CARTESIAN_POINT( '', ( -2.00000000000000, 0.000000000000000, 8.77496438739212 ) );
#393 = VECTOR( '', #460, 1000.00000000000 );
#394 = CARTESIAN_POINT( '', ( -2.00000000000000, 0.000000000000000, 8.26135582092915 ) );
#395 = CARTESIAN_POINT( '', ( -2.00000000000000, 0.499999999999999, 8.77496438739212 ) );
#396 = CARTESIAN_POINT( '', ( -2.00000000000000, 0.333202991099603, 8.60388983781783 ) );
#397 = CARTESIAN_POINT( '', ( -2.00000000000000, 0.166528443970564, 8.43269473967707 ) );
#398 = CARTESIAN_POINT( '', ( -2.00000000000000, -1.85679091758749E-15, 8.26135582092915 ) );
#399 = CARTESIAN_POINT( '', ( -2.00000000000000, 0.000000000000000, 0.000000000000000 ) );
#400 = CARTESIAN_POINT( '', ( -2.00000000000000, 0.000000000000000, 0.000000000000000 ) );
#401 = VECTOR( '', #461, 1000.00000000000 );
#402 = CARTESIAN_POINT( '', ( -2.00000000000000, 2.50000000000000, 0.000000000000000 ) );
#403 = CARTESIAN_POINT( '', ( -2.00000000000000, 2.50000000000000, 0.000000000000000 ) );
#404 = VECTOR( '', #462, 1000.00000000000 );
#405 = CARTESIAN_POINT( '', ( -2.00000000000000, 2.50000000000000, 0.000000000000000 ) );
#406 = VECTOR( '', #463, 1000.00000000000 );
#407 = COLOUR_RGB( '', 0.689999997600000, 0.689999997600000, 0.689999997600000 );
#408 = CARTESIAN_POINT( '', ( -2.80000000000000, -1.50000000000000, -0.492820323027551 ) );
#409 = AXIS2_PLACEMENT_3D( '', #464, #465, #466 );
#410 = CARTESIAN_POINT( '', ( -2.80000000000000, -1.10000000000000, -0.600000000000000 ) );
#411 = AXIS2_PLACEMENT_3D( '', #467, #468, #469 );
#412 = COLOUR_RGB( '', 0.689999997600000, 0.689999997600000, 0.689999997600000 );
#413 = CARTESIAN_POINT( '', ( 2.00000000000000, 0.000000000000000, 8.26135582092915 ) );
#414 = CARTESIAN_POINT( '', ( 2.00000000000000, 0.500000000000000, 8.77496438739212 ) );
#415 = CARTESIAN_POINT( '', ( 2.00000000000000, -2.00075481131980E-16, 8.26135582092915 ) );
#416 = CARTESIAN_POINT( '', ( 2.00000000000000, 0.166528443970566, 8.43269473967707 ) );
#417 = CARTESIAN_POINT( '', ( 2.00000000000000, 0.333202991099604, 8.60388983781783 ) );
#418 = CARTESIAN_POINT( '', ( 2.00000000000000, 0.500000000000000, 8.77496438739212 ) );
#419 = AXIS2_PLACEMENT_3D( '', #470, #471, #472 );
#420 = AXIS2_PLACEMENT_3D( '', #473, #474, #475 );
#421 = COLOUR_RGB( '', 0.689999997600000, 0.689999997600000, 0.689999997600000 );
#422 = CARTESIAN_POINT( '', ( 2.00000000000000, 2.00000000000000, 8.77496438739212 ) );
#423 = CARTESIAN_POINT( '', ( 2.00000000000000, 2.50000000000000, 8.26135582092915 ) );
#424 = CARTESIAN_POINT( '', ( 2.00000000000000, 2.00000000000000, 8.77496438739212 ) );
#425 = CARTESIAN_POINT( '', ( 2.00000000000000, 2.16679700890040, 8.60388983781783 ) );
#426 = CARTESIAN_POINT( '', ( 2.00000000000000, 2.33347155602943, 8.43269473967707 ) );
#427 = CARTESIAN_POINT( '', ( 2.00000000000000, 2.50000000000000, 8.26135582092915 ) );
#428 = CARTESIAN_POINT( '', ( 2.00000000000000, 2.50000000000000, 0.000000000000000 ) );
#429 = CARTESIAN_POINT( '', ( 2.00000000000000, 2.50000000000000, 10.0000000000000 ) );
#430 = VECTOR( '', #476, 1000.00000000000 );
#431 = CARTESIAN_POINT( '', ( 2.00000000000000, 0.000000000000000, 0.000000000000000 ) );
#432 = CARTESIAN_POINT( '', ( 2.00000000000000, 2.50000000000000, 0.000000000000000 ) );
#433 = VECTOR( '', #477, 1000.00000000000 );
#434 = CARTESIAN_POINT( '', ( 2.00000000000000, 0.000000000000000, 0.000000000000000 ) );
#435 = VECTOR( '', #478, 1000.00000000000 );
#436 = CARTESIAN_POINT( '', ( 2.00000000000000, 0.000000000000000, 8.77496438739212 ) );
#437 = VECTOR( '', #479, 1000.00000000000 );
#438 = COLOUR_RGB( '', 0.689999997600000, 0.689999997600000, 0.689999997600000 );
#439 = CARTESIAN_POINT( '', ( 2.80000000000000, -1.50000000000000, -0.492820323027551 ) );
#440 = AXIS2_PLACEMENT_3D( '', #480, #481, #482 );
#441 = CARTESIAN_POINT( '', ( 2.80000000000000, -1.10000000000000, -0.600000000000000 ) );
#442 = AXIS2_PLACEMENT_3D( '', #483, #484, #485 );
#443 = COLOUR_RGB( '', 0.689999997600000, 0.689999997600000, 0.689999997600000 );
#444 = AXIS2_PLACEMENT_3D( '', #486, #487, #488 );
#445 = AXIS2_PLACEMENT_3D( '', #489, #490, #491 );
#446 = COLOUR_RGB( '', 0.689999997600000, 0.689999997600000, 0.689999997600000 );
#447 = CARTESIAN_POINT( '', ( -2.80000000000000, 0.000000000000000, 0.600000000000000 ) );
#448 = AXIS2_PLACEMENT_3D( '', #492, #493, #494 );
#449 = COLOUR_RGB( '', 0.689999997600000, 0.689999997600000, 0.689999997600000 );
#450 = AXIS2_PLACEMENT_3D( '', #495, #496, #497 );
#451 = COLOUR_RGB( '', 0.689999997600000, 0.689999997600000, 0.689999997600000 );
#452 = CARTESIAN_POINT( '', ( 2.80000000000000, 0.000000000000000, 0.600000000000000 ) );
#453 = AXIS2_PLACEMENT_3D( '', #498, #499, #500 );
#454 = COLOUR_RGB( '', 0.689999997600000, 0.689999997600000, 0.689999997600000 );
#455 = COLOUR_RGB( '', 0.689999997600000, 0.689999997600000, 0.689999997600000 );
#456 = AXIS2_PLACEMENT_3D( '', #501, #502, #503 );
#457 = COLOUR_RGB( '', 0.689999997600000, 0.689999997600000, 0.689999997600000 );
#458 = COLOUR_RGB( '', 0.689999997600000, 0.689999997600000, 0.689999997600000 );
#459 = COLOUR_RGB( '', 0.689999997600000, 0.689999997600000, 0.689999997600000 );
#460 = DIRECTION( '', ( -0.000000000000000, -1.00000000000000, -0.000000000000000 ) );
#461 = DIRECTION( '', ( 0.000000000000000, 0.000000000000000, 1.00000000000000 ) );
#462 = DIRECTION( '', ( -0.000000000000000, -1.00000000000000, -0.000000000000000 ) );
#463 = DIRECTION( '', ( 0.000000000000000, 0.000000000000000, 1.00000000000000 ) );
#464 = CARTESIAN_POINT( '', ( -2.80000000000000, -1.50000000000000, 0.000000000000000 ) );
#465 = DIRECTION( '', ( 0.000000000000000, -1.00000000000000, -0.000000000000000 ) );
#466 = DIRECTION( '', ( 0.000000000000000, 0.000000000000000, -1.00000000000000 ) );
#467 = CARTESIAN_POINT( '', ( -2.80000000000000, -1.10000000000000, 0.000000000000000 ) );
#468 = DIRECTION( '', ( 0.000000000000000, -1.00000000000000, -0.000000000000000 ) );
#469 = DIRECTION( '', ( 0.000000000000000, 0.000000000000000, -1.00000000000000 ) );
#470 = CARTESIAN_POINT( '', ( 0.000000000000000, 0.000000000000000, 0.000000000000000 ) );
#471 = DIRECTION( '', ( 0.000000000000000, -1.00000000000000, -0.000000000000000 ) );
#472 = DIRECTION( '', ( 0.000000000000000, 0.000000000000000, -1.00000000000000 ) );
#473 = CARTESIAN_POINT( '', ( 0.000000000000000, 0.500000000000000, 0.000000000000000 ) );
#474 = DIRECTION( '', ( 0.000000000000000, -1.00000000000000, -0.000000000000000 ) );
#475 = DIRECTION( '', ( 0.000000000000000, 0.000000000000000, -1.00000000000000 ) );
#476 = DIRECTION( '', ( 0.000000000000000, 0.000000000000000, -1.00000000000000 ) );
#477 = DIRECTION( '', ( -0.000000000000000, -1.00000000000000, -0.000000000000000 ) );
#478 = DIRECTION( '', ( 0.000000000000000, -0.000000000000000, 1.00000000000000 ) );
#479 = DIRECTION( '', ( -0.000000000000000, -1.00000000000000, -0.000000000000000 ) );
#480 = CARTESIAN_POINT( '', ( 2.80000000000000, -1.50000000000000, 0.000000000000000 ) );
#481 = DIRECTION( '', ( 0.000000000000000, -1.00000000000000, -0.000000000000000 ) );
#482 = DIRECTION( '', ( 0.000000000000000, 0.000000000000000, -1.00000000000000 ) );
#483 = CARTESIAN_POINT( '', ( 2.80000000000000, -1.10000000000000, 0.000000000000000 ) );
#484 = DIRECTION( '', ( 0.000000000000000, -1.00000000000000, -0.000000000000000 ) );
#485 = DIRECTION( '', ( 0.000000000000000, 0.000000000000000, -1.00000000000000 ) );
#486 = CARTESIAN_POINT( '', ( -9.75781955236954E-16, 0.000000000000000, -4.33680868994202E-16 ) );
#487 = DIRECTION( '', ( -0.000000000000000, 1.00000000000000, 0.000000000000000 ) );
#488 = DIRECTION( '', ( 1.00000000000000, 0.000000000000000, 0.000000000000000 ) );
#489 = CARTESIAN_POINT( '', ( 4.33680868994202E-16, 2.50000000000000, -9.75781955236954E-16 ) );
#490 = DIRECTION( '', ( -0.000000000000000, 1.00000000000000, 0.000000000000000 ) );
#491 = DIRECTION( '', ( 1.00000000000000, 0.000000000000000, 0.000000000000000 ) );
#492 = CARTESIAN_POINT( '', ( -2.80000000000000, 0.000000000000000, 0.000000000000000 ) );
#493 = DIRECTION( '', ( 0.000000000000000, 1.00000000000000, 0.000000000000000 ) );
#494 = DIRECTION( '', ( 0.000000000000000, -0.000000000000000, 1.00000000000000 ) );
#495 = CARTESIAN_POINT( '', ( 0.000000000000000, 2.00000000000000, 0.000000000000000 ) );
#496 = DIRECTION( '', ( 0.000000000000000, -1.00000000000000, -0.000000000000000 ) );
#497 = DIRECTION( '', ( 0.000000000000000, 0.000000000000000, -1.00000000000000 ) );
#498 = CARTESIAN_POINT( '', ( 2.80000000000000, 0.000000000000000, 0.000000000000000 ) );
#499 = DIRECTION( '', ( 0.000000000000000, 1.00000000000000, 0.000000000000000 ) );
#500 = DIRECTION( '', ( 0.000000000000000, -0.000000000000000, 1.00000000000000 ) );
#501 = CARTESIAN_POINT( '', ( 0.000000000000000, 2.50000000000000, 0.000000000000000 ) );
#502 = DIRECTION( '', ( 0.000000000000000, -1.00000000000000, -0.000000000000000 ) );
#503 = DIRECTION( '', ( 0.000000000000000, 0.000000000000000, -1.00000000000000 ) );
ENDSEC;
END-ISO-10303-21;
