ISO-10303-21;
HEADER;
FILE_DESCRIPTION( ( 'STEP AP214' ), '1' );
FILE_NAME( '//goodhand-server/Shared Folders/GoodHand Data/Kipp CAD/K0392/K0392.10.stp', '2020-12-07T10:23:24', ( '' ), ( '' ), ' ', 'PARTsolutions', ' ' );
FILE_SCHEMA( ( 'AUTOMOTIVE_DESIGN { 1 0 10303 214 1 1 1 1 }' ) );
ENDSEC;
DATA;
#1 = MECHANICAL_DESIGN_GEOMETRIC_PRESENTATION_REPRESENTATION( ' ', ( #10, #11, #12, #13, #14, #15, #16, #17, #18, #19, #20, #21, #22, #23, #24, #25, #26 ), #6 );
#2 = PRODUCT_DEFINITION_CONTEXT( '', #27, 'design' );
#3 = APPLICATION_PROTOCOL_DEFINITION( 'international standard', 'automotive_design', 2001, #27 );
#4 = PRODUCT_CATEGORY_RELATIONSHIP( 'NONE', 'NONE', #28, #29 );
#5 = SHAPE_DEFINITION_REPRESENTATION( #30, #31 );
#6 =  ( GEOMETRIC_REPRESENTATION_CONTEXT( 3 )GLOBAL_UNCERTAINTY_ASSIGNED_CONTEXT( ( #34 ) )GLOBAL_UNIT_ASSIGNED_CONTEXT( ( #36, #37, #38 ) )REPRESENTATION_CONTEXT( 'NONE', 'WORKSPACE' ) );
#10 = STYLED_ITEM( '', ( #40 ), #41 );
#11 = STYLED_ITEM( '', ( #42 ), #43 );
#12 = STYLED_ITEM( '', ( #44 ), #45 );
#13 = STYLED_ITEM( '', ( #46 ), #47 );
#14 = STYLED_ITEM( '', ( #48 ), #49 );
#15 = STYLED_ITEM( '', ( #50 ), #51 );
#16 = STYLED_ITEM( '', ( #52 ), #53 );
#17 = STYLED_ITEM( '', ( #54 ), #55 );
#18 = STYLED_ITEM( '', ( #56 ), #57 );
#19 = STYLED_ITEM( '', ( #58 ), #59 );
#20 = STYLED_ITEM( '', ( #60 ), #61 );
#21 = STYLED_ITEM( '', ( #62 ), #63 );
#22 = STYLED_ITEM( '', ( #64 ), #65 );
#23 = STYLED_ITEM( '', ( #66 ), #67 );
#24 = STYLED_ITEM( '', ( #68 ), #69 );
#25 = STYLED_ITEM( '', ( #70 ), #71 );
#26 = STYLED_ITEM( '', ( #72 ), #73 );
#27 = APPLICATION_CONTEXT( 'core data for automotive mechanical design processes' );
#28 = PRODUCT_CATEGORY( 'part', 'NONE' );
#29 = PRODUCT_RELATED_PRODUCT_CATEGORY( 'detail', ' ', ( #74 ) );
#30 = PRODUCT_DEFINITION_SHAPE( 'NONE', 'NONE', #75 );
#31 = ADVANCED_BREP_SHAPE_REPRESENTATION( '_K0392.10', ( #76, #77 ), #6 );
#34 = UNCERTAINTY_MEASURE_WITH_UNIT( LENGTH_MEASURE( 0.00100000000000000 ), #36, '', '' );
#36 =  ( CONVERSION_BASED_UNIT( 'MILLIMETRE', #80 )LENGTH_UNIT(  )NAMED_UNIT( #83 ) );
#37 =  ( NAMED_UNIT( #85 )PLANE_ANGLE_UNIT(  )SI_UNIT( $, .RADIAN. ) );
#38 =  ( NAMED_UNIT( #85 )SI_UNIT( $, .STERADIAN. )SOLID_ANGLE_UNIT(  ) );
#40 = PRESENTATION_STYLE_ASSIGNMENT( ( #91 ) );
#41 = ADVANCED_FACE( '', ( #92, #93 ), #94, .T. );
#42 = PRESENTATION_STYLE_ASSIGNMENT( ( #95 ) );
#43 = ADVANCED_FACE( '', ( #96, #97 ), #98, .T. );
#44 = PRESENTATION_STYLE_ASSIGNMENT( ( #99 ) );
#45 = ADVANCED_FACE( '', ( #100, #101 ), #102, .F. );
#46 = PRESENTATION_STYLE_ASSIGNMENT( ( #103 ) );
#47 = ADVANCED_FACE( '', ( #104, #105 ), #106, .F. );
#48 = PRESENTATION_STYLE_ASSIGNMENT( ( #107 ) );
#49 = ADVANCED_FACE( '', ( #108, #109 ), #110, .T. );
#50 = PRESENTATION_STYLE_ASSIGNMENT( ( #111 ) );
#51 = ADVANCED_FACE( '', ( #112, #113 ), #114, .F. );
#52 = PRESENTATION_STYLE_ASSIGNMENT( ( #115 ) );
#53 = ADVANCED_FACE( '', ( #116, #117 ), #118, .F. );
#54 = PRESENTATION_STYLE_ASSIGNMENT( ( #119 ) );
#55 = ADVANCED_FACE( '', ( #120, #121, #122 ), #123, .F. );
#56 = PRESENTATION_STYLE_ASSIGNMENT( ( #124 ) );
#57 = ADVANCED_FACE( '', ( #125, #126 ), #127, .T. );
#58 = PRESENTATION_STYLE_ASSIGNMENT( ( #128 ) );
#59 = ADVANCED_FACE( '', ( #129, #130 ), #131, .F. );
#60 = PRESENTATION_STYLE_ASSIGNMENT( ( #132 ) );
#61 = ADVANCED_FACE( '', ( #133, #134 ), #135, .T. );
#62 = PRESENTATION_STYLE_ASSIGNMENT( ( #136 ) );
#63 = ADVANCED_FACE( '', ( #137, #138 ), #139, .F. );
#64 = PRESENTATION_STYLE_ASSIGNMENT( ( #140 ) );
#65 = ADVANCED_FACE( '', ( #141 ), #142, .T. );
#66 = PRESENTATION_STYLE_ASSIGNMENT( ( #143 ) );
#67 = ADVANCED_FACE( '', ( #144, #145 ), #146, .F. );
#68 = PRESENTATION_STYLE_ASSIGNMENT( ( #147 ) );
#69 = ADVANCED_FACE( '', ( #148, #149 ), #150, .F. );
#70 = PRESENTATION_STYLE_ASSIGNMENT( ( #151 ) );
#71 = ADVANCED_FACE( '', ( #152, #153 ), #154, .F. );
#72 = PRESENTATION_STYLE_ASSIGNMENT( ( #155 ) );
#73 = ADVANCED_FACE( '', ( #156, #157 ), #158, .F. );
#74 = PRODUCT( '_K0392.10', '_K0392.10', 'PART-_K0392.10-DESC', ( #159 ) );
#75 = PRODUCT_DEFINITION( 'NONE', 'NONE', #160, #2 );
#76 = MANIFOLD_SOLID_BREP( '_K0392.10', #161 );
#77 = AXIS2_PLACEMENT_3D( '', #162, #163, #164 );
#80 = LENGTH_MEASURE_WITH_UNIT( LENGTH_MEASURE( 1.00000000000000 ), #165 );
#83 = DIMENSIONAL_EXPONENTS( 1.00000000000000, 0.000000000000000, 0.000000000000000, 0.000000000000000, 0.000000000000000, 0.000000000000000, 0.000000000000000 );
#85 = DIMENSIONAL_EXPONENTS( 0.000000000000000, 0.000000000000000, 0.000000000000000, 0.000000000000000, 0.000000000000000, 0.000000000000000, 0.000000000000000 );
#91 = SURFACE_STYLE_USAGE( .BOTH., #166 );
#92 = FACE_OUTER_BOUND( '', #167, .T. );
#93 = FACE_BOUND( '', #168, .T. );
#94 = CONICAL_SURFACE( '', #169, 6.90000000000000, 0.785398163400000 );
#95 = SURFACE_STYLE_USAGE( .BOTH., #170 );
#96 = FACE_OUTER_BOUND( '', #171, .T. );
#97 = FACE_BOUND( '', #172, .T. );
#98 = CONICAL_SURFACE( '', #173, 9.40000000000000, 0.785398163400000 );
#99 = SURFACE_STYLE_USAGE( .BOTH., #174 );
#100 = FACE_OUTER_BOUND( '', #175, .T. );
#101 = FACE_BOUND( '', #176, .T. );
#102 = PLANE( '', #177 );
#103 = SURFACE_STYLE_USAGE( .BOTH., #178 );
#104 = FACE_OUTER_BOUND( '', #179, .T. );
#105 = FACE_OUTER_BOUND( '', #180, .T. );
#106 = TOROIDAL_SURFACE( '', #181, 9.50000000000000, 2.00000000000000 );
#107 = SURFACE_STYLE_USAGE( .BOTH., #182 );
#108 = FACE_OUTER_BOUND( '', #183, .T. );
#109 = FACE_OUTER_BOUND( '', #184, .T. );
#110 = CYLINDRICAL_SURFACE( '', #185, 7.50000000000000 );
#111 = SURFACE_STYLE_USAGE( .BOTH., #186 );
#112 = FACE_OUTER_BOUND( '', #187, .T. );
#113 = FACE_BOUND( '', #188, .T. );
#114 = CONICAL_SURFACE( '', #189, 4.05000000000000, 0.785398163400000 );
#115 = SURFACE_STYLE_USAGE( .BOTH., #190 );
#116 = FACE_OUTER_BOUND( '', #191, .T. );
#117 = FACE_BOUND( '', #192, .T. );
#118 = PLANE( '', #193 );
#119 = SURFACE_STYLE_USAGE( .BOTH., #194 );
#120 = FACE_BOUND( '', #195, .T. );
#121 = FACE_OUTER_BOUND( '', #196, .T. );
#122 = FACE_OUTER_BOUND( '', #197, .T. );
#123 = TOROIDAL_SURFACE( '', #198, 4.35000000000000, 0.500000000000000 );
#124 = SURFACE_STYLE_USAGE( .BOTH., #199 );
#125 = FACE_BOUND( '', #200, .T. );
#126 = FACE_OUTER_BOUND( '', #201, .T. );
#127 = CONICAL_SURFACE( '', #202, 10.0000000000000, 0.785398163400000 );
#128 = SURFACE_STYLE_USAGE( .BOTH., #203 );
#129 = FACE_OUTER_BOUND( '', #204, .T. );
#130 = FACE_OUTER_BOUND( '', #205, .T. );
#131 = CYLINDRICAL_SURFACE( '', #206, 4.00000000000000 );
#132 = SURFACE_STYLE_USAGE( .BOTH., #207 );
#133 = FACE_OUTER_BOUND( '', #208, .T. );
#134 = FACE_OUTER_BOUND( '', #209, .T. );
#135 = CYLINDRICAL_SURFACE( '', #210, 10.0000000000000 );
#136 = SURFACE_STYLE_USAGE( .BOTH., #211 );
#137 = FACE_BOUND( '', #212, .T. );
#138 = FACE_OUTER_BOUND( '', #213, .T. );
#139 = PLANE( '', #214 );
#140 = SURFACE_STYLE_USAGE( .BOTH., #215 );
#141 = FACE_OUTER_BOUND( '', #216, .T. );
#142 = PLANE( '', #217 );
#143 = SURFACE_STYLE_USAGE( .BOTH., #218 );
#144 = FACE_OUTER_BOUND( '', #219, .T. );
#145 = FACE_OUTER_BOUND( '', #220, .T. );
#146 = CYLINDRICAL_SURFACE( '', #221, 4.05000000000000 );
#147 = SURFACE_STYLE_USAGE( .BOTH., #222 );
#148 = FACE_BOUND( '', #223, .T. );
#149 = FACE_OUTER_BOUND( '', #224, .T. );
#150 = PLANE( '', #225 );
#151 = SURFACE_STYLE_USAGE( .BOTH., #226 );
#152 = FACE_OUTER_BOUND( '', #227, .T. );
#153 = FACE_OUTER_BOUND( '', #228, .T. );
#154 = CYLINDRICAL_SURFACE( '', #229, 4.05000000000000 );
#155 = SURFACE_STYLE_USAGE( .BOTH., #230 );
#156 = FACE_OUTER_BOUND( '', #231, .T. );
#157 = FACE_BOUND( '', #232, .T. );
#158 = CONICAL_SURFACE( '', #233, 857.167300702100, 1.02974425870000 );
#159 = PRODUCT_CONTEXT( '', #27, 'mechanical' );
#160 = PRODUCT_DEFINITION_FORMATION_WITH_SPECIFIED_SOURCE( ' ', 'NONE', #74, .NOT_KNOWN. );
#161 = CLOSED_SHELL( '', ( #73, #71, #45, #55, #63, #67, #51, #53, #41, #49, #47, #43, #61, #57, #69, #65, #59 ) );
#162 = CARTESIAN_POINT( '', ( 0.000000000000000, 0.000000000000000, 0.000000000000000 ) );
#163 = DIRECTION( '', ( 0.000000000000000, 0.000000000000000, 1.00000000000000 ) );
#164 = DIRECTION( '', ( 1.00000000000000, 0.000000000000000, 0.000000000000000 ) );
#165 =  ( LENGTH_UNIT(  )NAMED_UNIT( #83 )SI_UNIT( .MILLI., .METRE. ) );
#166 = SURFACE_SIDE_STYLE( '', ( #235 ) );
#167 = EDGE_LOOP( '', ( #236 ) );
#168 = EDGE_LOOP( '', ( #237 ) );
#169 = AXIS2_PLACEMENT_3D( '', #238, #239, #240 );
#170 = SURFACE_SIDE_STYLE( '', ( #241 ) );
#171 = EDGE_LOOP( '', ( #242 ) );
#172 = EDGE_LOOP( '', ( #243 ) );
#173 = AXIS2_PLACEMENT_3D( '', #244, #245, #246 );
#174 = SURFACE_SIDE_STYLE( '', ( #247 ) );
#175 = EDGE_LOOP( '', ( #248 ) );
#176 = EDGE_LOOP( '', ( #249 ) );
#177 = AXIS2_PLACEMENT_3D( '', #250, #251, #252 );
#178 = SURFACE_SIDE_STYLE( '', ( #253 ) );
#179 = EDGE_LOOP( '', ( #254 ) );
#180 = EDGE_LOOP( '', ( #255 ) );
#181 = AXIS2_PLACEMENT_3D( '', #256, #257, #258 );
#182 = SURFACE_SIDE_STYLE( '', ( #259 ) );
#183 = EDGE_LOOP( '', ( #260 ) );
#184 = EDGE_LOOP( '', ( #261 ) );
#185 = AXIS2_PLACEMENT_3D( '', #262, #263, #264 );
#186 = SURFACE_SIDE_STYLE( '', ( #265 ) );
#187 = EDGE_LOOP( '', ( #266 ) );
#188 = EDGE_LOOP( '', ( #267 ) );
#189 = AXIS2_PLACEMENT_3D( '', #268, #269, #270 );
#190 = SURFACE_SIDE_STYLE( '', ( #271 ) );
#191 = EDGE_LOOP( '', ( #272 ) );
#192 = EDGE_LOOP( '', ( #273 ) );
#193 = AXIS2_PLACEMENT_3D( '', #274, #275, #276 );
#194 = SURFACE_SIDE_STYLE( '', ( #277 ) );
#195 = VERTEX_LOOP( '', #278 );
#196 = EDGE_LOOP( '', ( #279 ) );
#197 = EDGE_LOOP( '', ( #280 ) );
#198 = AXIS2_PLACEMENT_3D( '', #281, #282, #283 );
#199 = SURFACE_SIDE_STYLE( '', ( #284 ) );
#200 = EDGE_LOOP( '', ( #285 ) );
#201 = EDGE_LOOP( '', ( #286 ) );
#202 = AXIS2_PLACEMENT_3D( '', #287, #288, #289 );
#203 = SURFACE_SIDE_STYLE( '', ( #290 ) );
#204 = EDGE_LOOP( '', ( #291 ) );
#205 = EDGE_LOOP( '', ( #292 ) );
#206 = AXIS2_PLACEMENT_3D( '', #293, #294, #295 );
#207 = SURFACE_SIDE_STYLE( '', ( #296 ) );
#208 = EDGE_LOOP( '', ( #297 ) );
#209 = EDGE_LOOP( '', ( #298 ) );
#210 = AXIS2_PLACEMENT_3D( '', #299, #300, #301 );
#211 = SURFACE_SIDE_STYLE( '', ( #302 ) );
#212 = EDGE_LOOP( '', ( #303 ) );
#213 = EDGE_LOOP( '', ( #304 ) );
#214 = AXIS2_PLACEMENT_3D( '', #305, #306, #307 );
#215 = SURFACE_SIDE_STYLE( '', ( #308 ) );
#216 = EDGE_LOOP( '', ( #309 ) );
#217 = AXIS2_PLACEMENT_3D( '', #310, #311, #312 );
#218 = SURFACE_SIDE_STYLE( '', ( #313 ) );
#219 = EDGE_LOOP( '', ( #314 ) );
#220 = EDGE_LOOP( '', ( #315 ) );
#221 = AXIS2_PLACEMENT_3D( '', #316, #317, #318 );
#222 = SURFACE_SIDE_STYLE( '', ( #319 ) );
#223 = EDGE_LOOP( '', ( #320 ) );
#224 = EDGE_LOOP( '', ( #321 ) );
#225 = AXIS2_PLACEMENT_3D( '', #322, #323, #324 );
#226 = SURFACE_SIDE_STYLE( '', ( #325 ) );
#227 = EDGE_LOOP( '', ( #326 ) );
#228 = EDGE_LOOP( '', ( #327 ) );
#229 = AXIS2_PLACEMENT_3D( '', #328, #329, #330 );
#230 = SURFACE_SIDE_STYLE( '', ( #331 ) );
#231 = EDGE_LOOP( '', ( #332 ) );
#232 = VERTEX_LOOP( '', #333 );
#233 = AXIS2_PLACEMENT_3D( '', #334, #335, #336 );
#235 = SURFACE_STYLE_FILL_AREA( #337 );
#236 = ORIENTED_EDGE( '', *, *, #338, .F. );
#237 = ORIENTED_EDGE( '', *, *, #339, .T. );
#238 = CARTESIAN_POINT( '', ( 0.000000000000000, 11.0000000000000, 0.000000000000000 ) );
#239 = DIRECTION( '', ( -0.000000000000000, -1.00000000000000, -0.000000000000000 ) );
#240 = DIRECTION( '', ( 0.000000000000000, 0.000000000000000, -1.00000000000000 ) );
#241 = SURFACE_STYLE_FILL_AREA( #340 );
#242 = ORIENTED_EDGE( '', *, *, #341, .F. );
#243 = ORIENTED_EDGE( '', *, *, #342, .T. );
#244 = CARTESIAN_POINT( '', ( 0.000000000000000, 5.00000000000000, 0.000000000000000 ) );
#245 = DIRECTION( '', ( -0.000000000000000, -1.00000000000000, -0.000000000000000 ) );
#246 = DIRECTION( '', ( 0.000000000000000, 0.000000000000000, -1.00000000000000 ) );
#247 = SURFACE_STYLE_FILL_AREA( #343 );
#248 = ORIENTED_EDGE( '', *, *, #344, .F. );
#249 = ORIENTED_EDGE( '', *, *, #345, .T. );
#250 = CARTESIAN_POINT( '', ( 4.05000000000000, 8.50000000000000, 0.000000000000000 ) );
#251 = DIRECTION( '', ( 0.000000000000000, -1.00000000000000, -0.000000000000000 ) );
#252 = DIRECTION( '', ( 0.000000000000000, 0.000000000000000, -1.00000000000000 ) );
#253 = SURFACE_STYLE_FILL_AREA( #346 );
#254 = ORIENTED_EDGE( '', *, *, #342, .F. );
#255 = ORIENTED_EDGE( '', *, *, #347, .T. );
#256 = CARTESIAN_POINT( '', ( 0.000000000000000, 6.99749843554382, 0.000000000000000 ) );
#257 = DIRECTION( '', ( 0.000000000000000, -1.00000000000000, -0.000000000000000 ) );
#258 = DIRECTION( '', ( 0.000000000000000, 0.000000000000000, -1.00000000000000 ) );
#259 = SURFACE_STYLE_FILL_AREA( #348 );
#260 = ORIENTED_EDGE( '', *, *, #347, .F. );
#261 = ORIENTED_EDGE( '', *, *, #338, .T. );
#262 = CARTESIAN_POINT( '', ( 0.000000000000000, 0.000000000000000, 0.000000000000000 ) );
#263 = DIRECTION( '', ( -0.000000000000000, 1.00000000000000, 0.000000000000000 ) );
#264 = DIRECTION( '', ( 0.000000000000000, 0.000000000000000, -1.00000000000000 ) );
#265 = SURFACE_STYLE_FILL_AREA( #349 );
#266 = ORIENTED_EDGE( '', *, *, #350, .F. );
#267 = ORIENTED_EDGE( '', *, *, #351, .T. );
#268 = CARTESIAN_POINT( '', ( 0.000000000000000, 10.0000000000000, 0.000000000000000 ) );
#269 = DIRECTION( '', ( -0.000000000000000, 1.00000000000000, 0.000000000000000 ) );
#270 = DIRECTION( '', ( 0.000000000000000, -0.000000000000000, 1.00000000000000 ) );
#271 = SURFACE_STYLE_FILL_AREA( #352 );
#272 = ORIENTED_EDGE( '', *, *, #339, .F. );
#273 = ORIENTED_EDGE( '', *, *, #350, .T. );
#274 = CARTESIAN_POINT( '', ( 5.05000000000000, 11.0000000000000, 0.000000000000000 ) );
#275 = DIRECTION( '', ( 0.000000000000000, -1.00000000000000, -0.000000000000000 ) );
#276 = DIRECTION( '', ( 0.000000000000000, 0.000000000000000, -1.00000000000000 ) );
#277 = SURFACE_STYLE_FILL_AREA( #353 );
#278 = VERTEX_POINT( '', #354 );
#279 = ORIENTED_EDGE( '', *, *, #355, .F. );
#280 = ORIENTED_EDGE( '', *, *, #344, .T. );
#281 = CARTESIAN_POINT( '', ( 0.000000000000000, 9.00000000000000, 0.000000000000000 ) );
#282 = DIRECTION( '', ( 0.000000000000000, -1.00000000000000, -0.000000000000000 ) );
#283 = DIRECTION( '', ( 0.000000000000000, 0.000000000000000, -1.00000000000000 ) );
#284 = SURFACE_STYLE_FILL_AREA( #356 );
#285 = ORIENTED_EDGE( '', *, *, #357, .F. );
#286 = ORIENTED_EDGE( '', *, *, #358, .T. );
#287 = CARTESIAN_POINT( '', ( 0.000000000000000, 0.599999999999999, 0.000000000000000 ) );
#288 = DIRECTION( '', ( -0.000000000000000, 1.00000000000000, 0.000000000000000 ) );
#289 = DIRECTION( '', ( 0.000000000000000, -0.000000000000000, 1.00000000000000 ) );
#290 = SURFACE_STYLE_FILL_AREA( #359 );
#291 = ORIENTED_EDGE( '', *, *, #360, .T. );
#292 = ORIENTED_EDGE( '', *, *, #361, .F. );
#293 = CARTESIAN_POINT( '', ( 0.000000000000000, 0.000000000000000, 0.000000000000000 ) );
#294 = DIRECTION( '', ( -0.000000000000000, 1.00000000000000, 0.000000000000000 ) );
#295 = DIRECTION( '', ( 0.000000000000000, 0.000000000000000, -1.00000000000000 ) );
#296 = SURFACE_STYLE_FILL_AREA( #362 );
#297 = ORIENTED_EDGE( '', *, *, #358, .F. );
#298 = ORIENTED_EDGE( '', *, *, #341, .T. );
#299 = CARTESIAN_POINT( '', ( 0.000000000000000, 0.000000000000000, 0.000000000000000 ) );
#300 = DIRECTION( '', ( -0.000000000000000, 1.00000000000000, 0.000000000000000 ) );
#301 = DIRECTION( '', ( 0.000000000000000, 0.000000000000000, -1.00000000000000 ) );
#302 = SURFACE_STYLE_FILL_AREA( #363 );
#303 = ORIENTED_EDGE( '', *, *, #364, .F. );
#304 = ORIENTED_EDGE( '', *, *, #355, .T. );
#305 = CARTESIAN_POINT( '', ( 4.35000000000000, 9.50000000000000, 0.000000000000000 ) );
#306 = DIRECTION( '', ( 0.000000000000000, 1.00000000000000, 0.000000000000000 ) );
#307 = DIRECTION( '', ( 0.000000000000000, -0.000000000000000, 1.00000000000000 ) );
#308 = SURFACE_STYLE_FILL_AREA( #365 );
#309 = ORIENTED_EDGE( '', *, *, #361, .T. );
#310 = CARTESIAN_POINT( '', ( 0.000000000000000, 0.500000000000000, 0.000000000000000 ) );
#311 = DIRECTION( '', ( 0.000000000000000, -1.00000000000000, -0.000000000000000 ) );
#312 = DIRECTION( '', ( 0.000000000000000, 0.000000000000000, -1.00000000000000 ) );
#313 = SURFACE_STYLE_FILL_AREA( #366 );
#314 = ORIENTED_EDGE( '', *, *, #351, .F. );
#315 = ORIENTED_EDGE( '', *, *, #364, .T. );
#316 = CARTESIAN_POINT( '', ( 0.000000000000000, 0.000000000000000, 0.000000000000000 ) );
#317 = DIRECTION( '', ( -0.000000000000000, 1.00000000000000, 0.000000000000000 ) );
#318 = DIRECTION( '', ( 0.000000000000000, 0.000000000000000, -1.00000000000000 ) );
#319 = SURFACE_STYLE_FILL_AREA( #367 );
#320 = ORIENTED_EDGE( '', *, *, #360, .F. );
#321 = ORIENTED_EDGE( '', *, *, #357, .T. );
#322 = CARTESIAN_POINT( '', ( 9.40000000000000, 0.000000000000000, 0.000000000000000 ) );
#323 = DIRECTION( '', ( 0.000000000000000, 1.00000000000000, 0.000000000000000 ) );
#324 = DIRECTION( '', ( 0.000000000000000, -0.000000000000000, 1.00000000000000 ) );
#325 = SURFACE_STYLE_FILL_AREA( #368 );
#326 = ORIENTED_EDGE( '', *, *, #345, .F. );
#327 = ORIENTED_EDGE( '', *, *, #369, .T. );
#328 = CARTESIAN_POINT( '', ( 0.000000000000000, 0.000000000000000, 0.000000000000000 ) );
#329 = DIRECTION( '', ( -0.000000000000000, 1.00000000000000, 0.000000000000000 ) );
#330 = DIRECTION( '', ( 0.000000000000000, 0.000000000000000, -1.00000000000000 ) );
#331 = SURFACE_STYLE_FILL_AREA( #370 );
#332 = ORIENTED_EDGE( '', *, *, #369, .F. );
#333 = VERTEX_POINT( '', #371 );
#334 = CARTESIAN_POINT( '', ( 0.000000000000000, 517.604589402993, 0.000000000000000 ) );
#335 = DIRECTION( '', ( -0.000000000000000, 1.00000000000000, 0.000000000000000 ) );
#336 = DIRECTION( '', ( 0.000000000000000, -0.000000000000000, 1.00000000000000 ) );
#337 = FILL_AREA_STYLE( '', ( #372 ) );
#338 = EDGE_CURVE( '', #373, #373, #374, .T. );
#339 = EDGE_CURVE( '', #375, #375, #376, .T. );
#340 = FILL_AREA_STYLE( '', ( #377 ) );
#341 = EDGE_CURVE( '', #378, #378, #379, .T. );
#342 = EDGE_CURVE( '', #380, #380, #381, .T. );
#343 = FILL_AREA_STYLE( '', ( #382 ) );
#344 = EDGE_CURVE( '', #383, #383, #384, .T. );
#345 = EDGE_CURVE( '', #385, #385, #386, .T. );
#346 = FILL_AREA_STYLE( '', ( #387 ) );
#347 = EDGE_CURVE( '', #388, #388, #389, .T. );
#348 = FILL_AREA_STYLE( '', ( #390 ) );
#349 = FILL_AREA_STYLE( '', ( #391 ) );
#350 = EDGE_CURVE( '', #392, #392, #393, .T. );
#351 = EDGE_CURVE( '', #394, #394, #395, .T. );
#352 = FILL_AREA_STYLE( '', ( #396 ) );
#353 = FILL_AREA_STYLE( '', ( #397 ) );
#354 = CARTESIAN_POINT( '', ( 0.000000000000000, 9.00000000000000, -4.85000000000000 ) );
#355 = EDGE_CURVE( '', #398, #398, #399, .T. );
#356 = FILL_AREA_STYLE( '', ( #400 ) );
#357 = EDGE_CURVE( '', #401, #401, #402, .T. );
#358 = EDGE_CURVE( '', #403, #403, #404, .T. );
#359 = FILL_AREA_STYLE( '', ( #405 ) );
#360 = EDGE_CURVE( '', #406, #406, #407, .T. );
#361 = EDGE_CURVE( '', #408, #408, #409, .T. );
#362 = FILL_AREA_STYLE( '', ( #410 ) );
#363 = FILL_AREA_STYLE( '', ( #411 ) );
#364 = EDGE_CURVE( '', #412, #412, #413, .T. );
#365 = FILL_AREA_STYLE( '', ( #414 ) );
#366 = FILL_AREA_STYLE( '', ( #415 ) );
#367 = FILL_AREA_STYLE( '', ( #416 ) );
#368 = FILL_AREA_STYLE( '', ( #417 ) );
#369 = EDGE_CURVE( '', #418, #418, #419, .T. );
#370 = FILL_AREA_STYLE( '', ( #420 ) );
#371 = CARTESIAN_POINT( '', ( 0.000000000000000, 2.56651449293838, 0.000000000000000 ) );
#372 = FILL_AREA_STYLE_COLOUR( '', #421 );
#373 = VERTEX_POINT( '', #422 );
#374 = CIRCLE( '', #423, 7.50000000000000 );
#375 = VERTEX_POINT( '', #424 );
#376 = CIRCLE( '', #425, 6.90000000000000 );
#377 = FILL_AREA_STYLE_COLOUR( '', #426 );
#378 = VERTEX_POINT( '', #427 );
#379 = CIRCLE( '', #428, 10.0000000000000 );
#380 = VERTEX_POINT( '', #429 );
#381 = CIRCLE( '', #430, 9.40000000000000 );
#382 = FILL_AREA_STYLE_COLOUR( '', #431 );
#383 = VERTEX_POINT( '', #432 );
#384 = CIRCLE( '', #433, 4.35000000000000 );
#385 = VERTEX_POINT( '', #434 );
#386 = CIRCLE( '', #435, 4.05000000000000 );
#387 = FILL_AREA_STYLE_COLOUR( '', #436 );
#388 = VERTEX_POINT( '', #437 );
#389 = CIRCLE( '', #438, 7.50000000000000 );
#390 = FILL_AREA_STYLE_COLOUR( '', #439 );
#391 = FILL_AREA_STYLE_COLOUR( '', #440 );
#392 = VERTEX_POINT( '', #441 );
#393 = CIRCLE( '', #442, 5.05000000000000 );
#394 = VERTEX_POINT( '', #443 );
#395 = CIRCLE( '', #444, 4.05000000000000 );
#396 = FILL_AREA_STYLE_COLOUR( '', #445 );
#397 = FILL_AREA_STYLE_COLOUR( '', #446 );
#398 = VERTEX_POINT( '', #447 );
#399 = CIRCLE( '', #448, 4.35000000000000 );
#400 = FILL_AREA_STYLE_COLOUR( '', #449 );
#401 = VERTEX_POINT( '', #450 );
#402 = CIRCLE( '', #451, 9.40000000000000 );
#403 = VERTEX_POINT( '', #452 );
#404 = CIRCLE( '', #453, 10.0000000000000 );
#405 = FILL_AREA_STYLE_COLOUR( '', #454 );
#406 = VERTEX_POINT( '', #455 );
#407 = CIRCLE( '', #456, 4.00000000000000 );
#408 = VERTEX_POINT( '', #457 );
#409 = CIRCLE( '', #458, 4.00000000000000 );
#410 = FILL_AREA_STYLE_COLOUR( '', #459 );
#411 = FILL_AREA_STYLE_COLOUR( '', #460 );
#412 = VERTEX_POINT( '', #461 );
#413 = CIRCLE( '', #462, 4.05000000000000 );
#414 = FILL_AREA_STYLE_COLOUR( '', #463 );
#415 = FILL_AREA_STYLE_COLOUR( '', #464 );
#416 = FILL_AREA_STYLE_COLOUR( '', #465 );
#417 = FILL_AREA_STYLE_COLOUR( '', #466 );
#418 = VERTEX_POINT( '', #467 );
#419 = CIRCLE( '', #468, 4.05000000000000 );
#420 = FILL_AREA_STYLE_COLOUR( '', #469 );
#421 = COLOUR_RGB( '', 0.689999997600000, 0.689999997600000, 0.689999997600000 );
#422 = CARTESIAN_POINT( '', ( 0.000000000000000, 10.4000000000000, -7.50000000000000 ) );
#423 = AXIS2_PLACEMENT_3D( '', #470, #471, #472 );
#424 = CARTESIAN_POINT( '', ( 0.000000000000000, 11.0000000000000, -6.90000000000000 ) );
#425 = AXIS2_PLACEMENT_3D( '', #473, #474, #475 );
#426 = COLOUR_RGB( '', 0.689999997600000, 0.689999997600000, 0.689999997600000 );
#427 = CARTESIAN_POINT( '', ( 0.000000000000000, 4.40000000000000, -10.0000000000000 ) );
#428 = AXIS2_PLACEMENT_3D( '', #476, #477, #478 );
#429 = CARTESIAN_POINT( '', ( 0.000000000000000, 5.00000000000000, -9.40000000000000 ) );
#430 = AXIS2_PLACEMENT_3D( '', #479, #480, #481 );
#431 = COLOUR_RGB( '', 0.689999997600000, 0.689999997600000, 0.689999997600000 );
#432 = CARTESIAN_POINT( '', ( 0.000000000000000, 8.50000000000000, -4.35000000000000 ) );
#433 = AXIS2_PLACEMENT_3D( '', #482, #483, #484 );
#434 = CARTESIAN_POINT( '', ( 0.000000000000000, 8.50000000000000, -4.05000000000000 ) );
#435 = AXIS2_PLACEMENT_3D( '', #485, #486, #487 );
#436 = COLOUR_RGB( '', 0.689999997600000, 0.689999997600000, 0.689999997600000 );
#437 = CARTESIAN_POINT( '', ( 0.000000000000000, 6.99749843554382, -7.50000000000000 ) );
#438 = AXIS2_PLACEMENT_3D( '', #488, #489, #490 );
#439 = COLOUR_RGB( '', 0.689999997600000, 0.689999997600000, 0.689999997600000 );
#440 = COLOUR_RGB( '', 0.689999997600000, 0.689999997600000, 0.689999997600000 );
#441 = CARTESIAN_POINT( '', ( 0.000000000000000, 11.0000000000000, -5.05000000000000 ) );
#442 = AXIS2_PLACEMENT_3D( '', #491, #492, #493 );
#443 = CARTESIAN_POINT( '', ( 0.000000000000000, 10.0000000000000, -4.05000000000000 ) );
#444 = AXIS2_PLACEMENT_3D( '', #494, #495, #496 );
#445 = COLOUR_RGB( '', 0.689999997600000, 0.689999997600000, 0.689999997600000 );
#446 = COLOUR_RGB( '', 0.689999997600000, 0.689999997600000, 0.689999997600000 );
#447 = CARTESIAN_POINT( '', ( 0.000000000000000, 9.50000000000000, -4.35000000000000 ) );
#448 = AXIS2_PLACEMENT_3D( '', #497, #498, #499 );
#449 = COLOUR_RGB( '', 0.689999997600000, 0.689999997600000, 0.689999997600000 );
#450 = CARTESIAN_POINT( '', ( 0.000000000000000, 0.000000000000000, -9.40000000000000 ) );
#451 = AXIS2_PLACEMENT_3D( '', #500, #501, #502 );
#452 = CARTESIAN_POINT( '', ( 0.000000000000000, 0.599999999999999, -10.0000000000000 ) );
#453 = AXIS2_PLACEMENT_3D( '', #503, #504, #505 );
#454 = COLOUR_RGB( '', 0.689999997600000, 0.689999997600000, 0.689999997600000 );
#455 = CARTESIAN_POINT( '', ( 0.000000000000000, 0.000000000000000, -4.00000000000000 ) );
#456 = AXIS2_PLACEMENT_3D( '', #506, #507, #508 );
#457 = CARTESIAN_POINT( '', ( 0.000000000000000, 0.500000000000000, -4.00000000000000 ) );
#458 = AXIS2_PLACEMENT_3D( '', #509, #510, #511 );
#459 = COLOUR_RGB( '', 0.689999997600000, 0.689999997600000, 0.689999997600000 );
#460 = COLOUR_RGB( '', 0.689999997600000, 0.689999997600000, 0.689999997600000 );
#461 = CARTESIAN_POINT( '', ( 0.000000000000000, 9.50000000000000, -4.05000000000000 ) );
#462 = AXIS2_PLACEMENT_3D( '', #512, #513, #514 );
#463 = COLOUR_RGB( '', 0.689999997600000, 0.689999997600000, 0.689999997600000 );
#464 = COLOUR_RGB( '', 0.689999997600000, 0.689999997600000, 0.689999997600000 );
#465 = COLOUR_RGB( '', 0.689999997600000, 0.689999997600000, 0.689999997600000 );
#466 = COLOUR_RGB( '', 0.689999997600000, 0.689999997600000, 0.689999997600000 );
#467 = CARTESIAN_POINT( '', ( 0.000000000000000, 5.00000000000000, -4.05000000000000 ) );
#468 = AXIS2_PLACEMENT_3D( '', #515, #516, #517 );
#469 = COLOUR_RGB( '', 0.689999997600000, 0.689999997600000, 0.689999997600000 );
#470 = CARTESIAN_POINT( '', ( 0.000000000000000, 10.4000000000000, 0.000000000000000 ) );
#471 = DIRECTION( '', ( 0.000000000000000, -1.00000000000000, -0.000000000000000 ) );
#472 = DIRECTION( '', ( 0.000000000000000, 0.000000000000000, -1.00000000000000 ) );
#473 = CARTESIAN_POINT( '', ( 0.000000000000000, 11.0000000000000, 0.000000000000000 ) );
#474 = DIRECTION( '', ( 0.000000000000000, -1.00000000000000, -0.000000000000000 ) );
#475 = DIRECTION( '', ( 0.000000000000000, 0.000000000000000, -1.00000000000000 ) );
#476 = CARTESIAN_POINT( '', ( 0.000000000000000, 4.40000000000000, 0.000000000000000 ) );
#477 = DIRECTION( '', ( 0.000000000000000, -1.00000000000000, -0.000000000000000 ) );
#478 = DIRECTION( '', ( 0.000000000000000, 0.000000000000000, -1.00000000000000 ) );
#479 = CARTESIAN_POINT( '', ( 0.000000000000000, 5.00000000000000, 0.000000000000000 ) );
#480 = DIRECTION( '', ( 0.000000000000000, -1.00000000000000, -0.000000000000000 ) );
#481 = DIRECTION( '', ( 0.000000000000000, 0.000000000000000, -1.00000000000000 ) );
#482 = CARTESIAN_POINT( '', ( 0.000000000000000, 8.50000000000000, 0.000000000000000 ) );
#483 = DIRECTION( '', ( 0.000000000000000, -1.00000000000000, -0.000000000000000 ) );
#484 = DIRECTION( '', ( 0.000000000000000, 0.000000000000000, -1.00000000000000 ) );
#485 = CARTESIAN_POINT( '', ( 0.000000000000000, 8.50000000000000, 0.000000000000000 ) );
#486 = DIRECTION( '', ( 0.000000000000000, -1.00000000000000, -0.000000000000000 ) );
#487 = DIRECTION( '', ( 0.000000000000000, 0.000000000000000, -1.00000000000000 ) );
#488 = CARTESIAN_POINT( '', ( 0.000000000000000, 6.99749843554382, 0.000000000000000 ) );
#489 = DIRECTION( '', ( 0.000000000000000, -1.00000000000000, -0.000000000000000 ) );
#490 = DIRECTION( '', ( 0.000000000000000, 0.000000000000000, -1.00000000000000 ) );
#491 = CARTESIAN_POINT( '', ( 0.000000000000000, 11.0000000000000, 0.000000000000000 ) );
#492 = DIRECTION( '', ( 0.000000000000000, -1.00000000000000, -0.000000000000000 ) );
#493 = DIRECTION( '', ( 0.000000000000000, 0.000000000000000, -1.00000000000000 ) );
#494 = CARTESIAN_POINT( '', ( 0.000000000000000, 10.0000000000000, 0.000000000000000 ) );
#495 = DIRECTION( '', ( 0.000000000000000, -1.00000000000000, -0.000000000000000 ) );
#496 = DIRECTION( '', ( 0.000000000000000, 0.000000000000000, -1.00000000000000 ) );
#497 = CARTESIAN_POINT( '', ( 0.000000000000000, 9.50000000000000, 0.000000000000000 ) );
#498 = DIRECTION( '', ( 0.000000000000000, -1.00000000000000, -0.000000000000000 ) );
#499 = DIRECTION( '', ( 0.000000000000000, 0.000000000000000, -1.00000000000000 ) );
#500 = CARTESIAN_POINT( '', ( 0.000000000000000, 0.000000000000000, 0.000000000000000 ) );
#501 = DIRECTION( '', ( 0.000000000000000, -1.00000000000000, -0.000000000000000 ) );
#502 = DIRECTION( '', ( 0.000000000000000, 0.000000000000000, -1.00000000000000 ) );
#503 = CARTESIAN_POINT( '', ( 0.000000000000000, 0.599999999999999, 0.000000000000000 ) );
#504 = DIRECTION( '', ( 0.000000000000000, -1.00000000000000, -0.000000000000000 ) );
#505 = DIRECTION( '', ( 0.000000000000000, 0.000000000000000, -1.00000000000000 ) );
#506 = CARTESIAN_POINT( '', ( 0.000000000000000, 0.000000000000000, 0.000000000000000 ) );
#507 = DIRECTION( '', ( 0.000000000000000, -1.00000000000000, -0.000000000000000 ) );
#508 = DIRECTION( '', ( 0.000000000000000, 0.000000000000000, -1.00000000000000 ) );
#509 = CARTESIAN_POINT( '', ( 0.000000000000000, 0.500000000000000, 0.000000000000000 ) );
#510 = DIRECTION( '', ( 0.000000000000000, -1.00000000000000, -0.000000000000000 ) );
#511 = DIRECTION( '', ( 0.000000000000000, 0.000000000000000, -1.00000000000000 ) );
#512 = CARTESIAN_POINT( '', ( 0.000000000000000, 9.50000000000000, 0.000000000000000 ) );
#513 = DIRECTION( '', ( 0.000000000000000, -1.00000000000000, -0.000000000000000 ) );
#514 = DIRECTION( '', ( 0.000000000000000, 0.000000000000000, -1.00000000000000 ) );
#515 = CARTESIAN_POINT( '', ( 0.000000000000000, 5.00000000000000, 0.000000000000000 ) );
#516 = DIRECTION( '', ( 0.000000000000000, -1.00000000000000, -0.000000000000000 ) );
#517 = DIRECTION( '', ( 0.000000000000000, 0.000000000000000, -1.00000000000000 ) );
ENDSEC;
END-ISO-10303-21;
