ISO-10303-21;
HEADER;
FILE_DESCRIPTION( ( 'STEP AP214' ), '1' );
FILE_NAME( '//goodhand-server/Shared Folders/GoodHand Data/Kipp CAD/K0676/K0676.3010X020.stp', '2020-12-09T11:10:10', ( '' ), ( '' ), ' ', 'PARTsolutions', ' ' );
FILE_SCHEMA( ( 'AUTOMOTIVE_DESIGN { 1 0 10303 214 1 1 1 1 }' ) );
ENDSEC;
DATA;
#1 = MECHANICAL_DESIGN_GEOMETRIC_PRESENTATION_REPRESENTATION( ' ', ( #10, #11, #12, #13, #14, #15, #16, #17, #18, #19, #20 ), #6 );
#2 = PRODUCT_DEFINITION_CONTEXT( '', #21, 'design' );
#3 = APPLICATION_PROTOCOL_DEFINITION( 'international standard', 'automotive_design', 2001, #21 );
#4 = PRODUCT_CATEGORY_RELATIONSHIP( 'NONE', 'NONE', #22, #23 );
#5 = SHAPE_DEFINITION_REPRESENTATION( #24, #25 );
#6 =  ( GEOMETRIC_REPRESENTATION_CONTEXT( 3 )GLOBAL_UNCERTAINTY_ASSIGNED_CONTEXT( ( #28 ) )GLOBAL_UNIT_ASSIGNED_CONTEXT( ( #30, #31, #32 ) )REPRESENTATION_CONTEXT( 'NONE', 'WORKSPACE' ) );
#10 = STYLED_ITEM( '', ( #34 ), #35 );
#11 = STYLED_ITEM( '', ( #36 ), #37 );
#12 = STYLED_ITEM( '', ( #38 ), #39 );
#13 = STYLED_ITEM( '', ( #40 ), #41 );
#14 = STYLED_ITEM( '', ( #42 ), #43 );
#15 = STYLED_ITEM( '', ( #44 ), #45 );
#16 = STYLED_ITEM( '', ( #46 ), #47 );
#17 = STYLED_ITEM( '', ( #48 ), #49 );
#18 = STYLED_ITEM( '', ( #50 ), #51 );
#19 = STYLED_ITEM( '', ( #52 ), #53 );
#20 = STYLED_ITEM( '', ( #54 ), #55 );
#21 = APPLICATION_CONTEXT( 'core data for automotive mechanical design processes' );
#22 = PRODUCT_CATEGORY( 'part', 'NONE' );
#23 = PRODUCT_RELATED_PRODUCT_CATEGORY( 'detail', ' ', ( #56 ) );
#24 = PRODUCT_DEFINITION_SHAPE( 'NONE', 'NONE', #57 );
#25 = ADVANCED_BREP_SHAPE_REPRESENTATION( '_K0676.3010X020', ( #58, #59 ), #6 );
#28 = UNCERTAINTY_MEASURE_WITH_UNIT( LENGTH_MEASURE( 0.00100000000000000 ), #30, '', '' );
#30 =  ( CONVERSION_BASED_UNIT( 'MILLIMETRE', #62 )LENGTH_UNIT(  )NAMED_UNIT( #65 ) );
#31 =  ( NAMED_UNIT( #67 )PLANE_ANGLE_UNIT(  )SI_UNIT( $, .RADIAN. ) );
#32 =  ( NAMED_UNIT( #67 )SI_UNIT( $, .STERADIAN. )SOLID_ANGLE_UNIT(  ) );
#34 = PRESENTATION_STYLE_ASSIGNMENT( ( #73 ) );
#35 = ADVANCED_FACE( '', ( #74 ), #75, .T. );
#36 = PRESENTATION_STYLE_ASSIGNMENT( ( #76 ) );
#37 = ADVANCED_FACE( '', ( #77 ), #78, .T. );
#38 = PRESENTATION_STYLE_ASSIGNMENT( ( #79 ) );
#39 = ADVANCED_FACE( '', ( #80, #81 ), #82, .T. );
#40 = PRESENTATION_STYLE_ASSIGNMENT( ( #83 ) );
#41 = ADVANCED_FACE( '', ( #84, #85 ), #86, .T. );
#42 = PRESENTATION_STYLE_ASSIGNMENT( ( #87 ) );
#43 = ADVANCED_FACE( '', ( #88 ), #89, .F. );
#44 = PRESENTATION_STYLE_ASSIGNMENT( ( #90 ) );
#45 = ADVANCED_FACE( '', ( #91 ), #92, .T. );
#46 = PRESENTATION_STYLE_ASSIGNMENT( ( #93 ) );
#47 = ADVANCED_FACE( '', ( #94, #95 ), #96, .T. );
#48 = PRESENTATION_STYLE_ASSIGNMENT( ( #97 ) );
#49 = ADVANCED_FACE( '', ( #98 ), #99, .T. );
#50 = PRESENTATION_STYLE_ASSIGNMENT( ( #100 ) );
#51 = ADVANCED_FACE( '', ( #101 ), #102, .T. );
#52 = PRESENTATION_STYLE_ASSIGNMENT( ( #103 ) );
#53 = ADVANCED_FACE( '', ( #104 ), #105, .T. );
#54 = PRESENTATION_STYLE_ASSIGNMENT( ( #106 ) );
#55 = ADVANCED_FACE( '', ( #107 ), #108, .F. );
#56 = PRODUCT( '_K0676.3010X020', '_K0676.3010X020', 'PART-_K0676.3010X020-DESC', ( #109 ) );
#57 = PRODUCT_DEFINITION( 'NONE', 'NONE', #110, #2 );
#58 = MANIFOLD_SOLID_BREP( '_K0676.3010X020', #111 );
#59 = AXIS2_PLACEMENT_3D( '', #112, #113, #114 );
#62 = LENGTH_MEASURE_WITH_UNIT( LENGTH_MEASURE( 1.00000000000000 ), #115 );
#65 = DIMENSIONAL_EXPONENTS( 1.00000000000000, 0.000000000000000, 0.000000000000000, 0.000000000000000, 0.000000000000000, 0.000000000000000, 0.000000000000000 );
#67 = DIMENSIONAL_EXPONENTS( 0.000000000000000, 0.000000000000000, 0.000000000000000, 0.000000000000000, 0.000000000000000, 0.000000000000000, 0.000000000000000 );
#73 = SURFACE_STYLE_USAGE( .BOTH., #116 );
#74 = FACE_OUTER_BOUND( '', #117, .T. );
#75 = PLANE( '', #118 );
#76 = SURFACE_STYLE_USAGE( .BOTH., #119 );
#77 = FACE_OUTER_BOUND( '', #120, .T. );
#78 = PLANE( '', #121 );
#79 = SURFACE_STYLE_USAGE( .BOTH., #122 );
#80 = FACE_OUTER_BOUND( '', #123, .T. );
#81 = FACE_OUTER_BOUND( '', #124, .T. );
#82 = CYLINDRICAL_SURFACE( '', #125, 5.00000000000000 );
#83 = SURFACE_STYLE_USAGE( .BOTH., #126 );
#84 = FACE_OUTER_BOUND( '', #127, .T. );
#85 = FACE_BOUND( '', #128, .T. );
#86 = CONICAL_SURFACE( '', #129, 4.08000000000000, 0.785398163400000 );
#87 = SURFACE_STYLE_USAGE( .BOTH., #130 );
#88 = FACE_OUTER_BOUND( '', #131, .T. );
#89 = PLANE( '', #132 );
#90 = SURFACE_STYLE_USAGE( .BOTH., #133 );
#91 = FACE_OUTER_BOUND( '', #134, .T. );
#92 = PLANE( '', #135 );
#93 = SURFACE_STYLE_USAGE( .BOTH., #136 );
#94 = FACE_BOUND( '', #137, .T. );
#95 = FACE_OUTER_BOUND( '', #138, .T. );
#96 = PLANE( '', #139 );
#97 = SURFACE_STYLE_USAGE( .BOTH., #140 );
#98 = FACE_OUTER_BOUND( '', #141, .T. );
#99 = PLANE( '', #142 );
#100 = SURFACE_STYLE_USAGE( .BOTH., #143 );
#101 = FACE_OUTER_BOUND( '', #144, .T. );
#102 = PLANE( '', #145 );
#103 = SURFACE_STYLE_USAGE( .BOTH., #146 );
#104 = FACE_OUTER_BOUND( '', #147, .T. );
#105 = PLANE( '', #148 );
#106 = SURFACE_STYLE_USAGE( .BOTH., #149 );
#107 = FACE_OUTER_BOUND( '', #150, .T. );
#108 = PLANE( '', #151 );
#109 = PRODUCT_CONTEXT( '', #21, 'mechanical' );
#110 = PRODUCT_DEFINITION_FORMATION_WITH_SPECIFIED_SOURCE( ' ', 'NONE', #56, .NOT_KNOWN. );
#111 = CLOSED_SHELL( '', ( #53, #55, #37, #45, #51, #35, #49, #47, #43, #41, #39 ) );
#112 = CARTESIAN_POINT( '', ( 0.000000000000000, 0.000000000000000, 0.000000000000000 ) );
#113 = DIRECTION( '', ( 0.000000000000000, 0.000000000000000, 1.00000000000000 ) );
#114 = DIRECTION( '', ( 1.00000000000000, 0.000000000000000, 0.000000000000000 ) );
#115 =  ( LENGTH_UNIT(  )NAMED_UNIT( #65 )SI_UNIT( .MILLI., .METRE. ) );
#116 = SURFACE_SIDE_STYLE( '', ( #153 ) );
#117 = EDGE_LOOP( '', ( #154, #155, #156, #157 ) );
#118 = AXIS2_PLACEMENT_3D( '', #158, #159, #160 );
#119 = SURFACE_SIDE_STYLE( '', ( #161 ) );
#120 = EDGE_LOOP( '', ( #162, #163, #164, #165 ) );
#121 = AXIS2_PLACEMENT_3D( '', #166, #167, #168 );
#122 = SURFACE_SIDE_STYLE( '', ( #169 ) );
#123 = EDGE_LOOP( '', ( #170 ) );
#124 = EDGE_LOOP( '', ( #171 ) );
#125 = AXIS2_PLACEMENT_3D( '', #172, #173, #174 );
#126 = SURFACE_SIDE_STYLE( '', ( #175 ) );
#127 = EDGE_LOOP( '', ( #176 ) );
#128 = EDGE_LOOP( '', ( #177 ) );
#129 = AXIS2_PLACEMENT_3D( '', #178, #179, #180 );
#130 = SURFACE_SIDE_STYLE( '', ( #181 ) );
#131 = EDGE_LOOP( '', ( #182 ) );
#132 = AXIS2_PLACEMENT_3D( '', #183, #184, #185 );
#133 = SURFACE_SIDE_STYLE( '', ( #186 ) );
#134 = EDGE_LOOP( '', ( #187, #188, #189, #190 ) );
#135 = AXIS2_PLACEMENT_3D( '', #191, #192, #193 );
#136 = SURFACE_SIDE_STYLE( '', ( #194 ) );
#137 = EDGE_LOOP( '', ( #195 ) );
#138 = EDGE_LOOP( '', ( #196, #197, #198, #199, #200, #201 ) );
#139 = AXIS2_PLACEMENT_3D( '', #202, #203, #204 );
#140 = SURFACE_SIDE_STYLE( '', ( #205 ) );
#141 = EDGE_LOOP( '', ( #206, #207, #208, #209 ) );
#142 = AXIS2_PLACEMENT_3D( '', #210, #211, #212 );
#143 = SURFACE_SIDE_STYLE( '', ( #213 ) );
#144 = EDGE_LOOP( '', ( #214, #215, #216, #217 ) );
#145 = AXIS2_PLACEMENT_3D( '', #218, #219, #220 );
#146 = SURFACE_SIDE_STYLE( '', ( #221 ) );
#147 = EDGE_LOOP( '', ( #222, #223, #224, #225 ) );
#148 = AXIS2_PLACEMENT_3D( '', #226, #227, #228 );
#149 = SURFACE_SIDE_STYLE( '', ( #229 ) );
#150 = EDGE_LOOP( '', ( #230, #231, #232, #233, #234, #235 ) );
#151 = AXIS2_PLACEMENT_3D( '', #236, #237, #238 );
#153 = SURFACE_STYLE_FILL_AREA( #239 );
#154 = ORIENTED_EDGE( '', *, *, #240, .F. );
#155 = ORIENTED_EDGE( '', *, *, #241, .F. );
#156 = ORIENTED_EDGE( '', *, *, #242, .T. );
#157 = ORIENTED_EDGE( '', *, *, #243, .T. );
#158 = CARTESIAN_POINT( '', ( 0.000000000000000, 8.00000000000000, 17.3205080756888 ) );
#159 = DIRECTION( '', ( 0.499524110790929, -0.0436193873653360, 0.865201139495554 ) );
#160 = DIRECTION( '', ( 0.866025403784439, -2.42136240865198E-18, -0.500000000000000 ) );
#161 = SURFACE_STYLE_FILL_AREA( #244 );
#162 = ORIENTED_EDGE( '', *, *, #245, .F. );
#163 = ORIENTED_EDGE( '', *, *, #246, .F. );
#164 = ORIENTED_EDGE( '', *, *, #247, .T. );
#165 = ORIENTED_EDGE( '', *, *, #248, .T. );
#166 = CARTESIAN_POINT( '', ( 15.0000000000000, 8.00000000000000, -8.66025403784439 ) );
#167 = DIRECTION( '', ( 0.499524110790929, -0.0436193873653360, -0.865201139495554 ) );
#168 = DIRECTION( '', ( -0.866025403784439, 2.42136240865198E-18, -0.500000000000000 ) );
#169 = SURFACE_STYLE_FILL_AREA( #249 );
#170 = ORIENTED_EDGE( '', *, *, #250, .F. );
#171 = ORIENTED_EDGE( '', *, *, #251, .T. );
#172 = CARTESIAN_POINT( '', ( 0.000000000000000, 8.00000000000000, 0.000000000000000 ) );
#173 = DIRECTION( '', ( -0.000000000000000, 1.00000000000000, 0.000000000000000 ) );
#174 = DIRECTION( '', ( 0.000000000000000, 0.000000000000000, -1.00000000000000 ) );
#175 = SURFACE_STYLE_FILL_AREA( #252 );
#176 = ORIENTED_EDGE( '', *, *, #251, .F. );
#177 = ORIENTED_EDGE( '', *, *, #253, .T. );
#178 = CARTESIAN_POINT( '', ( 0.000000000000000, 28.0000000000000, 0.000000000000000 ) );
#179 = DIRECTION( '', ( -0.000000000000000, -1.00000000000000, -0.000000000000000 ) );
#180 = DIRECTION( '', ( 0.000000000000000, 0.000000000000000, -1.00000000000000 ) );
#181 = SURFACE_STYLE_FILL_AREA( #254 );
#182 = ORIENTED_EDGE( '', *, *, #253, .F. );
#183 = CARTESIAN_POINT( '', ( 0.000000000000000, 28.0000000000000, 0.000000000000000 ) );
#184 = DIRECTION( '', ( 0.000000000000000, -1.00000000000000, -0.000000000000000 ) );
#185 = DIRECTION( '', ( 0.000000000000000, 0.000000000000000, -1.00000000000000 ) );
#186 = SURFACE_STYLE_FILL_AREA( #255 );
#187 = ORIENTED_EDGE( '', *, *, #256, .F. );
#188 = ORIENTED_EDGE( '', *, *, #257, .F. );
#189 = ORIENTED_EDGE( '', *, *, #258, .T. );
#190 = ORIENTED_EDGE( '', *, *, #259, .T. );
#191 = CARTESIAN_POINT( '', ( -15.0000000000000, 8.00000000000000, -8.66025403784439 ) );
#192 = DIRECTION( '', ( -0.999048221581858, -0.0436193873653360, 0.000000000000000 ) );
#193 = DIRECTION( '', ( 0.0436193873653360, -0.999048221581858, 0.000000000000000 ) );
#194 = SURFACE_STYLE_FILL_AREA( #260 );
#195 = ORIENTED_EDGE( '', *, *, #250, .T. );
#196 = ORIENTED_EDGE( '', *, *, #256, .T. );
#197 = ORIENTED_EDGE( '', *, *, #261, .T. );
#198 = ORIENTED_EDGE( '', *, *, #240, .T. );
#199 = ORIENTED_EDGE( '', *, *, #262, .T. );
#200 = ORIENTED_EDGE( '', *, *, #245, .T. );
#201 = ORIENTED_EDGE( '', *, *, #263, .T. );
#202 = CARTESIAN_POINT( '', ( 0.000000000000000, 8.00000000000000, 0.000000000000000 ) );
#203 = DIRECTION( '', ( 0.000000000000000, 1.00000000000000, 0.000000000000000 ) );
#204 = DIRECTION( '', ( 0.000000000000000, -0.000000000000000, 1.00000000000000 ) );
#205 = SURFACE_STYLE_FILL_AREA( #264 );
#206 = ORIENTED_EDGE( '', *, *, #262, .F. );
#207 = ORIENTED_EDGE( '', *, *, #243, .F. );
#208 = ORIENTED_EDGE( '', *, *, #265, .T. );
#209 = ORIENTED_EDGE( '', *, *, #246, .T. );
#210 = CARTESIAN_POINT( '', ( 15.0000000000000, 8.00000000000000, 8.66025403784439 ) );
#211 = DIRECTION( '', ( 0.999048221581858, -0.0436193873653360, 0.000000000000000 ) );
#212 = DIRECTION( '', ( 0.0436193873653360, 0.999048221581858, 0.000000000000000 ) );
#213 = SURFACE_STYLE_FILL_AREA( #266 );
#214 = ORIENTED_EDGE( '', *, *, #261, .F. );
#215 = ORIENTED_EDGE( '', *, *, #259, .F. );
#216 = ORIENTED_EDGE( '', *, *, #267, .T. );
#217 = ORIENTED_EDGE( '', *, *, #241, .T. );
#218 = CARTESIAN_POINT( '', ( -15.0000000000000, 8.00000000000000, 8.66025403784439 ) );
#219 = DIRECTION( '', ( -0.499524110790929, -0.0436193873653360, 0.865201139495554 ) );
#220 = DIRECTION( '', ( 0.866025403784439, 2.42136240865198E-18, 0.500000000000000 ) );
#221 = SURFACE_STYLE_FILL_AREA( #268 );
#222 = ORIENTED_EDGE( '', *, *, #263, .F. );
#223 = ORIENTED_EDGE( '', *, *, #248, .F. );
#224 = ORIENTED_EDGE( '', *, *, #269, .T. );
#225 = ORIENTED_EDGE( '', *, *, #257, .T. );
#226 = CARTESIAN_POINT( '', ( 0.000000000000000, 8.00000000000000, -17.3205080756888 ) );
#227 = DIRECTION( '', ( -0.499524110790929, -0.0436193873653360, -0.865201139495554 ) );
#228 = DIRECTION( '', ( -0.866025403784439, -2.42136240865198E-18, 0.500000000000000 ) );
#229 = SURFACE_STYLE_FILL_AREA( #270 );
#230 = ORIENTED_EDGE( '', *, *, #258, .F. );
#231 = ORIENTED_EDGE( '', *, *, #269, .F. );
#232 = ORIENTED_EDGE( '', *, *, #247, .F. );
#233 = ORIENTED_EDGE( '', *, *, #265, .F. );
#234 = ORIENTED_EDGE( '', *, *, #242, .F. );
#235 = ORIENTED_EDGE( '', *, *, #267, .F. );
#236 = CARTESIAN_POINT( '', ( 0.000000000000000, 0.000000000000000, 0.000000000000000 ) );
#237 = DIRECTION( '', ( 0.000000000000000, 1.00000000000000, 0.000000000000000 ) );
#238 = DIRECTION( '', ( 0.000000000000000, -0.000000000000000, 1.00000000000000 ) );
#239 = FILL_AREA_STYLE( '', ( #271 ) );
#240 = EDGE_CURVE( '', #272, #273, #274, .T. );
#241 = EDGE_CURVE( '', #275, #272, #276, .T. );
#242 = EDGE_CURVE( '', #275, #277, #278, .T. );
#243 = EDGE_CURVE( '', #277, #273, #279, .T. );
#244 = FILL_AREA_STYLE( '', ( #280 ) );
#245 = EDGE_CURVE( '', #281, #282, #283, .T. );
#246 = EDGE_CURVE( '', #284, #281, #285, .T. );
#247 = EDGE_CURVE( '', #284, #286, #287, .T. );
#248 = EDGE_CURVE( '', #286, #282, #288, .T. );
#249 = FILL_AREA_STYLE( '', ( #289 ) );
#250 = EDGE_CURVE( '', #290, #290, #291, .T. );
#251 = EDGE_CURVE( '', #292, #292, #293, .T. );
#252 = FILL_AREA_STYLE( '', ( #294 ) );
#253 = EDGE_CURVE( '', #295, #295, #296, .T. );
#254 = FILL_AREA_STYLE( '', ( #297 ) );
#255 = FILL_AREA_STYLE( '', ( #298 ) );
#256 = EDGE_CURVE( '', #299, #300, #301, .T. );
#257 = EDGE_CURVE( '', #302, #299, #303, .T. );
#258 = EDGE_CURVE( '', #302, #304, #305, .T. );
#259 = EDGE_CURVE( '', #304, #300, #306, .T. );
#260 = FILL_AREA_STYLE( '', ( #307 ) );
#261 = EDGE_CURVE( '', #300, #272, #308, .T. );
#262 = EDGE_CURVE( '', #273, #281, #309, .T. );
#263 = EDGE_CURVE( '', #282, #299, #310, .T. );
#264 = FILL_AREA_STYLE( '', ( #311 ) );
#265 = EDGE_CURVE( '', #277, #284, #312, .T. );
#266 = FILL_AREA_STYLE( '', ( #313 ) );
#267 = EDGE_CURVE( '', #304, #275, #314, .T. );
#268 = FILL_AREA_STYLE( '', ( #315 ) );
#269 = EDGE_CURVE( '', #286, #302, #316, .T. );
#270 = FILL_AREA_STYLE( '', ( #317 ) );
#271 = FILL_AREA_STYLE_COLOUR( '', #318 );
#272 = VERTEX_POINT( '', #319 );
#273 = VERTEX_POINT( '', #320 );
#274 = LINE( '', #321, #322 );
#275 = VERTEX_POINT( '', #323 );
#276 = LINE( '', #324, #325 );
#277 = VERTEX_POINT( '', #326 );
#278 = LINE( '', #327, #328 );
#279 = LINE( '', #329, #330 );
#280 = FILL_AREA_STYLE_COLOUR( '', #331 );
#281 = VERTEX_POINT( '', #332 );
#282 = VERTEX_POINT( '', #333 );
#283 = LINE( '', #334, #335 );
#284 = VERTEX_POINT( '', #336 );
#285 = LINE( '', #337, #338 );
#286 = VERTEX_POINT( '', #339 );
#287 = LINE( '', #340, #341 );
#288 = LINE( '', #342, #343 );
#289 = FILL_AREA_STYLE_COLOUR( '', #344 );
#290 = VERTEX_POINT( '', #345 );
#291 = CIRCLE( '', #346, 5.00000000000000 );
#292 = VERTEX_POINT( '', #347 );
#293 = CIRCLE( '', #348, 5.00000000000000 );
#294 = FILL_AREA_STYLE_COLOUR( '', #349 );
#295 = VERTEX_POINT( '', #350 );
#296 = CIRCLE( '', #351, 4.08000000000000 );
#297 = FILL_AREA_STYLE_COLOUR( '', #352 );
#298 = FILL_AREA_STYLE_COLOUR( '', #353 );
#299 = VERTEX_POINT( '', #354 );
#300 = VERTEX_POINT( '', #355 );
#301 = LINE( '', #356, #357 );
#302 = VERTEX_POINT( '', #358 );
#303 = LINE( '', #359, #360 );
#304 = VERTEX_POINT( '', #361 );
#305 = LINE( '', #362, #363 );
#306 = LINE( '', #364, #365 );
#307 = FILL_AREA_STYLE_COLOUR( '', #366 );
#308 = LINE( '', #367, #368 );
#309 = LINE( '', #369, #370 );
#310 = LINE( '', #371, #372 );
#311 = FILL_AREA_STYLE_COLOUR( '', #373 );
#312 = LINE( '', #374, #375 );
#313 = FILL_AREA_STYLE_COLOUR( '', #376 );
#314 = LINE( '', #377, #378 );
#315 = FILL_AREA_STYLE_COLOUR( '', #379 );
#316 = LINE( '', #380, #381 );
#317 = FILL_AREA_STYLE_COLOUR( '', #382 );
#318 = COLOUR_RGB( '', 0.689999997600000, 0.689999997600000, 0.689999997600000 );
#319 = CARTESIAN_POINT( '', ( 0.000000000000000, 8.00000000000000, 17.3205080756888 ) );
#320 = CARTESIAN_POINT( '', ( 15.0000000000000, 8.00000000000000, 8.66025403784439 ) );
#321 = CARTESIAN_POINT( '', ( 0.000000000000000, 8.00000000000000, 17.3205080756888 ) );
#322 = VECTOR( '', #383, 1000.00000000000 );
#323 = CARTESIAN_POINT( '', ( 4.39010374806836E-16, 0.000000000000000, 16.9171855614279 ) );
#324 = CARTESIAN_POINT( '', ( 0.000000000000000, 7.56449748935085, 17.2985520797435 ) );
#325 = VECTOR( '', #384, 1000.00000000000 );
#326 = CARTESIAN_POINT( '', ( 14.6507124567319, 0.000000000000000, 8.45859278071397 ) );
#327 = CARTESIAN_POINT( '', ( 7.32535622836595, 0.000000000000000, 12.6878891710710 ) );
#328 = VECTOR( '', #385, 1000.00000000000 );
#329 = CARTESIAN_POINT( '', ( 14.9809855497460, 7.56449748935085, 8.64927603987177 ) );
#330 = VECTOR( '', #386, 1000.00000000000 );
#331 = COLOUR_RGB( '', 0.689999997600000, 0.689999997600000, 0.689999997600000 );
#332 = CARTESIAN_POINT( '', ( 15.0000000000000, 8.00000000000000, -8.66025403784439 ) );
#333 = CARTESIAN_POINT( '', ( 0.000000000000000, 8.00000000000000, -17.3205080756888 ) );
#334 = CARTESIAN_POINT( '', ( 15.0000000000000, 8.00000000000000, -8.66025403784439 ) );
#335 = VECTOR( '', #387, 1000.00000000000 );
#336 = CARTESIAN_POINT( '', ( 14.6507124567319, 0.000000000000000, -8.45859278071397 ) );
#337 = CARTESIAN_POINT( '', ( 14.9809855497460, 7.56449748935085, -8.64927603987177 ) );
#338 = VECTOR( '', #388, 1000.00000000000 );
#339 = CARTESIAN_POINT( '', ( -4.39010374806836E-16, 0.000000000000000, -16.9171855614279 ) );
#340 = CARTESIAN_POINT( '', ( 7.32535622836595, 0.000000000000000, -12.6878891710710 ) );
#341 = VECTOR( '', #389, 1000.00000000000 );
#342 = CARTESIAN_POINT( '', ( 0.000000000000000, 7.56449748935085, -17.2985520797435 ) );
#343 = VECTOR( '', #390, 1000.00000000000 );
#344 = COLOUR_RGB( '', 0.689999997600000, 0.689999997600000, 0.689999997600000 );
#345 = CARTESIAN_POINT( '', ( 0.000000000000000, 8.00000000000000, -5.00000000000000 ) );
#346 = AXIS2_PLACEMENT_3D( '', #391, #392, #393 );
#347 = CARTESIAN_POINT( '', ( 0.000000000000000, 27.0800000000000, -5.00000000000000 ) );
#348 = AXIS2_PLACEMENT_3D( '', #394, #395, #396 );
#349 = COLOUR_RGB( '', 0.689999997600000, 0.689999997600000, 0.689999997600000 );
#350 = CARTESIAN_POINT( '', ( 0.000000000000000, 28.0000000000000, -4.08000000000000 ) );
#351 = AXIS2_PLACEMENT_3D( '', #397, #398, #399 );
#352 = COLOUR_RGB( '', 0.689999997600000, 0.689999997600000, 0.689999997600000 );
#353 = COLOUR_RGB( '', 0.689999997600000, 0.689999997600000, 0.689999997600000 );
#354 = CARTESIAN_POINT( '', ( -15.0000000000000, 8.00000000000000, -8.66025403784439 ) );
#355 = CARTESIAN_POINT( '', ( -15.0000000000000, 8.00000000000000, 8.66025403784439 ) );
#356 = CARTESIAN_POINT( '', ( -15.0000000000000, 8.00000000000000, -8.66025403784439 ) );
#357 = VECTOR( '', #400, 1000.00000000000 );
#358 = CARTESIAN_POINT( '', ( -14.6507124567319, 0.000000000000000, -8.45859278071397 ) );
#359 = CARTESIAN_POINT( '', ( -14.9809855497460, 7.56449748935085, -8.64927603987177 ) );
#360 = VECTOR( '', #401, 1000.00000000000 );
#361 = CARTESIAN_POINT( '', ( -14.6507124567319, 0.000000000000000, 8.45859278071397 ) );
#362 = CARTESIAN_POINT( '', ( -14.6507124567319, 0.000000000000000, 0.000000000000000 ) );
#363 = VECTOR( '', #402, 1000.00000000000 );
#364 = CARTESIAN_POINT( '', ( -14.9809855497460, 7.56449748935085, 8.64927603987177 ) );
#365 = VECTOR( '', #403, 1000.00000000000 );
#366 = COLOUR_RGB( '', 0.689999997600000, 0.689999997600000, 0.689999997600000 );
#367 = CARTESIAN_POINT( '', ( -15.0000000000000, 8.00000000000000, 8.66025403784439 ) );
#368 = VECTOR( '', #404, 1000.00000000000 );
#369 = CARTESIAN_POINT( '', ( 15.0000000000000, 8.00000000000000, 8.66025403784439 ) );
#370 = VECTOR( '', #405, 1000.00000000000 );
#371 = CARTESIAN_POINT( '', ( 0.000000000000000, 8.00000000000000, -17.3205080756888 ) );
#372 = VECTOR( '', #406, 1000.00000000000 );
#373 = COLOUR_RGB( '', 0.689999997600000, 0.689999997600000, 0.689999997600000 );
#374 = CARTESIAN_POINT( '', ( 14.6507124567319, 0.000000000000000, 0.000000000000000 ) );
#375 = VECTOR( '', #407, 1000.00000000000 );
#376 = COLOUR_RGB( '', 0.689999997600000, 0.689999997600000, 0.689999997600000 );
#377 = CARTESIAN_POINT( '', ( -7.32535622836595, 0.000000000000000, 12.6878891710710 ) );
#378 = VECTOR( '', #408, 1000.00000000000 );
#379 = COLOUR_RGB( '', 0.689999997600000, 0.689999997600000, 0.689999997600000 );
#380 = CARTESIAN_POINT( '', ( -7.32535622836595, 0.000000000000000, -12.6878891710710 ) );
#381 = VECTOR( '', #409, 1000.00000000000 );
#382 = COLOUR_RGB( '', 0.689999997600000, 0.689999997600000, 0.689999997600000 );
#383 = DIRECTION( '', ( 0.866025403784439, 0.000000000000000, -0.500000000000000 ) );
#384 = DIRECTION( '', ( 0.000000000000000, 0.998731565520054, 0.0503513657596513 ) );
#385 = DIRECTION( '', ( 0.866025403784439, 0.000000000000000, -0.500000000000000 ) );
#386 = DIRECTION( '', ( 0.0436055618630999, 0.998731565520054, 0.0251756828798256 ) );
#387 = DIRECTION( '', ( -0.866025403784439, 0.000000000000000, -0.500000000000000 ) );
#388 = DIRECTION( '', ( 0.0436055618630999, 0.998731565520054, -0.0251756828798256 ) );
#389 = DIRECTION( '', ( -0.866025403784439, 0.000000000000000, -0.500000000000000 ) );
#390 = DIRECTION( '', ( 0.000000000000000, 0.998731565520054, -0.0503513657596513 ) );
#391 = CARTESIAN_POINT( '', ( 0.000000000000000, 8.00000000000000, 0.000000000000000 ) );
#392 = DIRECTION( '', ( 0.000000000000000, -1.00000000000000, -0.000000000000000 ) );
#393 = DIRECTION( '', ( 0.000000000000000, 0.000000000000000, -1.00000000000000 ) );
#394 = CARTESIAN_POINT( '', ( 0.000000000000000, 27.0800000000000, 0.000000000000000 ) );
#395 = DIRECTION( '', ( 0.000000000000000, -1.00000000000000, -0.000000000000000 ) );
#396 = DIRECTION( '', ( 0.000000000000000, 0.000000000000000, -1.00000000000000 ) );
#397 = CARTESIAN_POINT( '', ( 0.000000000000000, 28.0000000000000, 0.000000000000000 ) );
#398 = DIRECTION( '', ( 0.000000000000000, -1.00000000000000, -0.000000000000000 ) );
#399 = DIRECTION( '', ( 0.000000000000000, 0.000000000000000, -1.00000000000000 ) );
#400 = DIRECTION( '', ( 0.000000000000000, 0.000000000000000, 1.00000000000000 ) );
#401 = DIRECTION( '', ( -0.0436055618630999, 0.998731565520054, -0.0251756828798256 ) );
#402 = DIRECTION( '', ( 0.000000000000000, 0.000000000000000, 1.00000000000000 ) );
#403 = DIRECTION( '', ( -0.0436055618630999, 0.998731565520054, 0.0251756828798256 ) );
#404 = DIRECTION( '', ( 0.866025403784439, 0.000000000000000, 0.500000000000000 ) );
#405 = DIRECTION( '', ( 0.000000000000000, 0.000000000000000, -1.00000000000000 ) );
#406 = DIRECTION( '', ( -0.866025403784439, 0.000000000000000, 0.500000000000000 ) );
#407 = DIRECTION( '', ( 0.000000000000000, 0.000000000000000, -1.00000000000000 ) );
#408 = DIRECTION( '', ( 0.866025403784439, 0.000000000000000, 0.500000000000000 ) );
#409 = DIRECTION( '', ( -0.866025403784439, 0.000000000000000, 0.500000000000000 ) );
ENDSEC;
END-ISO-10303-21;
