ISO-10303-21;
HEADER;
FILE_DESCRIPTION( ( 'STEP AP214' ), '1' );
FILE_NAME( '//goodhand-server/Shared Folders/GoodHand Data/Kipp CAD/K0390/K0390.141X100.stp', '2020-12-07T10:15:58', ( '' ), ( '' ), ' ', 'PARTsolutions', ' ' );
FILE_SCHEMA( ( 'AUTOMOTIVE_DESIGN { 1 0 10303 214 1 1 1 1 }' ) );
ENDSEC;
DATA;
#1 = MECHANICAL_DESIGN_GEOMETRIC_PRESENTATION_REPRESENTATION( ' ', ( #10, #11, #12, #13, #14, #15, #16, #17, #18, #19, #20, #21, #22 ), #6 );
#2 = PRODUCT_DEFINITION_CONTEXT( '', #23, 'design' );
#3 = APPLICATION_PROTOCOL_DEFINITION( 'international standard', 'automotive_design', 2001, #23 );
#4 = PRODUCT_CATEGORY_RELATIONSHIP( 'NONE', 'NONE', #24, #25 );
#5 = SHAPE_DEFINITION_REPRESENTATION( #26, #27 );
#6 =  ( GEOMETRIC_REPRESENTATION_CONTEXT( 3 )GLOBAL_UNCERTAINTY_ASSIGNED_CONTEXT( ( #30 ) )GLOBAL_UNIT_ASSIGNED_CONTEXT( ( #32, #33, #34 ) )REPRESENTATION_CONTEXT( 'NONE', 'WORKSPACE' ) );
#10 = STYLED_ITEM( '', ( #36 ), #37 );
#11 = STYLED_ITEM( '', ( #38 ), #39 );
#12 = STYLED_ITEM( '', ( #40 ), #41 );
#13 = STYLED_ITEM( '', ( #42 ), #43 );
#14 = STYLED_ITEM( '', ( #44 ), #45 );
#15 = STYLED_ITEM( '', ( #46 ), #47 );
#16 = STYLED_ITEM( '', ( #48 ), #49 );
#17 = STYLED_ITEM( '', ( #50 ), #51 );
#18 = STYLED_ITEM( '', ( #52 ), #53 );
#19 = STYLED_ITEM( '', ( #54 ), #55 );
#20 = STYLED_ITEM( '', ( #56 ), #57 );
#21 = STYLED_ITEM( '', ( #58 ), #59 );
#22 = STYLED_ITEM( '', ( #60 ), #61 );
#23 = APPLICATION_CONTEXT( 'core data for automotive mechanical design processes' );
#24 = PRODUCT_CATEGORY( 'part', 'NONE' );
#25 = PRODUCT_RELATED_PRODUCT_CATEGORY( 'detail', ' ', ( #62 ) );
#26 = PRODUCT_DEFINITION_SHAPE( 'NONE', 'NONE', #63 );
#27 = ADVANCED_BREP_SHAPE_REPRESENTATION( '_K0390.141X100', ( #64, #65 ), #6 );
#30 = UNCERTAINTY_MEASURE_WITH_UNIT( LENGTH_MEASURE( 0.00100000000000000 ), #32, '', '' );
#32 =  ( CONVERSION_BASED_UNIT( 'MILLIMETRE', #68 )LENGTH_UNIT(  )NAMED_UNIT( #71 ) );
#33 =  ( NAMED_UNIT( #73 )PLANE_ANGLE_UNIT(  )SI_UNIT( $, .RADIAN. ) );
#34 =  ( NAMED_UNIT( #73 )SI_UNIT( $, .STERADIAN. )SOLID_ANGLE_UNIT(  ) );
#36 = PRESENTATION_STYLE_ASSIGNMENT( ( #79 ) );
#37 = ADVANCED_FACE( '', ( #80 ), #81, .F. );
#38 = PRESENTATION_STYLE_ASSIGNMENT( ( #82 ) );
#39 = ADVANCED_FACE( '', ( #83, #84 ), #85, .F. );
#40 = PRESENTATION_STYLE_ASSIGNMENT( ( #86 ) );
#41 = ADVANCED_FACE( '', ( #87, #88 ), #89, .T. );
#42 = PRESENTATION_STYLE_ASSIGNMENT( ( #90 ) );
#43 = ADVANCED_FACE( '', ( #91, #92 ), #93, .T. );
#44 = PRESENTATION_STYLE_ASSIGNMENT( ( #94 ) );
#45 = ADVANCED_FACE( '', ( #95, #96 ), #97, .T. );
#46 = PRESENTATION_STYLE_ASSIGNMENT( ( #98 ) );
#47 = ADVANCED_FACE( '', ( #99 ), #100, .F. );
#48 = PRESENTATION_STYLE_ASSIGNMENT( ( #101 ) );
#49 = ADVANCED_FACE( '', ( #102 ), #103, .T. );
#50 = PRESENTATION_STYLE_ASSIGNMENT( ( #104 ) );
#51 = ADVANCED_FACE( '', ( #105 ), #106, .T. );
#52 = PRESENTATION_STYLE_ASSIGNMENT( ( #107 ) );
#53 = ADVANCED_FACE( '', ( #108 ), #109, .T. );
#54 = PRESENTATION_STYLE_ASSIGNMENT( ( #110 ) );
#55 = ADVANCED_FACE( '', ( #111, #112 ), #113, .T. );
#56 = PRESENTATION_STYLE_ASSIGNMENT( ( #114 ) );
#57 = ADVANCED_FACE( '', ( #115 ), #116, .F. );
#58 = PRESENTATION_STYLE_ASSIGNMENT( ( #117 ) );
#59 = ADVANCED_FACE( '', ( #118 ), #119, .F. );
#60 = PRESENTATION_STYLE_ASSIGNMENT( ( #120 ) );
#61 = ADVANCED_FACE( '', ( #121, #122 ), #123, .T. );
#62 = PRODUCT( '_K0390.141X100', '_K0390.141X100', 'PART-_K0390.141X100-DESC', ( #124 ) );
#63 = PRODUCT_DEFINITION( 'NONE', 'NONE', #125, #2 );
#64 = MANIFOLD_SOLID_BREP( '_K0390.141X100', #126 );
#65 = AXIS2_PLACEMENT_3D( '', #127, #128, #129 );
#68 = LENGTH_MEASURE_WITH_UNIT( LENGTH_MEASURE( 1.00000000000000 ), #130 );
#71 = DIMENSIONAL_EXPONENTS( 1.00000000000000, 0.000000000000000, 0.000000000000000, 0.000000000000000, 0.000000000000000, 0.000000000000000, 0.000000000000000 );
#73 = DIMENSIONAL_EXPONENTS( 0.000000000000000, 0.000000000000000, 0.000000000000000, 0.000000000000000, 0.000000000000000, 0.000000000000000, 0.000000000000000 );
#79 = SURFACE_STYLE_USAGE( .BOTH., #131 );
#80 = FACE_OUTER_BOUND( '', #132, .T. );
#81 = PLANE( '', #133 );
#82 = SURFACE_STYLE_USAGE( .BOTH., #134 );
#83 = FACE_OUTER_BOUND( '', #135, .T. );
#84 = FACE_BOUND( '', #136, .T. );
#85 = PLANE( '', #137 );
#86 = SURFACE_STYLE_USAGE( .BOTH., #138 );
#87 = FACE_OUTER_BOUND( '', #139, .T. );
#88 = FACE_OUTER_BOUND( '', #140, .T. );
#89 = CYLINDRICAL_SURFACE( '', #141, 4.50000000000000 );
#90 = SURFACE_STYLE_USAGE( .BOTH., #142 );
#91 = FACE_OUTER_BOUND( '', #143, .T. );
#92 = FACE_OUTER_BOUND( '', #144, .T. );
#93 = CYLINDRICAL_SURFACE( '', #145, 7.00000000000000 );
#94 = SURFACE_STYLE_USAGE( .BOTH., #146 );
#95 = FACE_BOUND( '', #147, .T. );
#96 = FACE_OUTER_BOUND( '', #148, .T. );
#97 = CONICAL_SURFACE( '', #149, 7.00000000000000, 1.13808724680000 );
#98 = SURFACE_STYLE_USAGE( .BOTH., #150 );
#99 = FACE_OUTER_BOUND( '', #151, .T. );
#100 = PLANE( '', #152 );
#101 = SURFACE_STYLE_USAGE( .BOTH., #153 );
#102 = FACE_OUTER_BOUND( '', #154, .T. );
#103 = CONICAL_SURFACE( '', #155, 5.77300000000000, 0.785398163400000 );
#104 = SURFACE_STYLE_USAGE( .BOTH., #156 );
#105 = FACE_OUTER_BOUND( '', #157, .T. );
#106 = CONICAL_SURFACE( '', #158, 5.77300000000000, 0.785398163400000 );
#107 = SURFACE_STYLE_USAGE( .BOTH., #159 );
#108 = FACE_OUTER_BOUND( '', #160, .T. );
#109 = PLANE( '', #161 );
#110 = SURFACE_STYLE_USAGE( .BOTH., #162 );
#111 = FACE_BOUND( '', #163, .T. );
#112 = FACE_OUTER_BOUND( '', #164, .T. );
#113 = SPHERICAL_SURFACE( '', #165, 8.38700000000000 );
#114 = SURFACE_STYLE_USAGE( .BOTH., #166 );
#115 = FACE_OUTER_BOUND( '', #167, .T. );
#116 = PLANE( '', #168 );
#117 = SURFACE_STYLE_USAGE( .BOTH., #169 );
#118 = FACE_OUTER_BOUND( '', #170, .T. );
#119 = PLANE( '', #171 );
#120 = SURFACE_STYLE_USAGE( .BOTH., #172 );
#121 = FACE_OUTER_BOUND( '', #173, .T. );
#122 = FACE_OUTER_BOUND( '', #174, .T. );
#123 = CYLINDRICAL_SURFACE( '', #175, 5.00000000000000 );
#124 = PRODUCT_CONTEXT( '', #23, 'mechanical' );
#125 = PRODUCT_DEFINITION_FORMATION_WITH_SPECIFIED_SOURCE( ' ', 'NONE', #62, .NOT_KNOWN. );
#126 = CLOSED_SHELL( '', ( #47, #57, #55, #61, #39, #41, #45, #43, #49, #59, #51, #37, #53 ) );
#127 = CARTESIAN_POINT( '', ( 0.000000000000000, 0.000000000000000, 0.000000000000000 ) );
#128 = DIRECTION( '', ( 0.000000000000000, 0.000000000000000, 1.00000000000000 ) );
#129 = DIRECTION( '', ( 1.00000000000000, 0.000000000000000, 0.000000000000000 ) );
#130 =  ( LENGTH_UNIT(  )NAMED_UNIT( #71 )SI_UNIT( .MILLI., .METRE. ) );
#131 = SURFACE_SIDE_STYLE( '', ( #177 ) );
#132 = EDGE_LOOP( '', ( #178, #179 ) );
#133 = AXIS2_PLACEMENT_3D( '', #180, #181, #182 );
#134 = SURFACE_SIDE_STYLE( '', ( #183 ) );
#135 = EDGE_LOOP( '', ( #184 ) );
#136 = EDGE_LOOP( '', ( #185 ) );
#137 = AXIS2_PLACEMENT_3D( '', #186, #187, #188 );
#138 = SURFACE_SIDE_STYLE( '', ( #189 ) );
#139 = EDGE_LOOP( '', ( #190 ) );
#140 = EDGE_LOOP( '', ( #191 ) );
#141 = AXIS2_PLACEMENT_3D( '', #192, #193, #194 );
#142 = SURFACE_SIDE_STYLE( '', ( #195 ) );
#143 = EDGE_LOOP( '', ( #196 ) );
#144 = EDGE_LOOP( '', ( #197, #198, #199, #200, #201, #202, #203, #204 ) );
#145 = AXIS2_PLACEMENT_3D( '', #205, #206, #207 );
#146 = SURFACE_SIDE_STYLE( '', ( #208 ) );
#147 = EDGE_LOOP( '', ( #209 ) );
#148 = EDGE_LOOP( '', ( #210 ) );
#149 = AXIS2_PLACEMENT_3D( '', #211, #212, #213 );
#150 = SURFACE_SIDE_STYLE( '', ( #214 ) );
#151 = EDGE_LOOP( '', ( #215, #216, #217, #218, #219, #220 ) );
#152 = AXIS2_PLACEMENT_3D( '', #221, #222, #223 );
#153 = SURFACE_SIDE_STYLE( '', ( #224 ) );
#154 = EDGE_LOOP( '', ( #225, #226, #227, #228 ) );
#155 = AXIS2_PLACEMENT_3D( '', #229, #230, #231 );
#156 = SURFACE_SIDE_STYLE( '', ( #232 ) );
#157 = EDGE_LOOP( '', ( #233, #234, #235, #236 ) );
#158 = AXIS2_PLACEMENT_3D( '', #237, #238, #239 );
#159 = SURFACE_SIDE_STYLE( '', ( #240 ) );
#160 = EDGE_LOOP( '', ( #241, #242, #243, #244 ) );
#161 = AXIS2_PLACEMENT_3D( '', #245, #246, #247 );
#162 = SURFACE_SIDE_STYLE( '', ( #248 ) );
#163 = VERTEX_LOOP( '', #249 );
#164 = EDGE_LOOP( '', ( #250 ) );
#165 = AXIS2_PLACEMENT_3D( '', #251, #252, #253 );
#166 = SURFACE_SIDE_STYLE( '', ( #254 ) );
#167 = EDGE_LOOP( '', ( #255, #256, #257, #258, #259, #260 ) );
#168 = AXIS2_PLACEMENT_3D( '', #261, #262, #263 );
#169 = SURFACE_SIDE_STYLE( '', ( #264 ) );
#170 = EDGE_LOOP( '', ( #265, #266 ) );
#171 = AXIS2_PLACEMENT_3D( '', #267, #268, #269 );
#172 = SURFACE_SIDE_STYLE( '', ( #270 ) );
#173 = EDGE_LOOP( '', ( #271 ) );
#174 = EDGE_LOOP( '', ( #272 ) );
#175 = AXIS2_PLACEMENT_3D( '', #273, #274, #275 );
#177 = SURFACE_STYLE_FILL_AREA( #276 );
#178 = ORIENTED_EDGE( '', *, *, #277, .F. );
#179 = ORIENTED_EDGE( '', *, *, #278, .F. );
#180 = CARTESIAN_POINT( '', ( 1.40341075659151E-14, 2.03340887109388E-14, 0.000000000000000 ) );
#181 = DIRECTION( '', ( 1.00000000000000, -6.12323399573677E-17, -0.000000000000000 ) );
#182 = DIRECTION( '', ( 6.12323399573677E-17, 1.00000000000000, 0.000000000000000 ) );
#183 = SURFACE_STYLE_FILL_AREA( #279 );
#184 = ORIENTED_EDGE( '', *, *, #280, .F. );
#185 = ORIENTED_EDGE( '', *, *, #281, .T. );
#186 = CARTESIAN_POINT( '', ( 95.0000000000000, 4.50000000000001, 0.000000000000000 ) );
#187 = DIRECTION( '', ( 1.00000000000000, -6.12323399573677E-17, -0.000000000000000 ) );
#188 = DIRECTION( '', ( 6.12323399573677E-17, 1.00000000000000, 0.000000000000000 ) );
#189 = SURFACE_STYLE_FILL_AREA( #282 );
#190 = ORIENTED_EDGE( '', *, *, #281, .F. );
#191 = ORIENTED_EDGE( '', *, *, #283, .T. );
#192 = CARTESIAN_POINT( '', ( 100.000000000000, 1.42108547152020E-14, 0.000000000000000 ) );
#193 = DIRECTION( '', ( -1.00000000000000, 6.12323399573677E-17, 0.000000000000000 ) );
#194 = DIRECTION( '', ( 6.12323399573677E-17, 1.00000000000000, 0.000000000000000 ) );
#195 = SURFACE_STYLE_FILL_AREA( #284 );
#196 = ORIENTED_EDGE( '', *, *, #285, .F. );
#197 = ORIENTED_EDGE( '', *, *, #286, .T. );
#198 = ORIENTED_EDGE( '', *, *, #287, .T. );
#199 = ORIENTED_EDGE( '', *, *, #288, .F. );
#200 = ORIENTED_EDGE( '', *, *, #289, .T. );
#201 = ORIENTED_EDGE( '', *, *, #290, .T. );
#202 = ORIENTED_EDGE( '', *, *, #291, .T. );
#203 = ORIENTED_EDGE( '', *, *, #292, .F. );
#204 = ORIENTED_EDGE( '', *, *, #293, .T. );
#205 = CARTESIAN_POINT( '', ( 100.000000000000, 1.42108547152020E-14, 0.000000000000000 ) );
#206 = DIRECTION( '', ( -1.00000000000000, 6.12323399573677E-17, 0.000000000000000 ) );
#207 = DIRECTION( '', ( 6.12323399573677E-17, 1.00000000000000, 0.000000000000000 ) );
#208 = SURFACE_STYLE_FILL_AREA( #294 );
#209 = ORIENTED_EDGE( '', *, *, #283, .F. );
#210 = ORIENTED_EDGE( '', *, *, #285, .T. );
#211 = CARTESIAN_POINT( '', ( 88.0000000000000, 1.49456427946904E-14, 0.000000000000000 ) );
#212 = DIRECTION( '', ( -1.00000000000000, 6.12323399573677E-17, -0.000000000000000 ) );
#213 = DIRECTION( '', ( -6.12323399573677E-17, -1.00000000000000, 0.000000000000000 ) );
#214 = SURFACE_STYLE_FILL_AREA( #295 );
#215 = ORIENTED_EDGE( '', *, *, #296, .F. );
#216 = ORIENTED_EDGE( '', *, *, #278, .T. );
#217 = ORIENTED_EDGE( '', *, *, #297, .F. );
#218 = ORIENTED_EDGE( '', *, *, #289, .F. );
#219 = ORIENTED_EDGE( '', *, *, #298, .F. );
#220 = ORIENTED_EDGE( '', *, *, #291, .F. );
#221 = CARTESIAN_POINT( '', ( 3.00000000000001, 0.900000000000020, 10.5000000000000 ) );
#222 = DIRECTION( '', ( 0.000000000000000, 1.00000000000000, 0.000000000000000 ) );
#223 = DIRECTION( '', ( 0.000000000000000, -0.000000000000000, 1.00000000000000 ) );
#224 = SURFACE_STYLE_FILL_AREA( #299 );
#225 = ORIENTED_EDGE( '', *, *, #277, .T. );
#226 = ORIENTED_EDGE( '', *, *, #296, .T. );
#227 = ORIENTED_EDGE( '', *, *, #290, .F. );
#228 = ORIENTED_EDGE( '', *, *, #297, .T. );
#229 = CARTESIAN_POINT( '', ( 1.38777878078145E-14, 2.03340887109388E-14, 0.000000000000000 ) );
#230 = DIRECTION( '', ( 1.00000000000000, -6.12323399573677E-17, -0.000000000000000 ) );
#231 = DIRECTION( '', ( 6.12323399573677E-17, 1.00000000000000, 0.000000000000000 ) );
#232 = SURFACE_STYLE_FILL_AREA( #300 );
#233 = ORIENTED_EDGE( '', *, *, #286, .F. );
#234 = ORIENTED_EDGE( '', *, *, #301, .T. );
#235 = ORIENTED_EDGE( '', *, *, #302, .T. );
#236 = ORIENTED_EDGE( '', *, *, #303, .T. );
#237 = CARTESIAN_POINT( '', ( 1.38777878078145E-14, 2.03340887109388E-14, 0.000000000000000 ) );
#238 = DIRECTION( '', ( 1.00000000000000, -6.12323399573677E-17, -0.000000000000000 ) );
#239 = DIRECTION( '', ( 6.12323399573677E-17, 1.00000000000000, 0.000000000000000 ) );
#240 = SURFACE_STYLE_FILL_AREA( #304 );
#241 = ORIENTED_EDGE( '', *, *, #288, .T. );
#242 = ORIENTED_EDGE( '', *, *, #305, .T. );
#243 = ORIENTED_EDGE( '', *, *, #292, .T. );
#244 = ORIENTED_EDGE( '', *, *, #298, .T. );
#245 = CARTESIAN_POINT( '', ( 3.00000000000001, -0.000000000000000, -0.000000000000000 ) );
#246 = DIRECTION( '', ( -1.00000000000000, 0.000000000000000, 0.000000000000000 ) );
#247 = DIRECTION( '', ( 0.000000000000000, 0.000000000000000, 1.00000000000000 ) );
#248 = SURFACE_STYLE_FILL_AREA( #306 );
#249 = VERTEX_POINT( '', #307 );
#250 = ORIENTED_EDGE( '', *, *, #308, .T. );
#251 = CARTESIAN_POINT( '', ( 91.6129999999997, -9.02056207507940E-14, 0.000000000000000 ) );
#252 = DIRECTION( '', ( 1.00000000000000, 0.000000000000000, 0.000000000000000 ) );
#253 = DIRECTION( '', ( 0.000000000000000, 1.00000000000000, 0.000000000000000 ) );
#254 = SURFACE_STYLE_FILL_AREA( #309 );
#255 = ORIENTED_EDGE( '', *, *, #310, .T. );
#256 = ORIENTED_EDGE( '', *, *, #301, .F. );
#257 = ORIENTED_EDGE( '', *, *, #293, .F. );
#258 = ORIENTED_EDGE( '', *, *, #305, .F. );
#259 = ORIENTED_EDGE( '', *, *, #287, .F. );
#260 = ORIENTED_EDGE( '', *, *, #303, .F. );
#261 = CARTESIAN_POINT( '', ( 3.00000000000001, -0.899999999999980, -10.5000000000000 ) );
#262 = DIRECTION( '', ( 0.000000000000000, -1.00000000000000, 0.000000000000000 ) );
#263 = DIRECTION( '', ( 0.000000000000000, 0.000000000000000, -1.00000000000000 ) );
#264 = SURFACE_STYLE_FILL_AREA( #311 );
#265 = ORIENTED_EDGE( '', *, *, #302, .F. );
#266 = ORIENTED_EDGE( '', *, *, #310, .F. );
#267 = CARTESIAN_POINT( '', ( 1.40341075659151E-14, 2.03340887109388E-14, 0.000000000000000 ) );
#268 = DIRECTION( '', ( 1.00000000000000, -6.12323399573677E-17, -0.000000000000000 ) );
#269 = DIRECTION( '', ( 6.12323399573677E-17, 1.00000000000000, 0.000000000000000 ) );
#270 = SURFACE_STYLE_FILL_AREA( #312 );
#271 = ORIENTED_EDGE( '', *, *, #308, .F. );
#272 = ORIENTED_EDGE( '', *, *, #280, .T. );
#273 = CARTESIAN_POINT( '', ( 100.000000000000, 1.42108547152020E-14, 0.000000000000000 ) );
#274 = DIRECTION( '', ( -1.00000000000000, 6.12323399573677E-17, 0.000000000000000 ) );
#275 = DIRECTION( '', ( 6.12323399573677E-17, 1.00000000000000, 0.000000000000000 ) );
#276 = FILL_AREA_STYLE( '', ( #313 ) );
#277 = EDGE_CURVE( '', #314, #315, #316, .T. );
#278 = EDGE_CURVE( '', #315, #314, #317, .T. );
#279 = FILL_AREA_STYLE( '', ( #318 ) );
#280 = EDGE_CURVE( '', #319, #319, #320, .T. );
#281 = EDGE_CURVE( '', #321, #321, #322, .T. );
#282 = FILL_AREA_STYLE( '', ( #323 ) );
#283 = EDGE_CURVE( '', #324, #324, #325, .T. );
#284 = FILL_AREA_STYLE( '', ( #326 ) );
#285 = EDGE_CURVE( '', #327, #327, #328, .T. );
#286 = EDGE_CURVE( '', #329, #330, #331, .T. );
#287 = EDGE_CURVE( '', #330, #332, #333, .T. );
#288 = EDGE_CURVE( '', #334, #332, #335, .T. );
#289 = EDGE_CURVE( '', #334, #336, #337, .F. );
#290 = EDGE_CURVE( '', #336, #338, #339, .T. );
#291 = EDGE_CURVE( '', #338, #340, #341, .T. );
#292 = EDGE_CURVE( '', #342, #340, #343, .T. );
#293 = EDGE_CURVE( '', #342, #329, #344, .F. );
#294 = FILL_AREA_STYLE( '', ( #345 ) );
#295 = FILL_AREA_STYLE( '', ( #346 ) );
#296 = EDGE_CURVE( '', #315, #338, #347, .T. );
#297 = EDGE_CURVE( '', #336, #314, #348, .T. );
#298 = EDGE_CURVE( '', #340, #334, #349, .T. );
#299 = FILL_AREA_STYLE( '', ( #350 ) );
#300 = FILL_AREA_STYLE( '', ( #351 ) );
#301 = EDGE_CURVE( '', #329, #352, #353, .T. );
#302 = EDGE_CURVE( '', #352, #354, #355, .T. );
#303 = EDGE_CURVE( '', #354, #330, #356, .T. );
#304 = FILL_AREA_STYLE( '', ( #357 ) );
#305 = EDGE_CURVE( '', #332, #342, #358, .T. );
#306 = FILL_AREA_STYLE( '', ( #359 ) );
#307 = CARTESIAN_POINT( '', ( 100.000000000000, -9.02056207507940E-14, 0.000000000000000 ) );
#308 = EDGE_CURVE( '', #360, #360, #361, .T. );
#309 = FILL_AREA_STYLE( '', ( #362 ) );
#310 = EDGE_CURVE( '', #354, #352, #363, .T. );
#311 = FILL_AREA_STYLE( '', ( #364 ) );
#312 = FILL_AREA_STYLE( '', ( #365 ) );
#313 = FILL_AREA_STYLE_COLOUR( '', #366 );
#314 = VERTEX_POINT( '', #367 );
#315 = VERTEX_POINT( '', #368 );
#316 = CIRCLE( '', #369, 5.77300000000000 );
#317 = LINE( '', #370, #371 );
#318 = FILL_AREA_STYLE_COLOUR( '', #372 );
#319 = VERTEX_POINT( '', #373 );
#320 = CIRCLE( '', #374, 5.00000000000000 );
#321 = VERTEX_POINT( '', #375 );
#322 = CIRCLE( '', #376, 4.50000000000000 );
#323 = FILL_AREA_STYLE_COLOUR( '', #377 );
#324 = VERTEX_POINT( '', #378 );
#325 = CIRCLE( '', #379, 4.50000000000000 );
#326 = FILL_AREA_STYLE_COLOUR( '', #380 );
#327 = VERTEX_POINT( '', #381 );
#328 = CIRCLE( '', #382, 7.00000000000000 );
#329 = VERTEX_POINT( '', #383 );
#330 = VERTEX_POINT( '', #384 );
#331 = CIRCLE( '', #385, 7.00000000000000 );
#332 = VERTEX_POINT( '', #386 );
#333 = LINE( '', #387, #388 );
#334 = VERTEX_POINT( '', #389 );
#335 = CIRCLE( '', #390, 7.00000000000000 );
#336 = VERTEX_POINT( '', #391 );
#337 = LINE( '', #392, #393 );
#338 = VERTEX_POINT( '', #394 );
#339 = CIRCLE( '', #395, 7.00000000000000 );
#340 = VERTEX_POINT( '', #396 );
#341 = LINE( '', #397, #398 );
#342 = VERTEX_POINT( '', #399 );
#343 = CIRCLE( '', #400, 7.00000000000000 );
#344 = LINE( '', #401, #402 );
#345 = FILL_AREA_STYLE_COLOUR( '', #403 );
#346 = FILL_AREA_STYLE_COLOUR( '', #404 );
#347 = B_SPLINE_CURVE_WITH_KNOTS( '', 3, ( #405, #406, #407, #408 ), .UNSPECIFIED., .F., .F., ( 4, 4 ), ( 0.0288470734708196, 0.0305935337729002 ), .UNSPECIFIED. );
#348 = B_SPLINE_CURVE_WITH_KNOTS( '', 3, ( #409, #410, #411, #412 ), .UNSPECIFIED., .F., .F., ( 4, 4 ), ( 0.0119476865857433, 0.0136917789295996 ), .UNSPECIFIED. );
#349 = LINE( '', #413, #414 );
#350 = FILL_AREA_STYLE_COLOUR( '', #415 );
#351 = FILL_AREA_STYLE_COLOUR( '', #416 );
#352 = VERTEX_POINT( '', #417 );
#353 = B_SPLINE_CURVE_WITH_KNOTS( '', 3, ( #418, #419, #420, #421 ), .UNSPECIFIED., .F., .F., ( 4, 4 ), ( 0.0119476865857433, 0.0136917789295996 ), .UNSPECIFIED. );
#354 = VERTEX_POINT( '', #422 );
#355 = CIRCLE( '', #423, 5.77300000000000 );
#356 = B_SPLINE_CURVE_WITH_KNOTS( '', 3, ( #424, #425, #426, #427 ), .UNSPECIFIED., .F., .F., ( 4, 4 ), ( 0.0288470734708196, 0.0305935337729002 ), .UNSPECIFIED. );
#357 = FILL_AREA_STYLE_COLOUR( '', #428 );
#358 = LINE( '', #429, #430 );
#359 = FILL_AREA_STYLE_COLOUR( '', #431 );
#360 = VERTEX_POINT( '', #432 );
#361 = CIRCLE( '', #433, 5.00000000000000 );
#362 = FILL_AREA_STYLE_COLOUR( '', #434 );
#363 = LINE( '', #435, #436 );
#364 = FILL_AREA_STYLE_COLOUR( '', #437 );
#365 = FILL_AREA_STYLE_COLOUR( '', #438 );
#366 = COLOUR_RGB( '', 0.689999997600000, 0.689999997600000, 0.689999997600000 );
#367 = CARTESIAN_POINT( '', ( 1.42108547152020E-14, 0.900000000000020, -5.70241431325364 ) );
#368 = CARTESIAN_POINT( '', ( 1.42108547152020E-14, 0.900000000000020, 5.70241431325364 ) );
#369 = AXIS2_PLACEMENT_3D( '', #439, #440, #441 );
#370 = CARTESIAN_POINT( '', ( 1.42108547152020E-14, 0.900000000000020, 10.5000000000000 ) );
#371 = VECTOR( '', #442, 1000.00000000000 );
#372 = COLOUR_RGB( '', 0.689999997600000, 0.689999997600000, 0.689999997600000 );
#373 = CARTESIAN_POINT( '', ( 95.0000000000000, 5.00000000000002, 0.000000000000000 ) );
#374 = AXIS2_PLACEMENT_3D( '', #443, #444, #445 );
#375 = CARTESIAN_POINT( '', ( 95.0000000000000, 4.50000000000002, 0.000000000000000 ) );
#376 = AXIS2_PLACEMENT_3D( '', #446, #447, #448 );
#377 = COLOUR_RGB( '', 0.689999997600000, 0.689999997600000, 0.689999997600000 );
#378 = CARTESIAN_POINT( '', ( 89.1547600000000, 4.50000000000002, 0.000000000000000 ) );
#379 = AXIS2_PLACEMENT_3D( '', #449, #450, #451 );
#380 = COLOUR_RGB( '', 0.689999997600000, 0.689999997600000, 0.689999997600000 );
#381 = CARTESIAN_POINT( '', ( 88.0000000000000, 7.00000000000002, 0.000000000000000 ) );
#382 = AXIS2_PLACEMENT_3D( '', #452, #453, #454 );
#383 = CARTESIAN_POINT( '', ( 1.22700000000002, -0.899999999999974, 6.94190175672344 ) );
#384 = CARTESIAN_POINT( '', ( 1.22700000000002, -0.899999999999974, -6.94190175672344 ) );
#385 = AXIS2_PLACEMENT_3D( '', #455, #456, #457 );
#386 = CARTESIAN_POINT( '', ( 3.00000000000002, -0.899999999999979, -6.94190175672344 ) );
#387 = CARTESIAN_POINT( '', ( 100.000000000000, -0.899999999999980, -6.94190175672344 ) );
#388 = VECTOR( '', #458, 1000.00000000000 );
#389 = CARTESIAN_POINT( '', ( 3.00000000000002, 0.900000000000020, -6.94190175672344 ) );
#390 = AXIS2_PLACEMENT_3D( '', #459, #460, #461 );
#391 = CARTESIAN_POINT( '', ( 1.22700000000002, 0.900000000000027, -6.94190175672344 ) );
#392 = CARTESIAN_POINT( '', ( 100.000000000000, 0.900000000000020, -6.94190175672344 ) );
#393 = VECTOR( '', #462, 1000.00000000000 );
#394 = CARTESIAN_POINT( '', ( 1.22700000000002, 0.900000000000027, 6.94190175672344 ) );
#395 = AXIS2_PLACEMENT_3D( '', #463, #464, #465 );
#396 = CARTESIAN_POINT( '', ( 3.00000000000002, 0.900000000000020, 6.94190175672344 ) );
#397 = CARTESIAN_POINT( '', ( 100.000000000000, 0.900000000000020, 6.94190175672344 ) );
#398 = VECTOR( '', #466, 1000.00000000000 );
#399 = CARTESIAN_POINT( '', ( 3.00000000000002, -0.899999999999979, 6.94190175672344 ) );
#400 = AXIS2_PLACEMENT_3D( '', #467, #468, #469 );
#401 = CARTESIAN_POINT( '', ( 100.000000000000, -0.899999999999980, 6.94190175672344 ) );
#402 = VECTOR( '', #470, 1000.00000000000 );
#403 = COLOUR_RGB( '', 0.689999997600000, 0.689999997600000, 0.689999997600000 );
#404 = COLOUR_RGB( '', 0.689999997600000, 0.689999997600000, 0.689999997600000 );
#405 = CARTESIAN_POINT( '', ( 1.32711674203642E-14, 0.900000000000020, 5.70241431325364 ) );
#406 = CARTESIAN_POINT( '', ( 0.408551604172669, 0.900000000000020, 6.11602305532749 ) );
#407 = CARTESIAN_POINT( '', ( 0.817630928954759, 0.900000000000020, 6.52910658938455 ) );
#408 = CARTESIAN_POINT( '', ( 1.22700000000002, 0.900000000000020, 6.94190175672344 ) );
#409 = CARTESIAN_POINT( '', ( 1.22700000000001, 0.900000000000020, -6.94190175672345 ) );
#410 = CARTESIAN_POINT( '', ( 0.817629976282249, 0.900000000000020, -6.52910562873893 ) );
#411 = CARTESIAN_POINT( '', ( 0.408550449058598, 0.900000000000020, -6.11602188591518 ) );
#412 = CARTESIAN_POINT( '', ( 9.40904091503809E-15, 0.900000000000020, -5.70241431325365 ) );
#413 = CARTESIAN_POINT( '', ( 3.00000000000001, 0.900000000000020, 10.5000000000000 ) );
#414 = VECTOR( '', #471, 1000.00000000000 );
#415 = COLOUR_RGB( '', 0.689999997600000, 0.689999997600000, 0.689999997600000 );
#416 = COLOUR_RGB( '', 0.689999997600000, 0.689999997600000, 0.689999997600000 );
#417 = CARTESIAN_POINT( '', ( 1.42108547152020E-14, -0.899999999999979, 5.70241431325364 ) );
#418 = CARTESIAN_POINT( '', ( 1.22700000000001, -0.899999999999980, 6.94190175672345 ) );
#419 = CARTESIAN_POINT( '', ( 0.817629976282247, -0.899999999999980, 6.52910562873893 ) );
#420 = CARTESIAN_POINT( '', ( 0.408550449058596, -0.899999999999980, 6.11602188591518 ) );
#421 = CARTESIAN_POINT( '', ( 8.04378924018667E-15, -0.899999999999980, 5.70241431325365 ) );
#422 = CARTESIAN_POINT( '', ( 1.42108547152020E-14, -0.899999999999979, -5.70241431325364 ) );
#423 = AXIS2_PLACEMENT_3D( '', #472, #473, #474 );
#424 = CARTESIAN_POINT( '', ( 1.31617353780420E-14, -0.899999999999980, -5.70241431325364 ) );
#425 = CARTESIAN_POINT( '', ( 0.408551604172669, -0.899999999999980, -6.11602305532749 ) );
#426 = CARTESIAN_POINT( '', ( 0.817630928954758, -0.899999999999980, -6.52910658938455 ) );
#427 = CARTESIAN_POINT( '', ( 1.22700000000002, -0.899999999999980, -6.94190175672344 ) );
#428 = COLOUR_RGB( '', 0.689999997600000, 0.689999997600000, 0.689999997600000 );
#429 = CARTESIAN_POINT( '', ( 3.00000000000001, -0.899999999999980, -10.5000000000000 ) );
#430 = VECTOR( '', #475, 1000.00000000000 );
#431 = COLOUR_RGB( '', 0.689999997600000, 0.689999997600000, 0.689999997600000 );
#432 = CARTESIAN_POINT( '', ( 98.3466297046987, 5.00000000000002, 0.000000000000000 ) );
#433 = AXIS2_PLACEMENT_3D( '', #476, #477, #478 );
#434 = COLOUR_RGB( '', 0.689999997600000, 0.689999997600000, 0.689999997600000 );
#435 = CARTESIAN_POINT( '', ( 1.42108547152020E-14, -0.899999999999980, -10.5000000000000 ) );
#436 = VECTOR( '', #479, 1000.00000000000 );
#437 = COLOUR_RGB( '', 0.689999997600000, 0.689999997600000, 0.689999997600000 );
#438 = COLOUR_RGB( '', 0.689999997600000, 0.689999997600000, 0.689999997600000 );
#439 = CARTESIAN_POINT( '', ( 1.38777878078145E-14, 2.03340887109388E-14, 0.000000000000000 ) );
#440 = DIRECTION( '', ( 1.00000000000000, -6.12323399573677E-17, -0.000000000000000 ) );
#441 = DIRECTION( '', ( 6.12323399573677E-17, 1.00000000000000, 0.000000000000000 ) );
#442 = DIRECTION( '', ( 0.000000000000000, 0.000000000000000, -1.00000000000000 ) );
#443 = CARTESIAN_POINT( '', ( 95.0000000000000, 1.45170164149888E-14, 0.000000000000000 ) );
#444 = DIRECTION( '', ( 1.00000000000000, -6.12323399573677E-17, -0.000000000000000 ) );
#445 = DIRECTION( '', ( 6.12323399573677E-17, 1.00000000000000, 0.000000000000000 ) );
#446 = CARTESIAN_POINT( '', ( 95.0000000000000, 1.45170164149888E-14, 0.000000000000000 ) );
#447 = DIRECTION( '', ( 1.00000000000000, -6.12323399573677E-17, -0.000000000000000 ) );
#448 = DIRECTION( '', ( 6.12323399573677E-17, 1.00000000000000, 0.000000000000000 ) );
#449 = CARTESIAN_POINT( '', ( 89.1547600000000, 1.48749341378012E-14, 0.000000000000000 ) );
#450 = DIRECTION( '', ( 1.00000000000000, -6.12323399573677E-17, -0.000000000000000 ) );
#451 = DIRECTION( '', ( 6.12323399573677E-17, 1.00000000000000, 0.000000000000000 ) );
#452 = CARTESIAN_POINT( '', ( 88.0000000000000, 1.49456427946904E-14, 0.000000000000000 ) );
#453 = DIRECTION( '', ( 1.00000000000000, -6.12323399573677E-17, -0.000000000000000 ) );
#454 = DIRECTION( '', ( 6.12323399573677E-17, 1.00000000000000, 0.000000000000000 ) );
#455 = CARTESIAN_POINT( '', ( 1.22700000000002, 2.02589566298111E-14, 0.000000000000000 ) );
#456 = DIRECTION( '', ( 1.00000000000000, -6.12323399573677E-17, -0.000000000000000 ) );
#457 = DIRECTION( '', ( 6.12323399573677E-17, 1.00000000000000, 0.000000000000000 ) );
#458 = DIRECTION( '', ( 1.00000000000000, -6.12323399573677E-17, -0.000000000000000 ) );
#459 = CARTESIAN_POINT( '', ( 3.00000000000002, 2.01503916910667E-14, 0.000000000000000 ) );
#460 = DIRECTION( '', ( -1.00000000000000, 0.000000000000000, 0.000000000000000 ) );
#461 = DIRECTION( '', ( 0.000000000000000, 0.000000000000000, 1.00000000000000 ) );
#462 = DIRECTION( '', ( 1.00000000000000, -6.12323399573677E-17, -0.000000000000000 ) );
#463 = CARTESIAN_POINT( '', ( 1.22700000000002, 2.02589566298111E-14, 0.000000000000000 ) );
#464 = DIRECTION( '', ( 1.00000000000000, -6.12323399573677E-17, -0.000000000000000 ) );
#465 = DIRECTION( '', ( 6.12323399573677E-17, 1.00000000000000, 0.000000000000000 ) );
#466 = DIRECTION( '', ( 1.00000000000000, -6.12323399573677E-17, -0.000000000000000 ) );
#467 = CARTESIAN_POINT( '', ( 3.00000000000002, 2.01503916910667E-14, 0.000000000000000 ) );
#468 = DIRECTION( '', ( -1.00000000000000, 0.000000000000000, 0.000000000000000 ) );
#469 = DIRECTION( '', ( 0.000000000000000, 0.000000000000000, 1.00000000000000 ) );
#470 = DIRECTION( '', ( 1.00000000000000, -6.12323399573677E-17, -0.000000000000000 ) );
#471 = DIRECTION( '', ( 0.000000000000000, 0.000000000000000, -1.00000000000000 ) );
#472 = CARTESIAN_POINT( '', ( 1.38777878078145E-14, 2.03340887109388E-14, 0.000000000000000 ) );
#473 = DIRECTION( '', ( 1.00000000000000, -6.12323399573677E-17, -0.000000000000000 ) );
#474 = DIRECTION( '', ( 6.12323399573677E-17, 1.00000000000000, 0.000000000000000 ) );
#475 = DIRECTION( '', ( 0.000000000000000, 0.000000000000000, 1.00000000000000 ) );
#476 = CARTESIAN_POINT( '', ( 98.3466297046987, 1.43120944471993E-14, 0.000000000000000 ) );
#477 = DIRECTION( '', ( 1.00000000000000, -6.12323399573677E-17, -0.000000000000000 ) );
#478 = DIRECTION( '', ( 6.12323399573677E-17, 1.00000000000000, 0.000000000000000 ) );
#479 = DIRECTION( '', ( 0.000000000000000, 0.000000000000000, 1.00000000000000 ) );
ENDSEC;
END-ISO-10303-21;
