ISO-10303-21;
HEADER;
FILE_DESCRIPTION( ( 'STEP AP214' ), '1' );
FILE_NAME( '//goodhand-server/Shared Folders/GoodHand Data/Kipp CAD/K0163/K0163.1250X22.stp', '2020-11-26T10:29:55', ( '' ), ( '' ), ' ', 'PARTsolutions', ' ' );
FILE_SCHEMA( ( 'AUTOMOTIVE_DESIGN { 1 0 10303 214 1 1 1 1 }' ) );
ENDSEC;
DATA;
#1 = MECHANICAL_DESIGN_GEOMETRIC_PRESENTATION_REPRESENTATION( ' ', ( #10, #11, #12, #13, #14, #15, #16, #17, #18, #19, #20, #21, #22, #23, #24 ), #6 );
#2 = PRODUCT_DEFINITION_CONTEXT( '', #25, 'design' );
#3 = APPLICATION_PROTOCOL_DEFINITION( 'international standard', 'automotive_design', 2001, #25 );
#4 = PRODUCT_CATEGORY_RELATIONSHIP( 'NONE', 'NONE', #26, #27 );
#5 = SHAPE_DEFINITION_REPRESENTATION( #28, #29 );
#6 =  ( GEOMETRIC_REPRESENTATION_CONTEXT( 3 )GLOBAL_UNCERTAINTY_ASSIGNED_CONTEXT( ( #32 ) )GLOBAL_UNIT_ASSIGNED_CONTEXT( ( #34, #35, #36 ) )REPRESENTATION_CONTEXT( 'NONE', 'WORKSPACE' ) );
#10 = STYLED_ITEM( '', ( #38 ), #39 );
#11 = STYLED_ITEM( '', ( #40 ), #41 );
#12 = STYLED_ITEM( '', ( #42 ), #43 );
#13 = STYLED_ITEM( '', ( #44 ), #45 );
#14 = STYLED_ITEM( '', ( #46 ), #47 );
#15 = STYLED_ITEM( '', ( #48 ), #49 );
#16 = STYLED_ITEM( '', ( #50 ), #51 );
#17 = STYLED_ITEM( '', ( #52 ), #53 );
#18 = STYLED_ITEM( '', ( #54 ), #55 );
#19 = STYLED_ITEM( '', ( #56 ), #57 );
#20 = STYLED_ITEM( '', ( #58 ), #59 );
#21 = STYLED_ITEM( '', ( #60 ), #61 );
#22 = STYLED_ITEM( '', ( #62 ), #63 );
#23 = STYLED_ITEM( '', ( #64 ), #65 );
#24 = STYLED_ITEM( '', ( #66 ), #67 );
#25 = APPLICATION_CONTEXT( 'core data for automotive mechanical design processes' );
#26 = PRODUCT_CATEGORY( 'part', 'NONE' );
#27 = PRODUCT_RELATED_PRODUCT_CATEGORY( 'detail', ' ', ( #68 ) );
#28 = PRODUCT_DEFINITION_SHAPE( 'NONE', 'NONE', #69 );
#29 = ADVANCED_BREP_SHAPE_REPRESENTATION( '_K0163.1250X22', ( #70, #71 ), #6 );
#32 = UNCERTAINTY_MEASURE_WITH_UNIT( LENGTH_MEASURE( 0.00100000000000000 ), #34, '', '' );
#34 =  ( CONVERSION_BASED_UNIT( 'MILLIMETRE', #74 )LENGTH_UNIT(  )NAMED_UNIT( #77 ) );
#35 =  ( NAMED_UNIT( #79 )PLANE_ANGLE_UNIT(  )SI_UNIT( $, .RADIAN. ) );
#36 =  ( NAMED_UNIT( #79 )SI_UNIT( $, .STERADIAN. )SOLID_ANGLE_UNIT(  ) );
#38 = PRESENTATION_STYLE_ASSIGNMENT( ( #85 ) );
#39 = ADVANCED_FACE( '', ( #86, #87 ), #88, .T. );
#40 = PRESENTATION_STYLE_ASSIGNMENT( ( #89 ) );
#41 = ADVANCED_FACE( '', ( #90, #91, #92 ), #93, .T. );
#42 = PRESENTATION_STYLE_ASSIGNMENT( ( #94 ) );
#43 = ADVANCED_FACE( '', ( #95, #96 ), #97, .T. );
#44 = PRESENTATION_STYLE_ASSIGNMENT( ( #98 ) );
#45 = ADVANCED_FACE( '', ( #99, #100 ), #101, .F. );
#46 = PRESENTATION_STYLE_ASSIGNMENT( ( #102 ) );
#47 = ADVANCED_FACE( '', ( #103 ), #104, .F. );
#48 = PRESENTATION_STYLE_ASSIGNMENT( ( #105 ) );
#49 = ADVANCED_FACE( '', ( #106, #107 ), #108, .F. );
#50 = PRESENTATION_STYLE_ASSIGNMENT( ( #109 ) );
#51 = ADVANCED_FACE( '', ( #110 ), #111, .T. );
#52 = PRESENTATION_STYLE_ASSIGNMENT( ( #112 ) );
#53 = ADVANCED_FACE( '', ( #113 ), #114, .T. );
#54 = PRESENTATION_STYLE_ASSIGNMENT( ( #115 ) );
#55 = ADVANCED_FACE( '', ( #116, #117 ), #118, .F. );
#56 = PRESENTATION_STYLE_ASSIGNMENT( ( #119 ) );
#57 = ADVANCED_FACE( '', ( #120, #121 ), #122, .F. );
#58 = PRESENTATION_STYLE_ASSIGNMENT( ( #123 ) );
#59 = ADVANCED_FACE( '', ( #124 ), #125, .T. );
#60 = PRESENTATION_STYLE_ASSIGNMENT( ( #126 ) );
#61 = ADVANCED_FACE( '', ( #127, #128 ), #129, .F. );
#62 = PRESENTATION_STYLE_ASSIGNMENT( ( #130 ) );
#63 = ADVANCED_FACE( '', ( #131, #132 ), #133, .T. );
#64 = PRESENTATION_STYLE_ASSIGNMENT( ( #134 ) );
#65 = ADVANCED_FACE( '', ( #135, #136 ), #137, .T. );
#66 = PRESENTATION_STYLE_ASSIGNMENT( ( #138 ) );
#67 = ADVANCED_FACE( '', ( #139, #140 ), #141, .F. );
#68 = PRODUCT( '_K0163.1250X22', '_K0163.1250X22', 'PART-_K0163.1250X22-DESC', ( #142 ) );
#69 = PRODUCT_DEFINITION( 'NONE', 'NONE', #143, #2 );
#70 = MANIFOLD_SOLID_BREP( '_K0163.1250X22', #144 );
#71 = AXIS2_PLACEMENT_3D( '', #145, #146, #147 );
#74 = LENGTH_MEASURE_WITH_UNIT( LENGTH_MEASURE( 1.00000000000000 ), #148 );
#77 = DIMENSIONAL_EXPONENTS( 1.00000000000000, 0.000000000000000, 0.000000000000000, 0.000000000000000, 0.000000000000000, 0.000000000000000, 0.000000000000000 );
#79 = DIMENSIONAL_EXPONENTS( 0.000000000000000, 0.000000000000000, 0.000000000000000, 0.000000000000000, 0.000000000000000, 0.000000000000000, 0.000000000000000 );
#85 = SURFACE_STYLE_USAGE( .BOTH., #149 );
#86 = FACE_OUTER_BOUND( '', #150, .T. );
#87 = FACE_OUTER_BOUND( '', #151, .T. );
#88 = TOROIDAL_SURFACE( '', #152, 114.922162064400, 20.0000000000000 );
#89 = SURFACE_STYLE_USAGE( .BOTH., #153 );
#90 = FACE_BOUND( '', #154, .T. );
#91 = FACE_OUTER_BOUND( '', #155, .T. );
#92 = FACE_OUTER_BOUND( '', #156, .T. );
#93 = TOROIDAL_SURFACE( '', #157, 111.150000000000, 13.8500000000000 );
#94 = SURFACE_STYLE_USAGE( .BOTH., #158 );
#95 = FACE_OUTER_BOUND( '', #159, .T. );
#96 = FACE_OUTER_BOUND( '', #160, .T. );
#97 = CYLINDRICAL_SURFACE( '', #161, 24.5000000000000 );
#98 = SURFACE_STYLE_USAGE( .BOTH., #162 );
#99 = FACE_OUTER_BOUND( '', #163, .T. );
#100 = FACE_BOUND( '', #164, .T. );
#101 = PLANE( '', #165 );
#102 = SURFACE_STYLE_USAGE( .BOTH., #166 );
#103 = FACE_OUTER_BOUND( '', #167, .T. );
#104 = CYLINDRICAL_SURFACE( '', #168, 11.0000000000000 );
#105 = SURFACE_STYLE_USAGE( .BOTH., #169 );
#106 = FACE_OUTER_BOUND( '', #170, .T. );
#107 = FACE_BOUND( '', #171, .T. );
#108 = CONICAL_SURFACE( '', #172, 109.000000000000, 0.465690736400000 );
#109 = SURFACE_STYLE_USAGE( .BOTH., #173 );
#110 = FACE_OUTER_BOUND( '', #174, .T. );
#111 = PLANE( '', #175 );
#112 = SURFACE_STYLE_USAGE( .BOTH., #176 );
#113 = FACE_OUTER_BOUND( '', #177, .T. );
#114 = PLANE( '', #178 );
#115 = SURFACE_STYLE_USAGE( .BOTH., #179 );
#116 = FACE_BOUND( '', #180, .T. );
#117 = FACE_OUTER_BOUND( '', #181, .T. );
#118 = CONICAL_SURFACE( '', #182, 107.000000000000, 0.817645045800000 );
#119 = SURFACE_STYLE_USAGE( .BOTH., #183 );
#120 = FACE_BOUND( '', #184, .T. );
#121 = FACE_OUTER_BOUND( '', #185, .T. );
#122 = PLANE( '', #186 );
#123 = SURFACE_STYLE_USAGE( .BOTH., #187 );
#124 = FACE_OUTER_BOUND( '', #188, .T. );
#125 = PLANE( '', #189 );
#126 = SURFACE_STYLE_USAGE( .BOTH., #190 );
#127 = FACE_OUTER_BOUND( '', #191, .T. );
#128 = FACE_BOUND( '', #192, .T. );
#129 = CONICAL_SURFACE( '', #193, 24.5000000000000, 1.24101381660000 );
#130 = SURFACE_STYLE_USAGE( .BOTH., #194 );
#131 = FACE_BOUND( '', #195, .T. );
#132 = FACE_OUTER_BOUND( '', #196, .T. );
#133 = CONICAL_SURFACE( '', #197, 99.0000000000000, 1.25550250270000 );
#134 = SURFACE_STYLE_USAGE( .BOTH., #198 );
#135 = FACE_OUTER_BOUND( '', #199, .T. );
#136 = FACE_OUTER_BOUND( '', #200, .T. );
#137 = CYLINDRICAL_SURFACE( '', #201, 24.5000000000000 );
#138 = SURFACE_STYLE_USAGE( .BOTH., #202 );
#139 = FACE_BOUND( '', #203, .T. );
#140 = FACE_OUTER_BOUND( '', #204, .T. );
#141 = CONICAL_SURFACE( '', #205, 110.000000000000, 0.793433081600000 );
#142 = PRODUCT_CONTEXT( '', #25, 'mechanical' );
#143 = PRODUCT_DEFINITION_FORMATION_WITH_SPECIFIED_SOURCE( ' ', 'NONE', #68, .NOT_KNOWN. );
#144 = CLOSED_SHELL( '', ( #45, #51, #59, #47, #53, #57, #43, #63, #55, #67, #41, #49, #39, #61, #65 ) );
#145 = CARTESIAN_POINT( '', ( 0.000000000000000, 0.000000000000000, 0.000000000000000 ) );
#146 = DIRECTION( '', ( 0.000000000000000, 0.000000000000000, 1.00000000000000 ) );
#147 = DIRECTION( '', ( 1.00000000000000, 0.000000000000000, 0.000000000000000 ) );
#148 =  ( LENGTH_UNIT(  )NAMED_UNIT( #77 )SI_UNIT( .MILLI., .METRE. ) );
#149 = SURFACE_SIDE_STYLE( '', ( #207 ) );
#150 = EDGE_LOOP( '', ( #208 ) );
#151 = EDGE_LOOP( '', ( #209 ) );
#152 = AXIS2_PLACEMENT_3D( '', #210, #211, #212 );
#153 = SURFACE_SIDE_STYLE( '', ( #213 ) );
#154 = VERTEX_LOOP( '', #214 );
#155 = EDGE_LOOP( '', ( #215 ) );
#156 = EDGE_LOOP( '', ( #216 ) );
#157 = AXIS2_PLACEMENT_3D( '', #217, #218, #219 );
#158 = SURFACE_SIDE_STYLE( '', ( #220 ) );
#159 = EDGE_LOOP( '', ( #221 ) );
#160 = EDGE_LOOP( '', ( #222 ) );
#161 = AXIS2_PLACEMENT_3D( '', #223, #224, #225 );
#162 = SURFACE_SIDE_STYLE( '', ( #226 ) );
#163 = EDGE_LOOP( '', ( #227 ) );
#164 = EDGE_LOOP( '', ( #228, #229, #230, #231 ) );
#165 = AXIS2_PLACEMENT_3D( '', #232, #233, #234 );
#166 = SURFACE_SIDE_STYLE( '', ( #235 ) );
#167 = EDGE_LOOP( '', ( #236, #237, #238, #239 ) );
#168 = AXIS2_PLACEMENT_3D( '', #240, #241, #242 );
#169 = SURFACE_SIDE_STYLE( '', ( #243 ) );
#170 = EDGE_LOOP( '', ( #244 ) );
#171 = EDGE_LOOP( '', ( #245 ) );
#172 = AXIS2_PLACEMENT_3D( '', #246, #247, #248 );
#173 = SURFACE_SIDE_STYLE( '', ( #249 ) );
#174 = EDGE_LOOP( '', ( #250, #251, #252, #253 ) );
#175 = AXIS2_PLACEMENT_3D( '', #254, #255, #256 );
#176 = SURFACE_SIDE_STYLE( '', ( #257 ) );
#177 = EDGE_LOOP( '', ( #258, #259, #260, #261 ) );
#178 = AXIS2_PLACEMENT_3D( '', #262, #263, #264 );
#179 = SURFACE_SIDE_STYLE( '', ( #265 ) );
#180 = EDGE_LOOP( '', ( #266 ) );
#181 = EDGE_LOOP( '', ( #267 ) );
#182 = AXIS2_PLACEMENT_3D( '', #268, #269, #270 );
#183 = SURFACE_SIDE_STYLE( '', ( #271 ) );
#184 = EDGE_LOOP( '', ( #272, #273, #274, #275 ) );
#185 = EDGE_LOOP( '', ( #276 ) );
#186 = AXIS2_PLACEMENT_3D( '', #277, #278, #279 );
#187 = SURFACE_SIDE_STYLE( '', ( #280 ) );
#188 = EDGE_LOOP( '', ( #281, #282, #283, #284 ) );
#189 = AXIS2_PLACEMENT_3D( '', #285, #286, #287 );
#190 = SURFACE_SIDE_STYLE( '', ( #288 ) );
#191 = EDGE_LOOP( '', ( #289 ) );
#192 = EDGE_LOOP( '', ( #290 ) );
#193 = AXIS2_PLACEMENT_3D( '', #291, #292, #293 );
#194 = SURFACE_SIDE_STYLE( '', ( #294 ) );
#195 = EDGE_LOOP( '', ( #295 ) );
#196 = EDGE_LOOP( '', ( #296 ) );
#197 = AXIS2_PLACEMENT_3D( '', #297, #298, #299 );
#198 = SURFACE_SIDE_STYLE( '', ( #300 ) );
#199 = EDGE_LOOP( '', ( #301 ) );
#200 = EDGE_LOOP( '', ( #302 ) );
#201 = AXIS2_PLACEMENT_3D( '', #303, #304, #305 );
#202 = SURFACE_SIDE_STYLE( '', ( #306 ) );
#203 = EDGE_LOOP( '', ( #307 ) );
#204 = EDGE_LOOP( '', ( #308 ) );
#205 = AXIS2_PLACEMENT_3D( '', #309, #310, #311 );
#207 = SURFACE_STYLE_FILL_AREA( #312 );
#208 = ORIENTED_EDGE( '', *, *, #313, .T. );
#209 = ORIENTED_EDGE( '', *, *, #314, .F. );
#210 = CARTESIAN_POINT( '', ( 38.8969113365678, 0.000000000000000, 0.000000000000000 ) );
#211 = DIRECTION( '', ( -1.00000000000000, 0.000000000000000, 0.000000000000000 ) );
#212 = DIRECTION( '', ( 0.000000000000000, 0.000000000000000, 1.00000000000000 ) );
#213 = SURFACE_STYLE_FILL_AREA( #315 );
#214 = VERTEX_POINT( '', #316 );
#215 = ORIENTED_EDGE( '', *, *, #317, .T. );
#216 = ORIENTED_EDGE( '', *, *, #318, .F. );
#217 = CARTESIAN_POINT( '', ( 47.1500000000000, 0.000000000000000, 0.000000000000000 ) );
#218 = DIRECTION( '', ( -1.00000000000000, 0.000000000000000, 0.000000000000000 ) );
#219 = DIRECTION( '', ( 0.000000000000000, 0.000000000000000, 1.00000000000000 ) );
#220 = SURFACE_STYLE_FILL_AREA( #319 );
#221 = ORIENTED_EDGE( '', *, *, #320, .F. );
#222 = ORIENTED_EDGE( '', *, *, #321, .T. );
#223 = CARTESIAN_POINT( '', ( 0.000000000000000, 0.000000000000000, 0.000000000000000 ) );
#224 = DIRECTION( '', ( 1.00000000000000, -0.000000000000000, -0.000000000000000 ) );
#225 = DIRECTION( '', ( 0.000000000000000, 0.000000000000000, 1.00000000000000 ) );
#226 = SURFACE_STYLE_FILL_AREA( #322 );
#227 = ORIENTED_EDGE( '', *, *, #323, .F. );
#228 = ORIENTED_EDGE( '', *, *, #324, .F. );
#229 = ORIENTED_EDGE( '', *, *, #325, .F. );
#230 = ORIENTED_EDGE( '', *, *, #326, .F. );
#231 = ORIENTED_EDGE( '', *, *, #327, .F. );
#232 = CARTESIAN_POINT( '', ( 28.0000000000000, 0.000000000000000, 0.000000000000000 ) );
#233 = DIRECTION( '', ( -1.00000000000000, 0.000000000000000, 0.000000000000000 ) );
#234 = DIRECTION( '', ( 0.000000000000000, 0.000000000000000, 1.00000000000000 ) );
#235 = SURFACE_STYLE_FILL_AREA( #328 );
#236 = ORIENTED_EDGE( '', *, *, #327, .T. );
#237 = ORIENTED_EDGE( '', *, *, #329, .T. );
#238 = ORIENTED_EDGE( '', *, *, #330, .T. );
#239 = ORIENTED_EDGE( '', *, *, #331, .F. );
#240 = CARTESIAN_POINT( '', ( 42.0000000000000, 6.23416249179165E-16, 2.16840434497101E-16 ) );
#241 = DIRECTION( '', ( 1.00000000000000, -0.000000000000000, -0.000000000000000 ) );
#242 = DIRECTION( '', ( 0.000000000000000, 0.000000000000000, 1.00000000000000 ) );
#243 = SURFACE_STYLE_FILL_AREA( #332 );
#244 = ORIENTED_EDGE( '', *, *, #317, .F. );
#245 = ORIENTED_EDGE( '', *, *, #314, .T. );
#246 = CARTESIAN_POINT( '', ( 58.0000000000000, 0.000000000000000, 0.000000000000000 ) );
#247 = DIRECTION( '', ( 1.00000000000000, -0.000000000000000, 0.000000000000000 ) );
#248 = DIRECTION( '', ( 0.000000000000000, 0.000000000000000, -1.00000000000000 ) );
#249 = SURFACE_STYLE_FILL_AREA( #333 );
#250 = ORIENTED_EDGE( '', *, *, #325, .T. );
#251 = ORIENTED_EDGE( '', *, *, #334, .T. );
#252 = ORIENTED_EDGE( '', *, *, #335, .F. );
#253 = ORIENTED_EDGE( '', *, *, #336, .F. );
#254 = CARTESIAN_POINT( '', ( 42.0000000000000, 13.8000000000000, -3.00000000000000 ) );
#255 = DIRECTION( '', ( 0.000000000000000, -1.00000000000000, 0.000000000000000 ) );
#256 = DIRECTION( '', ( 0.000000000000000, 0.000000000000000, -1.00000000000000 ) );
#257 = SURFACE_STYLE_FILL_AREA( #337 );
#258 = ORIENTED_EDGE( '', *, *, #324, .T. );
#259 = ORIENTED_EDGE( '', *, *, #331, .T. );
#260 = ORIENTED_EDGE( '', *, *, #338, .F. );
#261 = ORIENTED_EDGE( '', *, *, #334, .F. );
#262 = CARTESIAN_POINT( '', ( 42.0000000000000, 13.8000000000000, 3.00000000000000 ) );
#263 = DIRECTION( '', ( 0.000000000000000, 0.000000000000000, -1.00000000000000 ) );
#264 = DIRECTION( '', ( -1.00000000000000, 0.000000000000000, 0.000000000000000 ) );
#265 = SURFACE_STYLE_FILL_AREA( #339 );
#266 = ORIENTED_EDGE( '', *, *, #340, .F. );
#267 = ORIENTED_EDGE( '', *, *, #341, .T. );
#268 = CARTESIAN_POINT( '', ( 36.3000000000000, 0.000000000000000, 0.000000000000000 ) );
#269 = DIRECTION( '', ( -1.00000000000000, -0.000000000000000, -0.000000000000000 ) );
#270 = DIRECTION( '', ( 0.000000000000000, 0.000000000000000, 1.00000000000000 ) );
#271 = SURFACE_STYLE_FILL_AREA( #342 );
#272 = ORIENTED_EDGE( '', *, *, #338, .T. );
#273 = ORIENTED_EDGE( '', *, *, #330, .F. );
#274 = ORIENTED_EDGE( '', *, *, #343, .T. );
#275 = ORIENTED_EDGE( '', *, *, #335, .T. );
#276 = ORIENTED_EDGE( '', *, *, #320, .T. );
#277 = CARTESIAN_POINT( '', ( 0.000000000000000, -24.5000000000000, 0.000000000000000 ) );
#278 = DIRECTION( '', ( 1.00000000000000, 0.000000000000000, 0.000000000000000 ) );
#279 = DIRECTION( '', ( 0.000000000000000, 0.000000000000000, -1.00000000000000 ) );
#280 = SURFACE_STYLE_FILL_AREA( #344 );
#281 = ORIENTED_EDGE( '', *, *, #326, .T. );
#282 = ORIENTED_EDGE( '', *, *, #336, .T. );
#283 = ORIENTED_EDGE( '', *, *, #343, .F. );
#284 = ORIENTED_EDGE( '', *, *, #329, .F. );
#285 = CARTESIAN_POINT( '', ( 42.0000000000000, 10.5830052442584, -3.00000000000000 ) );
#286 = DIRECTION( '', ( 0.000000000000000, 0.000000000000000, 1.00000000000000 ) );
#287 = DIRECTION( '', ( 1.00000000000000, 0.000000000000000, -0.000000000000000 ) );
#288 = SURFACE_STYLE_FILL_AREA( #345 );
#289 = ORIENTED_EDGE( '', *, *, #313, .F. );
#290 = ORIENTED_EDGE( '', *, *, #346, .T. );
#291 = CARTESIAN_POINT( '', ( 25.5000000000000, 0.000000000000000, 0.000000000000000 ) );
#292 = DIRECTION( '', ( 1.00000000000000, -0.000000000000000, 0.000000000000000 ) );
#293 = DIRECTION( '', ( 0.000000000000000, 0.000000000000000, -1.00000000000000 ) );
#294 = SURFACE_STYLE_FILL_AREA( #347 );
#295 = ORIENTED_EDGE( '', *, *, #321, .F. );
#296 = ORIENTED_EDGE( '', *, *, #340, .T. );
#297 = CARTESIAN_POINT( '', ( 43.8000000000000, 0.000000000000000, 0.000000000000000 ) );
#298 = DIRECTION( '', ( 1.00000000000000, -0.000000000000000, 0.000000000000000 ) );
#299 = DIRECTION( '', ( 0.000000000000000, 0.000000000000000, -1.00000000000000 ) );
#300 = SURFACE_STYLE_FILL_AREA( #348 );
#301 = ORIENTED_EDGE( '', *, *, #346, .F. );
#302 = ORIENTED_EDGE( '', *, *, #323, .T. );
#303 = CARTESIAN_POINT( '', ( 0.000000000000000, 0.000000000000000, 0.000000000000000 ) );
#304 = DIRECTION( '', ( 1.00000000000000, -0.000000000000000, -0.000000000000000 ) );
#305 = DIRECTION( '', ( 0.000000000000000, 0.000000000000000, 1.00000000000000 ) );
#306 = SURFACE_STYLE_FILL_AREA( #349 );
#307 = ORIENTED_EDGE( '', *, *, #341, .F. );
#308 = ORIENTED_EDGE( '', *, *, #318, .T. );
#309 = CARTESIAN_POINT( '', ( 33.3478262581578, 0.000000000000000, 0.000000000000000 ) );
#310 = DIRECTION( '', ( -1.00000000000000, -0.000000000000000, -0.000000000000000 ) );
#311 = DIRECTION( '', ( 0.000000000000000, 0.000000000000000, 1.00000000000000 ) );
#312 = FILL_AREA_STYLE( '', ( #350 ) );
#313 = EDGE_CURVE( '', #351, #351, #352, .T. );
#314 = EDGE_CURVE( '', #353, #353, #354, .T. );
#315 = FILL_AREA_STYLE( '', ( #355 ) );
#316 = CARTESIAN_POINT( '', ( 47.1500000000000, 0.000000000000000, 125.000000000000 ) );
#317 = EDGE_CURVE( '', #356, #356, #357, .T. );
#318 = EDGE_CURVE( '', #358, #358, #359, .T. );
#319 = FILL_AREA_STYLE( '', ( #360 ) );
#320 = EDGE_CURVE( '', #361, #361, #362, .T. );
#321 = EDGE_CURVE( '', #363, #363, #364, .T. );
#322 = FILL_AREA_STYLE( '', ( #365 ) );
#323 = EDGE_CURVE( '', #366, #366, #367, .T. );
#324 = EDGE_CURVE( '', #368, #369, #370, .T. );
#325 = EDGE_CURVE( '', #371, #368, #372, .T. );
#326 = EDGE_CURVE( '', #373, #371, #374, .T. );
#327 = EDGE_CURVE( '', #369, #373, #375, .F. );
#328 = FILL_AREA_STYLE( '', ( #376 ) );
#329 = EDGE_CURVE( '', #373, #377, #378, .T. );
#330 = EDGE_CURVE( '', #377, #379, #380, .F. );
#331 = EDGE_CURVE( '', #369, #379, #381, .T. );
#332 = FILL_AREA_STYLE( '', ( #382 ) );
#333 = FILL_AREA_STYLE( '', ( #383 ) );
#334 = EDGE_CURVE( '', #368, #384, #385, .T. );
#335 = EDGE_CURVE( '', #386, #384, #387, .T. );
#336 = EDGE_CURVE( '', #371, #386, #388, .T. );
#337 = FILL_AREA_STYLE( '', ( #389 ) );
#338 = EDGE_CURVE( '', #384, #379, #390, .T. );
#339 = FILL_AREA_STYLE( '', ( #391 ) );
#340 = EDGE_CURVE( '', #392, #392, #393, .T. );
#341 = EDGE_CURVE( '', #394, #394, #395, .T. );
#342 = FILL_AREA_STYLE( '', ( #396 ) );
#343 = EDGE_CURVE( '', #377, #386, #397, .T. );
#344 = FILL_AREA_STYLE( '', ( #398 ) );
#345 = FILL_AREA_STYLE( '', ( #399 ) );
#346 = EDGE_CURVE( '', #400, #400, #401, .T. );
#347 = FILL_AREA_STYLE( '', ( #402 ) );
#348 = FILL_AREA_STYLE( '', ( #403 ) );
#349 = FILL_AREA_STYLE( '', ( #404 ) );
#350 = FILL_AREA_STYLE_COLOUR( '', #405 );
#351 = VERTEX_POINT( '', #406 );
#352 = CIRCLE( '', #407, 99.0000000000000 );
#353 = VERTEX_POINT( '', #408 );
#354 = CIRCLE( '', #409, 109.000000000000 );
#355 = FILL_AREA_STYLE_COLOUR( '', #410 );
#356 = VERTEX_POINT( '', #411 );
#357 = CIRCLE( '', #412, 110.500000000000 );
#358 = VERTEX_POINT( '', #413 );
#359 = CIRCLE( '', #414, 110.000000000000 );
#360 = FILL_AREA_STYLE_COLOUR( '', #415 );
#361 = VERTEX_POINT( '', #416 );
#362 = CIRCLE( '', #417, 24.5000000000000 );
#363 = VERTEX_POINT( '', #418 );
#364 = CIRCLE( '', #419, 24.5000000000000 );
#365 = FILL_AREA_STYLE_COLOUR( '', #420 );
#366 = VERTEX_POINT( '', #421 );
#367 = CIRCLE( '', #422, 24.5000000000000 );
#368 = VERTEX_POINT( '', #423 );
#369 = VERTEX_POINT( '', #424 );
#370 = LINE( '', #425, #426 );
#371 = VERTEX_POINT( '', #427 );
#372 = LINE( '', #428, #429 );
#373 = VERTEX_POINT( '', #430 );
#374 = LINE( '', #431, #432 );
#375 = CIRCLE( '', #433, 11.0000000000000 );
#376 = FILL_AREA_STYLE_COLOUR( '', #434 );
#377 = VERTEX_POINT( '', #435 );
#378 = LINE( '', #436, #437 );
#379 = VERTEX_POINT( '', #438 );
#380 = CIRCLE( '', #439, 11.0000000000000 );
#381 = LINE( '', #440, #441 );
#382 = FILL_AREA_STYLE_COLOUR( '', #442 );
#383 = FILL_AREA_STYLE_COLOUR( '', #443 );
#384 = VERTEX_POINT( '', #444 );
#385 = LINE( '', #445, #446 );
#386 = VERTEX_POINT( '', #447 );
#387 = LINE( '', #448, #449 );
#388 = LINE( '', #450, #451 );
#389 = FILL_AREA_STYLE_COLOUR( '', #452 );
#390 = LINE( '', #453, #454 );
#391 = FILL_AREA_STYLE_COLOUR( '', #455 );
#392 = VERTEX_POINT( '', #456 );
#393 = CIRCLE( '', #457, 99.0000000000000 );
#394 = VERTEX_POINT( '', #458 );
#395 = CIRCLE( '', #459, 107.000000000000 );
#396 = FILL_AREA_STYLE_COLOUR( '', #460 );
#397 = LINE( '', #461, #462 );
#398 = FILL_AREA_STYLE_COLOUR( '', #463 );
#399 = FILL_AREA_STYLE_COLOUR( '', #464 );
#400 = VERTEX_POINT( '', #465 );
#401 = CIRCLE( '', #466, 24.5000000000000 );
#402 = FILL_AREA_STYLE_COLOUR( '', #467 );
#403 = FILL_AREA_STYLE_COLOUR( '', #468 );
#404 = FILL_AREA_STYLE_COLOUR( '', #469 );
#405 = COLOUR_RGB( '', 0.689999997600000, 0.689999997600000, 0.689999997600000 );
#406 = CARTESIAN_POINT( '', ( 51.0000000000000, 0.000000000000000, 99.0000000000000 ) );
#407 = AXIS2_PLACEMENT_3D( '', #470, #471, #472 );
#408 = CARTESIAN_POINT( '', ( 58.0000000000000, 0.000000000000000, 109.000000000000 ) );
#409 = AXIS2_PLACEMENT_3D( '', #473, #474, #475 );
#410 = COLOUR_RGB( '', 0.689999997600000, 0.689999997600000, 0.689999997600000 );
#411 = CARTESIAN_POINT( '', ( 60.9847388844170, 0.000000000000000, 110.500000000000 ) );
#412 = AXIS2_PLACEMENT_3D( '', #476, #477, #478 );
#413 = CARTESIAN_POINT( '', ( 33.3478262581578, 0.000000000000000, 110.000000000000 ) );
#414 = AXIS2_PLACEMENT_3D( '', #479, #480, #481 );
#415 = COLOUR_RGB( '', 0.689999997600000, 0.689999997600000, 0.689999997600000 );
#416 = CARTESIAN_POINT( '', ( 0.000000000000000, 0.000000000000000, 24.5000000000000 ) );
#417 = AXIS2_PLACEMENT_3D( '', #482, #483, #484 );
#418 = CARTESIAN_POINT( '', ( 19.5000000000000, 0.000000000000000, 24.5000000000000 ) );
#419 = AXIS2_PLACEMENT_3D( '', #485, #486, #487 );
#420 = COLOUR_RGB( '', 0.689999997600000, 0.689999997600000, 0.689999997600000 );
#421 = CARTESIAN_POINT( '', ( 28.0000000000000, 0.000000000000000, 24.5000000000000 ) );
#422 = AXIS2_PLACEMENT_3D( '', #488, #489, #490 );
#423 = CARTESIAN_POINT( '', ( 28.0000000000000, 13.8000000000000, 3.00000000000000 ) );
#424 = CARTESIAN_POINT( '', ( 28.0000000000000, 10.5830052442584, 3.00000000000000 ) );
#425 = CARTESIAN_POINT( '', ( 28.0000000000000, 0.000000000000000, 3.00000000000000 ) );
#426 = VECTOR( '', #491, 1000.00000000000 );
#427 = CARTESIAN_POINT( '', ( 28.0000000000000, 13.8000000000000, -3.00000000000000 ) );
#428 = CARTESIAN_POINT( '', ( 28.0000000000000, 13.8000000000000, 0.000000000000000 ) );
#429 = VECTOR( '', #492, 1000.00000000000 );
#430 = CARTESIAN_POINT( '', ( 28.0000000000000, 10.5830052442584, -2.99999999999999 ) );
#431 = CARTESIAN_POINT( '', ( 28.0000000000000, 0.000000000000000, -3.00000000000000 ) );
#432 = VECTOR( '', #493, 1000.00000000000 );
#433 = AXIS2_PLACEMENT_3D( '', #494, #495, #496 );
#434 = COLOUR_RGB( '', 0.689999997600000, 0.689999997600000, 0.689999997600000 );
#435 = CARTESIAN_POINT( '', ( 0.000000000000000, 10.5830052442584, -2.99999999999999 ) );
#436 = CARTESIAN_POINT( '', ( 42.0000000000000, 10.5830052442584, -2.99999999999999 ) );
#437 = VECTOR( '', #497, 1000.00000000000 );
#438 = CARTESIAN_POINT( '', ( 0.000000000000000, 10.5830052442584, 3.00000000000000 ) );
#439 = AXIS2_PLACEMENT_3D( '', #498, #499, #500 );
#440 = CARTESIAN_POINT( '', ( 42.0000000000000, 10.5830052442584, 3.00000000000000 ) );
#441 = VECTOR( '', #501, 1000.00000000000 );
#442 = COLOUR_RGB( '', 0.689999997600000, 0.689999997600000, 0.689999997600000 );
#443 = COLOUR_RGB( '', 0.689999997600000, 0.689999997600000, 0.689999997600000 );
#444 = CARTESIAN_POINT( '', ( 0.000000000000000, 13.8000000000000, 3.00000000000000 ) );
#445 = CARTESIAN_POINT( '', ( 42.0000000000000, 13.8000000000000, 3.00000000000000 ) );
#446 = VECTOR( '', #502, 1000.00000000000 );
#447 = CARTESIAN_POINT( '', ( 0.000000000000000, 13.8000000000000, -3.00000000000000 ) );
#448 = CARTESIAN_POINT( '', ( 0.000000000000000, 13.8000000000000, -3.00000000000000 ) );
#449 = VECTOR( '', #503, 1000.00000000000 );
#450 = CARTESIAN_POINT( '', ( 42.0000000000000, 13.8000000000000, -3.00000000000000 ) );
#451 = VECTOR( '', #504, 1000.00000000000 );
#452 = COLOUR_RGB( '', 0.689999997600000, 0.689999997600000, 0.689999997600000 );
#453 = CARTESIAN_POINT( '', ( 0.000000000000000, 13.8000000000000, 3.00000000000000 ) );
#454 = VECTOR( '', #505, 1000.00000000000 );
#455 = COLOUR_RGB( '', 0.689999997600000, 0.689999997600000, 0.689999997600000 );
#456 = CARTESIAN_POINT( '', ( 43.8000000000000, 0.000000000000000, 99.0000000000000 ) );
#457 = AXIS2_PLACEMENT_3D( '', #506, #507, #508 );
#458 = CARTESIAN_POINT( '', ( 36.3000000000000, 0.000000000000000, 107.000000000000 ) );
#459 = AXIS2_PLACEMENT_3D( '', #509, #510, #511 );
#460 = COLOUR_RGB( '', 0.689999997600000, 0.689999997600000, 0.689999997600000 );
#461 = CARTESIAN_POINT( '', ( 0.000000000000000, 10.5830052442584, -3.00000000000000 ) );
#462 = VECTOR( '', #512, 1000.00000000000 );
#463 = COLOUR_RGB( '', 0.689999997600000, 0.689999997600000, 0.689999997600000 );
#464 = COLOUR_RGB( '', 0.689999997600000, 0.689999997600000, 0.689999997600000 );
#465 = CARTESIAN_POINT( '', ( 25.5000000000000, 0.000000000000000, 24.5000000000000 ) );
#466 = AXIS2_PLACEMENT_3D( '', #513, #514, #515 );
#467 = COLOUR_RGB( '', 0.689999997600000, 0.689999997600000, 0.689999997600000 );
#468 = COLOUR_RGB( '', 0.689999997600000, 0.689999997600000, 0.689999997600000 );
#469 = COLOUR_RGB( '', 0.689999997600000, 0.689999997600000, 0.689999997600000 );
#470 = CARTESIAN_POINT( '', ( 51.0000000000000, 0.000000000000000, 0.000000000000000 ) );
#471 = DIRECTION( '', ( -1.00000000000000, 0.000000000000000, 0.000000000000000 ) );
#472 = DIRECTION( '', ( 0.000000000000000, 0.000000000000000, 1.00000000000000 ) );
#473 = CARTESIAN_POINT( '', ( 58.0000000000000, 0.000000000000000, 0.000000000000000 ) );
#474 = DIRECTION( '', ( -1.00000000000000, 0.000000000000000, 0.000000000000000 ) );
#475 = DIRECTION( '', ( 0.000000000000000, 0.000000000000000, 1.00000000000000 ) );
#476 = CARTESIAN_POINT( '', ( 60.9847388844170, 0.000000000000000, 0.000000000000000 ) );
#477 = DIRECTION( '', ( -1.00000000000000, 0.000000000000000, 0.000000000000000 ) );
#478 = DIRECTION( '', ( 0.000000000000000, 0.000000000000000, 1.00000000000000 ) );
#479 = CARTESIAN_POINT( '', ( 33.3478262581578, 0.000000000000000, 0.000000000000000 ) );
#480 = DIRECTION( '', ( -1.00000000000000, 0.000000000000000, 0.000000000000000 ) );
#481 = DIRECTION( '', ( 0.000000000000000, 0.000000000000000, 1.00000000000000 ) );
#482 = CARTESIAN_POINT( '', ( 0.000000000000000, 0.000000000000000, 0.000000000000000 ) );
#483 = DIRECTION( '', ( -1.00000000000000, 0.000000000000000, 0.000000000000000 ) );
#484 = DIRECTION( '', ( 0.000000000000000, 0.000000000000000, 1.00000000000000 ) );
#485 = CARTESIAN_POINT( '', ( 19.5000000000000, 0.000000000000000, 0.000000000000000 ) );
#486 = DIRECTION( '', ( -1.00000000000000, 0.000000000000000, 0.000000000000000 ) );
#487 = DIRECTION( '', ( 0.000000000000000, 0.000000000000000, 1.00000000000000 ) );
#488 = CARTESIAN_POINT( '', ( 28.0000000000000, 0.000000000000000, 0.000000000000000 ) );
#489 = DIRECTION( '', ( -1.00000000000000, 0.000000000000000, 0.000000000000000 ) );
#490 = DIRECTION( '', ( 0.000000000000000, 0.000000000000000, 1.00000000000000 ) );
#491 = DIRECTION( '', ( 0.000000000000000, -1.00000000000000, 0.000000000000000 ) );
#492 = DIRECTION( '', ( 0.000000000000000, 0.000000000000000, 1.00000000000000 ) );
#493 = DIRECTION( '', ( 0.000000000000000, 1.00000000000000, 0.000000000000000 ) );
#494 = CARTESIAN_POINT( '', ( 28.0000000000000, 6.23416249179165E-16, 2.16840434497101E-16 ) );
#495 = DIRECTION( '', ( -1.00000000000000, 0.000000000000000, 0.000000000000000 ) );
#496 = DIRECTION( '', ( 0.000000000000000, 0.000000000000000, 1.00000000000000 ) );
#497 = DIRECTION( '', ( -1.00000000000000, -0.000000000000000, -0.000000000000000 ) );
#498 = CARTESIAN_POINT( '', ( 0.000000000000000, 6.23416249179165E-16, 2.16840434497101E-16 ) );
#499 = DIRECTION( '', ( 1.00000000000000, 0.000000000000000, 0.000000000000000 ) );
#500 = DIRECTION( '', ( 0.000000000000000, 0.000000000000000, -1.00000000000000 ) );
#501 = DIRECTION( '', ( -1.00000000000000, -0.000000000000000, -0.000000000000000 ) );
#502 = DIRECTION( '', ( -1.00000000000000, -0.000000000000000, -0.000000000000000 ) );
#503 = DIRECTION( '', ( 0.000000000000000, 0.000000000000000, 1.00000000000000 ) );
#504 = DIRECTION( '', ( -1.00000000000000, -0.000000000000000, -0.000000000000000 ) );
#505 = DIRECTION( '', ( 0.000000000000000, -1.00000000000000, 0.000000000000000 ) );
#506 = CARTESIAN_POINT( '', ( 43.8000000000000, 0.000000000000000, 0.000000000000000 ) );
#507 = DIRECTION( '', ( -1.00000000000000, 0.000000000000000, 0.000000000000000 ) );
#508 = DIRECTION( '', ( 0.000000000000000, 0.000000000000000, 1.00000000000000 ) );
#509 = CARTESIAN_POINT( '', ( 36.3000000000000, 0.000000000000000, 0.000000000000000 ) );
#510 = DIRECTION( '', ( -1.00000000000000, 0.000000000000000, 0.000000000000000 ) );
#511 = DIRECTION( '', ( 0.000000000000000, 0.000000000000000, 1.00000000000000 ) );
#512 = DIRECTION( '', ( 0.000000000000000, 1.00000000000000, 0.000000000000000 ) );
#513 = CARTESIAN_POINT( '', ( 25.5000000000000, 0.000000000000000, 0.000000000000000 ) );
#514 = DIRECTION( '', ( -1.00000000000000, 0.000000000000000, 0.000000000000000 ) );
#515 = DIRECTION( '', ( 0.000000000000000, 0.000000000000000, 1.00000000000000 ) );
ENDSEC;
END-ISO-10303-21;
