ISO-10303-21;
HEADER;
FILE_DESCRIPTION( ( 'STEP AP214' ), '1' );
FILE_NAME( '//goodhand-server/Shared Folders/GoodHand Data/Kipp CAD/K0390/K0390.121X70.stp', '2020-12-07T10:15:49', ( '' ), ( '' ), ' ', 'PARTsolutions', ' ' );
FILE_SCHEMA( ( 'AUTOMOTIVE_DESIGN { 1 0 10303 214 1 1 1 1 }' ) );
ENDSEC;
DATA;
#1 = MECHANICAL_DESIGN_GEOMETRIC_PRESENTATION_REPRESENTATION( ' ', ( #10, #11, #12, #13, #14, #15, #16, #17, #18, #19, #20, #21, #22 ), #6 );
#2 = PRODUCT_DEFINITION_CONTEXT( '', #23, 'design' );
#3 = APPLICATION_PROTOCOL_DEFINITION( 'international standard', 'automotive_design', 2001, #23 );
#4 = PRODUCT_CATEGORY_RELATIONSHIP( 'NONE', 'NONE', #24, #25 );
#5 = SHAPE_DEFINITION_REPRESENTATION( #26, #27 );
#6 =  ( GEOMETRIC_REPRESENTATION_CONTEXT( 3 )GLOBAL_UNCERTAINTY_ASSIGNED_CONTEXT( ( #30 ) )GLOBAL_UNIT_ASSIGNED_CONTEXT( ( #32, #33, #34 ) )REPRESENTATION_CONTEXT( 'NONE', 'WORKSPACE' ) );
#10 = STYLED_ITEM( '', ( #36 ), #37 );
#11 = STYLED_ITEM( '', ( #38 ), #39 );
#12 = STYLED_ITEM( '', ( #40 ), #41 );
#13 = STYLED_ITEM( '', ( #42 ), #43 );
#14 = STYLED_ITEM( '', ( #44 ), #45 );
#15 = STYLED_ITEM( '', ( #46 ), #47 );
#16 = STYLED_ITEM( '', ( #48 ), #49 );
#17 = STYLED_ITEM( '', ( #50 ), #51 );
#18 = STYLED_ITEM( '', ( #52 ), #53 );
#19 = STYLED_ITEM( '', ( #54 ), #55 );
#20 = STYLED_ITEM( '', ( #56 ), #57 );
#21 = STYLED_ITEM( '', ( #58 ), #59 );
#22 = STYLED_ITEM( '', ( #60 ), #61 );
#23 = APPLICATION_CONTEXT( 'core data for automotive mechanical design processes' );
#24 = PRODUCT_CATEGORY( 'part', 'NONE' );
#25 = PRODUCT_RELATED_PRODUCT_CATEGORY( 'detail', ' ', ( #62 ) );
#26 = PRODUCT_DEFINITION_SHAPE( 'NONE', 'NONE', #63 );
#27 = ADVANCED_BREP_SHAPE_REPRESENTATION( '_K0390.121X70', ( #64, #65 ), #6 );
#30 = UNCERTAINTY_MEASURE_WITH_UNIT( LENGTH_MEASURE( 0.00100000000000000 ), #32, '', '' );
#32 =  ( CONVERSION_BASED_UNIT( 'MILLIMETRE', #68 )LENGTH_UNIT(  )NAMED_UNIT( #71 ) );
#33 =  ( NAMED_UNIT( #73 )PLANE_ANGLE_UNIT(  )SI_UNIT( $, .RADIAN. ) );
#34 =  ( NAMED_UNIT( #73 )SI_UNIT( $, .STERADIAN. )SOLID_ANGLE_UNIT(  ) );
#36 = PRESENTATION_STYLE_ASSIGNMENT( ( #79 ) );
#37 = ADVANCED_FACE( '', ( #80 ), #81, .T. );
#38 = PRESENTATION_STYLE_ASSIGNMENT( ( #82 ) );
#39 = ADVANCED_FACE( '', ( #83 ), #84, .F. );
#40 = PRESENTATION_STYLE_ASSIGNMENT( ( #85 ) );
#41 = ADVANCED_FACE( '', ( #86 ), #87, .F. );
#42 = PRESENTATION_STYLE_ASSIGNMENT( ( #88 ) );
#43 = ADVANCED_FACE( '', ( #89 ), #90, .F. );
#44 = PRESENTATION_STYLE_ASSIGNMENT( ( #91 ) );
#45 = ADVANCED_FACE( '', ( #92, #93 ), #94, .T. );
#46 = PRESENTATION_STYLE_ASSIGNMENT( ( #95 ) );
#47 = ADVANCED_FACE( '', ( #96, #97 ), #98, .F. );
#48 = PRESENTATION_STYLE_ASSIGNMENT( ( #99 ) );
#49 = ADVANCED_FACE( '', ( #100, #101 ), #102, .T. );
#50 = PRESENTATION_STYLE_ASSIGNMENT( ( #103 ) );
#51 = ADVANCED_FACE( '', ( #104 ), #105, .T. );
#52 = PRESENTATION_STYLE_ASSIGNMENT( ( #106 ) );
#53 = ADVANCED_FACE( '', ( #107, #108 ), #109, .T. );
#54 = PRESENTATION_STYLE_ASSIGNMENT( ( #110 ) );
#55 = ADVANCED_FACE( '', ( #111, #112 ), #113, .T. );
#56 = PRESENTATION_STYLE_ASSIGNMENT( ( #114 ) );
#57 = ADVANCED_FACE( '', ( #115 ), #116, .T. );
#58 = PRESENTATION_STYLE_ASSIGNMENT( ( #117 ) );
#59 = ADVANCED_FACE( '', ( #118, #119 ), #120, .T. );
#60 = PRESENTATION_STYLE_ASSIGNMENT( ( #121 ) );
#61 = ADVANCED_FACE( '', ( #122 ), #123, .F. );
#62 = PRODUCT( '_K0390.121X70', '_K0390.121X70', 'PART-_K0390.121X70-DESC', ( #124 ) );
#63 = PRODUCT_DEFINITION( 'NONE', 'NONE', #125, #2 );
#64 = MANIFOLD_SOLID_BREP( '_K0390.121X70', #126 );
#65 = AXIS2_PLACEMENT_3D( '', #127, #128, #129 );
#68 = LENGTH_MEASURE_WITH_UNIT( LENGTH_MEASURE( 1.00000000000000 ), #130 );
#71 = DIMENSIONAL_EXPONENTS( 1.00000000000000, 0.000000000000000, 0.000000000000000, 0.000000000000000, 0.000000000000000, 0.000000000000000, 0.000000000000000 );
#73 = DIMENSIONAL_EXPONENTS( 0.000000000000000, 0.000000000000000, 0.000000000000000, 0.000000000000000, 0.000000000000000, 0.000000000000000, 0.000000000000000 );
#79 = SURFACE_STYLE_USAGE( .BOTH., #131 );
#80 = FACE_OUTER_BOUND( '', #132, .T. );
#81 = CONICAL_SURFACE( '', #133, 4.92650000000000, 0.785398163400000 );
#82 = SURFACE_STYLE_USAGE( .BOTH., #134 );
#83 = FACE_OUTER_BOUND( '', #135, .T. );
#84 = PLANE( '', #136 );
#85 = SURFACE_STYLE_USAGE( .BOTH., #137 );
#86 = FACE_OUTER_BOUND( '', #138, .T. );
#87 = PLANE( '', #139 );
#88 = SURFACE_STYLE_USAGE( .BOTH., #140 );
#89 = FACE_OUTER_BOUND( '', #141, .T. );
#90 = PLANE( '', #142 );
#91 = SURFACE_STYLE_USAGE( .BOTH., #143 );
#92 = FACE_BOUND( '', #144, .T. );
#93 = FACE_OUTER_BOUND( '', #145, .T. );
#94 = CONICAL_SURFACE( '', #146, 6.00000000000000, 1.18946407340000 );
#95 = SURFACE_STYLE_USAGE( .BOTH., #147 );
#96 = FACE_OUTER_BOUND( '', #148, .T. );
#97 = FACE_BOUND( '', #149, .T. );
#98 = PLANE( '', #150 );
#99 = SURFACE_STYLE_USAGE( .BOTH., #151 );
#100 = FACE_OUTER_BOUND( '', #152, .T. );
#101 = FACE_OUTER_BOUND( '', #153, .T. );
#102 = CYLINDRICAL_SURFACE( '', #154, 3.60000000000000 );
#103 = SURFACE_STYLE_USAGE( .BOTH., #155 );
#104 = FACE_OUTER_BOUND( '', #156, .T. );
#105 = CONICAL_SURFACE( '', #157, 4.92650000000000, 0.785398163400000 );
#106 = SURFACE_STYLE_USAGE( .BOTH., #158 );
#107 = FACE_OUTER_BOUND( '', #159, .T. );
#108 = FACE_OUTER_BOUND( '', #160, .T. );
#109 = CYLINDRICAL_SURFACE( '', #161, 4.00000000000000 );
#110 = SURFACE_STYLE_USAGE( .BOTH., #162 );
#111 = FACE_BOUND( '', #163, .T. );
#112 = FACE_OUTER_BOUND( '', #164, .T. );
#113 = SPHERICAL_SURFACE( '', #165, 6.70960000000000 );
#114 = SURFACE_STYLE_USAGE( .BOTH., #166 );
#115 = FACE_OUTER_BOUND( '', #167, .T. );
#116 = PLANE( '', #168 );
#117 = SURFACE_STYLE_USAGE( .BOTH., #169 );
#118 = FACE_OUTER_BOUND( '', #170, .T. );
#119 = FACE_OUTER_BOUND( '', #171, .T. );
#120 = CYLINDRICAL_SURFACE( '', #172, 6.00000000000000 );
#121 = SURFACE_STYLE_USAGE( .BOTH., #173 );
#122 = FACE_OUTER_BOUND( '', #174, .T. );
#123 = PLANE( '', #175 );
#124 = PRODUCT_CONTEXT( '', #23, 'mechanical' );
#125 = PRODUCT_DEFINITION_FORMATION_WITH_SPECIFIED_SOURCE( ' ', 'NONE', #62, .NOT_KNOWN. );
#126 = CLOSED_SHELL( '', ( #39, #61, #55, #53, #47, #49, #45, #59, #37, #41, #51, #43, #57 ) );
#127 = CARTESIAN_POINT( '', ( 0.000000000000000, 0.000000000000000, 0.000000000000000 ) );
#128 = DIRECTION( '', ( 0.000000000000000, 0.000000000000000, 1.00000000000000 ) );
#129 = DIRECTION( '', ( 1.00000000000000, 0.000000000000000, 0.000000000000000 ) );
#130 =  ( LENGTH_UNIT(  )NAMED_UNIT( #71 )SI_UNIT( .MILLI., .METRE. ) );
#131 = SURFACE_SIDE_STYLE( '', ( #177 ) );
#132 = EDGE_LOOP( '', ( #178, #179, #180, #181 ) );
#133 = AXIS2_PLACEMENT_3D( '', #182, #183, #184 );
#134 = SURFACE_SIDE_STYLE( '', ( #185 ) );
#135 = EDGE_LOOP( '', ( #186, #187, #188, #189, #190, #191 ) );
#136 = AXIS2_PLACEMENT_3D( '', #192, #193, #194 );
#137 = SURFACE_SIDE_STYLE( '', ( #195 ) );
#138 = EDGE_LOOP( '', ( #196, #197 ) );
#139 = AXIS2_PLACEMENT_3D( '', #198, #199, #200 );
#140 = SURFACE_SIDE_STYLE( '', ( #201 ) );
#141 = EDGE_LOOP( '', ( #202, #203 ) );
#142 = AXIS2_PLACEMENT_3D( '', #204, #205, #206 );
#143 = SURFACE_SIDE_STYLE( '', ( #207 ) );
#144 = EDGE_LOOP( '', ( #208 ) );
#145 = EDGE_LOOP( '', ( #209 ) );
#146 = AXIS2_PLACEMENT_3D( '', #210, #211, #212 );
#147 = SURFACE_SIDE_STYLE( '', ( #213 ) );
#148 = EDGE_LOOP( '', ( #214 ) );
#149 = EDGE_LOOP( '', ( #215 ) );
#150 = AXIS2_PLACEMENT_3D( '', #216, #217, #218 );
#151 = SURFACE_SIDE_STYLE( '', ( #219 ) );
#152 = EDGE_LOOP( '', ( #220 ) );
#153 = EDGE_LOOP( '', ( #221 ) );
#154 = AXIS2_PLACEMENT_3D( '', #222, #223, #224 );
#155 = SURFACE_SIDE_STYLE( '', ( #225 ) );
#156 = EDGE_LOOP( '', ( #226, #227, #228, #229 ) );
#157 = AXIS2_PLACEMENT_3D( '', #230, #231, #232 );
#158 = SURFACE_SIDE_STYLE( '', ( #233 ) );
#159 = EDGE_LOOP( '', ( #234 ) );
#160 = EDGE_LOOP( '', ( #235 ) );
#161 = AXIS2_PLACEMENT_3D( '', #236, #237, #238 );
#162 = SURFACE_SIDE_STYLE( '', ( #239 ) );
#163 = VERTEX_LOOP( '', #240 );
#164 = EDGE_LOOP( '', ( #241 ) );
#165 = AXIS2_PLACEMENT_3D( '', #242, #243, #244 );
#166 = SURFACE_SIDE_STYLE( '', ( #245 ) );
#167 = EDGE_LOOP( '', ( #246, #247, #248, #249 ) );
#168 = AXIS2_PLACEMENT_3D( '', #250, #251, #252 );
#169 = SURFACE_SIDE_STYLE( '', ( #253 ) );
#170 = EDGE_LOOP( '', ( #254 ) );
#171 = EDGE_LOOP( '', ( #255, #256, #257, #258, #259, #260, #261, #262 ) );
#172 = AXIS2_PLACEMENT_3D( '', #263, #264, #265 );
#173 = SURFACE_SIDE_STYLE( '', ( #266 ) );
#174 = EDGE_LOOP( '', ( #267, #268, #269, #270, #271, #272 ) );
#175 = AXIS2_PLACEMENT_3D( '', #273, #274, #275 );
#177 = SURFACE_STYLE_FILL_AREA( #276 );
#178 = ORIENTED_EDGE( '', *, *, #277, .T. );
#179 = ORIENTED_EDGE( '', *, *, #278, .T. );
#180 = ORIENTED_EDGE( '', *, *, #279, .F. );
#181 = ORIENTED_EDGE( '', *, *, #280, .T. );
#182 = CARTESIAN_POINT( '', ( 1.38777878078145E-14, 1.31680479940170E-14, 0.000000000000000 ) );
#183 = DIRECTION( '', ( 1.00000000000000, -6.12323399573677E-17, -0.000000000000000 ) );
#184 = DIRECTION( '', ( 6.12323399573677E-17, 1.00000000000000, 0.000000000000000 ) );
#185 = SURFACE_STYLE_FILL_AREA( #281 );
#186 = ORIENTED_EDGE( '', *, *, #278, .F. );
#187 = ORIENTED_EDGE( '', *, *, #282, .T. );
#188 = ORIENTED_EDGE( '', *, *, #280, .F. );
#189 = ORIENTED_EDGE( '', *, *, #283, .F. );
#190 = ORIENTED_EDGE( '', *, *, #284, .F. );
#191 = ORIENTED_EDGE( '', *, *, #285, .F. );
#192 = CARTESIAN_POINT( '', ( 3.00000000000001, 0.900000000000013, 10.5000000000000 ) );
#193 = DIRECTION( '', ( 0.000000000000000, 1.00000000000000, 0.000000000000000 ) );
#194 = DIRECTION( '', ( 0.000000000000000, -0.000000000000000, 1.00000000000000 ) );
#195 = SURFACE_STYLE_FILL_AREA( #286 );
#196 = ORIENTED_EDGE( '', *, *, #287, .F. );
#197 = ORIENTED_EDGE( '', *, *, #288, .F. );
#198 = CARTESIAN_POINT( '', ( 1.40600241538020E-14, 1.31680479940170E-14, 0.000000000000000 ) );
#199 = DIRECTION( '', ( 1.00000000000000, -6.12323399573677E-17, -0.000000000000000 ) );
#200 = DIRECTION( '', ( 6.12323399573677E-17, 1.00000000000000, 0.000000000000000 ) );
#201 = SURFACE_STYLE_FILL_AREA( #289 );
#202 = ORIENTED_EDGE( '', *, *, #277, .F. );
#203 = ORIENTED_EDGE( '', *, *, #282, .F. );
#204 = CARTESIAN_POINT( '', ( 1.40600241538020E-14, 1.31680479940170E-14, 0.000000000000000 ) );
#205 = DIRECTION( '', ( 1.00000000000000, -6.12323399573677E-17, -0.000000000000000 ) );
#206 = DIRECTION( '', ( 6.12323399573677E-17, 1.00000000000000, 0.000000000000000 ) );
#207 = SURFACE_STYLE_FILL_AREA( #290 );
#208 = ORIENTED_EDGE( '', *, *, #291, .F. );
#209 = ORIENTED_EDGE( '', *, *, #292, .T. );
#210 = CARTESIAN_POINT( '', ( 60.0000000000000, 9.49410759657493E-15, 0.000000000000000 ) );
#211 = DIRECTION( '', ( -1.00000000000000, 6.12323399573677E-17, -0.000000000000000 ) );
#212 = DIRECTION( '', ( -6.12323399573677E-17, -1.00000000000000, 0.000000000000000 ) );
#213 = SURFACE_STYLE_FILL_AREA( #293 );
#214 = ORIENTED_EDGE( '', *, *, #294, .F. );
#215 = ORIENTED_EDGE( '', *, *, #295, .T. );
#216 = CARTESIAN_POINT( '', ( 65.5000000000000, 3.60000000000001, 0.000000000000000 ) );
#217 = DIRECTION( '', ( 1.00000000000000, -6.12323399573677E-17, -0.000000000000000 ) );
#218 = DIRECTION( '', ( 6.12323399573677E-17, 1.00000000000000, 0.000000000000000 ) );
#219 = SURFACE_STYLE_FILL_AREA( #296 );
#220 = ORIENTED_EDGE( '', *, *, #295, .F. );
#221 = ORIENTED_EDGE( '', *, *, #291, .T. );
#222 = CARTESIAN_POINT( '', ( 70.0000000000000, 8.88178419700125E-15, 0.000000000000000 ) );
#223 = DIRECTION( '', ( -1.00000000000000, 6.12323399573677E-17, 0.000000000000000 ) );
#224 = DIRECTION( '', ( 6.12323399573677E-17, 1.00000000000000, 0.000000000000000 ) );
#225 = SURFACE_STYLE_FILL_AREA( #297 );
#226 = ORIENTED_EDGE( '', *, *, #298, .F. );
#227 = ORIENTED_EDGE( '', *, *, #299, .T. );
#228 = ORIENTED_EDGE( '', *, *, #287, .T. );
#229 = ORIENTED_EDGE( '', *, *, #300, .T. );
#230 = CARTESIAN_POINT( '', ( 1.38777878078145E-14, 1.31680479940170E-14, 0.000000000000000 ) );
#231 = DIRECTION( '', ( 1.00000000000000, -6.12323399573677E-17, -0.000000000000000 ) );
#232 = DIRECTION( '', ( 6.12323399573677E-17, 1.00000000000000, 0.000000000000000 ) );
#233 = SURFACE_STYLE_FILL_AREA( #301 );
#234 = ORIENTED_EDGE( '', *, *, #302, .F. );
#235 = ORIENTED_EDGE( '', *, *, #294, .T. );
#236 = CARTESIAN_POINT( '', ( 70.0000000000000, 8.88178419700125E-15, 0.000000000000000 ) );
#237 = DIRECTION( '', ( -1.00000000000000, 6.12323399573677E-17, 0.000000000000000 ) );
#238 = DIRECTION( '', ( 6.12323399573677E-17, 1.00000000000000, 0.000000000000000 ) );
#239 = SURFACE_STYLE_FILL_AREA( #303 );
#240 = VERTEX_POINT( '', #304 );
#241 = ORIENTED_EDGE( '', *, *, #302, .T. );
#242 = CARTESIAN_POINT( '', ( 63.2904000000000, 5.63785129692462E-15, 0.000000000000000 ) );
#243 = DIRECTION( '', ( 1.00000000000000, 0.000000000000000, 0.000000000000000 ) );
#244 = DIRECTION( '', ( 0.000000000000000, 1.00000000000000, 0.000000000000000 ) );
#245 = SURFACE_STYLE_FILL_AREA( #305 );
#246 = ORIENTED_EDGE( '', *, *, #306, .T. );
#247 = ORIENTED_EDGE( '', *, *, #307, .T. );
#248 = ORIENTED_EDGE( '', *, *, #308, .T. );
#249 = ORIENTED_EDGE( '', *, *, #284, .T. );
#250 = CARTESIAN_POINT( '', ( 3.00000000000001, -0.000000000000000, -0.000000000000000 ) );
#251 = DIRECTION( '', ( -1.00000000000000, 0.000000000000000, 0.000000000000000 ) );
#252 = DIRECTION( '', ( 0.000000000000000, 0.000000000000000, 1.00000000000000 ) );
#253 = SURFACE_STYLE_FILL_AREA( #309 );
#254 = ORIENTED_EDGE( '', *, *, #292, .F. );
#255 = ORIENTED_EDGE( '', *, *, #298, .T. );
#256 = ORIENTED_EDGE( '', *, *, #310, .T. );
#257 = ORIENTED_EDGE( '', *, *, #306, .F. );
#258 = ORIENTED_EDGE( '', *, *, #283, .T. );
#259 = ORIENTED_EDGE( '', *, *, #279, .T. );
#260 = ORIENTED_EDGE( '', *, *, #285, .T. );
#261 = ORIENTED_EDGE( '', *, *, #308, .F. );
#262 = ORIENTED_EDGE( '', *, *, #311, .T. );
#263 = CARTESIAN_POINT( '', ( 70.0000000000000, 8.88178419700125E-15, 0.000000000000000 ) );
#264 = DIRECTION( '', ( -1.00000000000000, 6.12323399573677E-17, 0.000000000000000 ) );
#265 = DIRECTION( '', ( 6.12323399573677E-17, 1.00000000000000, 0.000000000000000 ) );
#266 = SURFACE_STYLE_FILL_AREA( #312 );
#267 = ORIENTED_EDGE( '', *, *, #288, .T. );
#268 = ORIENTED_EDGE( '', *, *, #299, .F. );
#269 = ORIENTED_EDGE( '', *, *, #311, .F. );
#270 = ORIENTED_EDGE( '', *, *, #307, .F. );
#271 = ORIENTED_EDGE( '', *, *, #310, .F. );
#272 = ORIENTED_EDGE( '', *, *, #300, .F. );
#273 = CARTESIAN_POINT( '', ( 3.00000000000001, -0.899999999999987, -10.5000000000000 ) );
#274 = DIRECTION( '', ( 0.000000000000000, -1.00000000000000, 0.000000000000000 ) );
#275 = DIRECTION( '', ( 0.000000000000000, 0.000000000000000, -1.00000000000000 ) );
#276 = FILL_AREA_STYLE( '', ( #313 ) );
#277 = EDGE_CURVE( '', #314, #315, #316, .T. );
#278 = EDGE_CURVE( '', #315, #317, #318, .T. );
#279 = EDGE_CURVE( '', #319, #317, #320, .T. );
#280 = EDGE_CURVE( '', #319, #314, #321, .T. );
#281 = FILL_AREA_STYLE( '', ( #322 ) );
#282 = EDGE_CURVE( '', #315, #314, #323, .T. );
#283 = EDGE_CURVE( '', #324, #319, #325, .F. );
#284 = EDGE_CURVE( '', #326, #324, #327, .T. );
#285 = EDGE_CURVE( '', #317, #326, #328, .T. );
#286 = FILL_AREA_STYLE( '', ( #329 ) );
#287 = EDGE_CURVE( '', #330, #331, #332, .T. );
#288 = EDGE_CURVE( '', #331, #330, #333, .T. );
#289 = FILL_AREA_STYLE( '', ( #334 ) );
#290 = FILL_AREA_STYLE( '', ( #335 ) );
#291 = EDGE_CURVE( '', #336, #336, #337, .T. );
#292 = EDGE_CURVE( '', #338, #338, #339, .T. );
#293 = FILL_AREA_STYLE( '', ( #340 ) );
#294 = EDGE_CURVE( '', #341, #341, #342, .T. );
#295 = EDGE_CURVE( '', #343, #343, #344, .T. );
#296 = FILL_AREA_STYLE( '', ( #345 ) );
#297 = FILL_AREA_STYLE( '', ( #346 ) );
#298 = EDGE_CURVE( '', #347, #348, #349, .T. );
#299 = EDGE_CURVE( '', #347, #330, #350, .T. );
#300 = EDGE_CURVE( '', #331, #348, #351, .T. );
#301 = FILL_AREA_STYLE( '', ( #352 ) );
#302 = EDGE_CURVE( '', #353, #353, #354, .T. );
#303 = FILL_AREA_STYLE( '', ( #355 ) );
#304 = CARTESIAN_POINT( '', ( 70.0000000000000, 5.63785129692462E-15, 0.000000000000000 ) );
#305 = FILL_AREA_STYLE( '', ( #356 ) );
#306 = EDGE_CURVE( '', #324, #357, #358, .T. );
#307 = EDGE_CURVE( '', #357, #359, #360, .T. );
#308 = EDGE_CURVE( '', #359, #326, #361, .T. );
#309 = FILL_AREA_STYLE( '', ( #362 ) );
#310 = EDGE_CURVE( '', #348, #357, #363, .T. );
#311 = EDGE_CURVE( '', #359, #347, #364, .F. );
#312 = FILL_AREA_STYLE( '', ( #365 ) );
#313 = FILL_AREA_STYLE_COLOUR( '', #366 );
#314 = VERTEX_POINT( '', #367 );
#315 = VERTEX_POINT( '', #368 );
#316 = CIRCLE( '', #369, 4.92650000000000 );
#317 = VERTEX_POINT( '', #370 );
#318 = B_SPLINE_CURVE_WITH_KNOTS( '', 3, ( #371, #372, #373, #374 ), .UNSPECIFIED., .F., .F., ( 4, 4 ), ( 0.0245656796122453, 0.0261075036220750 ), .UNSPECIFIED. );
#319 = VERTEX_POINT( '', #375 );
#320 = CIRCLE( '', #376, 6.00000000000000 );
#321 = B_SPLINE_CURVE_WITH_KNOTS( '', 3, ( #377, #378, #379, #380 ), .UNSPECIFIED., .F., .F., ( 4, 4 ), ( 0.0102495533465439, 0.0117783706769766 ), .UNSPECIFIED. );
#322 = FILL_AREA_STYLE_COLOUR( '', #381 );
#323 = LINE( '', #382, #383 );
#324 = VERTEX_POINT( '', #384 );
#325 = LINE( '', #385, #386 );
#326 = VERTEX_POINT( '', #387 );
#327 = LINE( '', #388, #389 );
#328 = LINE( '', #390, #391 );
#329 = FILL_AREA_STYLE_COLOUR( '', #392 );
#330 = VERTEX_POINT( '', #393 );
#331 = VERTEX_POINT( '', #394 );
#332 = CIRCLE( '', #395, 4.92650000000000 );
#333 = LINE( '', #396, #397 );
#334 = FILL_AREA_STYLE_COLOUR( '', #398 );
#335 = FILL_AREA_STYLE_COLOUR( '', #399 );
#336 = VERTEX_POINT( '', #400 );
#337 = CIRCLE( '', #401, 3.60000000000000 );
#338 = VERTEX_POINT( '', #402 );
#339 = CIRCLE( '', #403, 6.00000000000000 );
#340 = FILL_AREA_STYLE_COLOUR( '', #404 );
#341 = VERTEX_POINT( '', #405 );
#342 = CIRCLE( '', #406, 4.00000000000000 );
#343 = VERTEX_POINT( '', #407 );
#344 = CIRCLE( '', #408, 3.60000000000000 );
#345 = FILL_AREA_STYLE_COLOUR( '', #409 );
#346 = FILL_AREA_STYLE_COLOUR( '', #410 );
#347 = VERTEX_POINT( '', #411 );
#348 = VERTEX_POINT( '', #412 );
#349 = CIRCLE( '', #413, 6.00000000000000 );
#350 = B_SPLINE_CURVE_WITH_KNOTS( '', 3, ( #414, #415, #416, #417 ), .UNSPECIFIED., .F., .F., ( 4, 4 ), ( 0.0102495533465439, 0.0117783706769766 ), .UNSPECIFIED. );
#351 = B_SPLINE_CURVE_WITH_KNOTS( '', 3, ( #418, #419, #420, #421 ), .UNSPECIFIED., .F., .F., ( 4, 4 ), ( 0.0245656796122453, 0.0261075036220749 ), .UNSPECIFIED. );
#352 = FILL_AREA_STYLE_COLOUR( '', #422 );
#353 = VERTEX_POINT( '', #423 );
#354 = CIRCLE( '', #424, 4.00000000000000 );
#355 = FILL_AREA_STYLE_COLOUR( '', #425 );
#356 = FILL_AREA_STYLE_COLOUR( '', #426 );
#357 = VERTEX_POINT( '', #427 );
#358 = CIRCLE( '', #428, 6.00000000000000 );
#359 = VERTEX_POINT( '', #429 );
#360 = LINE( '', #430, #431 );
#361 = CIRCLE( '', #432, 6.00000000000000 );
#362 = FILL_AREA_STYLE_COLOUR( '', #433 );
#363 = LINE( '', #434, #435 );
#364 = LINE( '', #436, #437 );
#365 = FILL_AREA_STYLE_COLOUR( '', #438 );
#366 = COLOUR_RGB( '', 0.689999997600000, 0.689999997600000, 0.689999997600000 );
#367 = CARTESIAN_POINT( '', ( 1.42108547152020E-14, 0.900000000000013, -4.84359393942143 ) );
#368 = CARTESIAN_POINT( '', ( 1.42108547152020E-14, 0.900000000000013, 4.84359393942143 ) );
#369 = AXIS2_PLACEMENT_3D( '', #439, #440, #441 );
#370 = CARTESIAN_POINT( '', ( 1.07350000000002, 0.900000000000017, 5.93211597998556 ) );
#371 = CARTESIAN_POINT( '', ( 1.37167623932757E-14, 0.900000000000013, 4.84359393942143 ) );
#372 = CARTESIAN_POINT( '', ( 0.357276898579824, 0.900000000000013, 5.20698621855697 ) );
#373 = CARTESIAN_POINT( '', ( 0.715211048721695, 0.900000000000013, 5.56972695810484 ) );
#374 = CARTESIAN_POINT( '', ( 1.07350000000002, 0.900000000000013, 5.93211597998556 ) );
#375 = CARTESIAN_POINT( '', ( 1.07350000000002, 0.900000000000017, -5.93211597998556 ) );
#376 = AXIS2_PLACEMENT_3D( '', #442, #443, #444 );
#377 = CARTESIAN_POINT( '', ( 1.07350000000002, 0.900000000000013, -5.93211597998556 ) );
#378 = CARTESIAN_POINT( '', ( 0.715209951210074, 0.900000000000013, -5.56972584803387 ) );
#379 = CARTESIAN_POINT( '', ( 0.357275562011640, 0.900000000000013, -5.20698485911122 ) );
#380 = CARTESIAN_POINT( '', ( 1.43129528655447E-14, 0.900000000000013, -4.84359393942143 ) );
#381 = COLOUR_RGB( '', 0.689999997600000, 0.689999997600000, 0.689999997600000 );
#382 = CARTESIAN_POINT( '', ( 1.42108547152020E-14, 0.900000000000013, 10.5000000000000 ) );
#383 = VECTOR( '', #445, 1000.00000000000 );
#384 = CARTESIAN_POINT( '', ( 3.00000000000002, 0.900000000000013, -5.93211597998556 ) );
#385 = CARTESIAN_POINT( '', ( 70.0000000000000, 0.900000000000013, -5.93211597998556 ) );
#386 = VECTOR( '', #446, 1000.00000000000 );
#387 = CARTESIAN_POINT( '', ( 3.00000000000002, 0.900000000000013, 5.93211597998556 ) );
#388 = CARTESIAN_POINT( '', ( 3.00000000000001, 0.900000000000013, 10.5000000000000 ) );
#389 = VECTOR( '', #447, 1000.00000000000 );
#390 = CARTESIAN_POINT( '', ( 70.0000000000000, 0.900000000000013, 5.93211597998556 ) );
#391 = VECTOR( '', #448, 1000.00000000000 );
#392 = COLOUR_RGB( '', 0.689999997600000, 0.689999997600000, 0.689999997600000 );
#393 = CARTESIAN_POINT( '', ( 1.42108547152020E-14, -0.899999999999987, 4.84359393942143 ) );
#394 = CARTESIAN_POINT( '', ( 1.42108547152020E-14, -0.899999999999987, -4.84359393942143 ) );
#395 = AXIS2_PLACEMENT_3D( '', #449, #450, #451 );
#396 = CARTESIAN_POINT( '', ( 1.42108547152020E-14, -0.899999999999987, -10.5000000000000 ) );
#397 = VECTOR( '', #452, 1000.00000000000 );
#398 = COLOUR_RGB( '', 0.689999997600000, 0.689999997600000, 0.689999997600000 );
#399 = COLOUR_RGB( '', 0.689999997600000, 0.689999997600000, 0.689999997600000 );
#400 = CARTESIAN_POINT( '', ( 60.9623000000000, 3.60000000000001, 0.000000000000000 ) );
#401 = AXIS2_PLACEMENT_3D( '', #453, #454, #455 );
#402 = CARTESIAN_POINT( '', ( 60.0000000000000, 6.00000000000001, 0.000000000000000 ) );
#403 = AXIS2_PLACEMENT_3D( '', #456, #457, #458 );
#404 = COLOUR_RGB( '', 0.689999997600000, 0.689999997600000, 0.689999997600000 );
#405 = CARTESIAN_POINT( '', ( 65.5000000000000, 4.00000000000001, 0.000000000000000 ) );
#406 = AXIS2_PLACEMENT_3D( '', #459, #460, #461 );
#407 = CARTESIAN_POINT( '', ( 65.5000000000000, 3.60000000000001, 0.000000000000000 ) );
#408 = AXIS2_PLACEMENT_3D( '', #462, #463, #464 );
#409 = COLOUR_RGB( '', 0.689999997600000, 0.689999997600000, 0.689999997600000 );
#410 = COLOUR_RGB( '', 0.689999997600000, 0.689999997600000, 0.689999997600000 );
#411 = CARTESIAN_POINT( '', ( 1.07350000000002, -0.899999999999983, 5.93211597998556 ) );
#412 = CARTESIAN_POINT( '', ( 1.07350000000002, -0.899999999999983, -5.93211597998556 ) );
#413 = AXIS2_PLACEMENT_3D( '', #465, #466, #467 );
#414 = CARTESIAN_POINT( '', ( 1.07350000000002, -0.899999999999987, 5.93211597998556 ) );
#415 = CARTESIAN_POINT( '', ( 0.715209951210074, -0.899999999999987, 5.56972584803387 ) );
#416 = CARTESIAN_POINT( '', ( 0.357275562011638, -0.899999999999987, 5.20698485911122 ) );
#417 = CARTESIAN_POINT( '', ( 1.29424752768897E-14, -0.899999999999987, 4.84359393942143 ) );
#418 = CARTESIAN_POINT( '', ( 1.35539518712764E-14, -0.899999999999987, -4.84359393942143 ) );
#419 = CARTESIAN_POINT( '', ( 0.357276898579824, -0.899999999999987, -5.20698621855697 ) );
#420 = CARTESIAN_POINT( '', ( 0.715211048721697, -0.899999999999987, -5.56972695810484 ) );
#421 = CARTESIAN_POINT( '', ( 1.07350000000002, -0.899999999999987, -5.93211597998556 ) );
#422 = COLOUR_RGB( '', 0.689999997600000, 0.689999997600000, 0.689999997600000 );
#423 = CARTESIAN_POINT( '', ( 68.6773037637589, 4.00000000000001, 0.000000000000000 ) );
#424 = AXIS2_PLACEMENT_3D( '', #468, #469, #470 );
#425 = COLOUR_RGB( '', 0.689999997600000, 0.689999997600000, 0.689999997600000 );
#426 = COLOUR_RGB( '', 0.689999997600000, 0.689999997600000, 0.689999997600000 );
#427 = CARTESIAN_POINT( '', ( 3.00000000000002, -0.899999999999987, -5.93211597998556 ) );
#428 = AXIS2_PLACEMENT_3D( '', #471, #472, #473 );
#429 = CARTESIAN_POINT( '', ( 3.00000000000002, -0.899999999999987, 5.93211597998556 ) );
#430 = CARTESIAN_POINT( '', ( 3.00000000000001, -0.899999999999987, -10.5000000000000 ) );
#431 = VECTOR( '', #474, 1000.00000000000 );
#432 = AXIS2_PLACEMENT_3D( '', #475, #476, #477 );
#433 = COLOUR_RGB( '', 0.689999997600000, 0.689999997600000, 0.689999997600000 );
#434 = CARTESIAN_POINT( '', ( 70.0000000000000, -0.899999999999987, -5.93211597998556 ) );
#435 = VECTOR( '', #478, 1000.00000000000 );
#436 = CARTESIAN_POINT( '', ( 70.0000000000000, -0.899999999999987, 5.93211597998556 ) );
#437 = VECTOR( '', #479, 1000.00000000000 );
#438 = COLOUR_RGB( '', 0.689999997600000, 0.689999997600000, 0.689999997600000 );
#439 = CARTESIAN_POINT( '', ( 1.38777878078145E-14, 1.31680479940170E-14, 0.000000000000000 ) );
#440 = DIRECTION( '', ( 1.00000000000000, -6.12323399573677E-17, -0.000000000000000 ) );
#441 = DIRECTION( '', ( 6.12323399573677E-17, 1.00000000000000, 0.000000000000000 ) );
#442 = CARTESIAN_POINT( '', ( 1.07350000000002, 1.31023150770728E-14, 0.000000000000000 ) );
#443 = DIRECTION( '', ( 1.00000000000000, -6.12323399573677E-17, -0.000000000000000 ) );
#444 = DIRECTION( '', ( 6.12323399573677E-17, 1.00000000000000, 0.000000000000000 ) );
#445 = DIRECTION( '', ( 0.000000000000000, 0.000000000000000, -1.00000000000000 ) );
#446 = DIRECTION( '', ( 1.00000000000000, -6.12323399573677E-17, -0.000000000000000 ) );
#447 = DIRECTION( '', ( 0.000000000000000, 0.000000000000000, -1.00000000000000 ) );
#448 = DIRECTION( '', ( 1.00000000000000, -6.12323399573677E-17, -0.000000000000000 ) );
#449 = CARTESIAN_POINT( '', ( 1.38777878078145E-14, 1.31680479940170E-14, 0.000000000000000 ) );
#450 = DIRECTION( '', ( 1.00000000000000, -6.12323399573677E-17, -0.000000000000000 ) );
#451 = DIRECTION( '', ( 6.12323399573677E-17, 1.00000000000000, 0.000000000000000 ) );
#452 = DIRECTION( '', ( 0.000000000000000, 0.000000000000000, 1.00000000000000 ) );
#453 = CARTESIAN_POINT( '', ( 60.9623000000000, 9.43518371583395E-15, 0.000000000000000 ) );
#454 = DIRECTION( '', ( 1.00000000000000, -6.12323399573677E-17, -0.000000000000000 ) );
#455 = DIRECTION( '', ( 6.12323399573677E-17, 1.00000000000000, 0.000000000000000 ) );
#456 = CARTESIAN_POINT( '', ( 60.0000000000000, 9.49410759657493E-15, 0.000000000000000 ) );
#457 = DIRECTION( '', ( 1.00000000000000, -6.12323399573677E-17, -0.000000000000000 ) );
#458 = DIRECTION( '', ( 6.12323399573677E-17, 1.00000000000000, 0.000000000000000 ) );
#459 = CARTESIAN_POINT( '', ( 65.5000000000000, 9.15732972680941E-15, 0.000000000000000 ) );
#460 = DIRECTION( '', ( 1.00000000000000, -6.12323399573677E-17, -0.000000000000000 ) );
#461 = DIRECTION( '', ( 6.12323399573677E-17, 1.00000000000000, 0.000000000000000 ) );
#462 = CARTESIAN_POINT( '', ( 65.5000000000000, 9.15732972680941E-15, 0.000000000000000 ) );
#463 = DIRECTION( '', ( 1.00000000000000, -6.12323399573677E-17, -0.000000000000000 ) );
#464 = DIRECTION( '', ( 6.12323399573677E-17, 1.00000000000000, 0.000000000000000 ) );
#465 = CARTESIAN_POINT( '', ( 1.07350000000002, 1.31023150770728E-14, 0.000000000000000 ) );
#466 = DIRECTION( '', ( 1.00000000000000, -6.12323399573677E-17, -0.000000000000000 ) );
#467 = DIRECTION( '', ( 6.12323399573677E-17, 1.00000000000000, 0.000000000000000 ) );
#468 = CARTESIAN_POINT( '', ( 68.6773037637589, 8.96277598259910E-15, 0.000000000000000 ) );
#469 = DIRECTION( '', ( 1.00000000000000, -6.12323399573677E-17, -0.000000000000000 ) );
#470 = DIRECTION( '', ( 6.12323399573677E-17, 1.00000000000000, 0.000000000000000 ) );
#471 = CARTESIAN_POINT( '', ( 3.00000000000002, 1.29843509741449E-14, 0.000000000000000 ) );
#472 = DIRECTION( '', ( -1.00000000000000, 0.000000000000000, 0.000000000000000 ) );
#473 = DIRECTION( '', ( 0.000000000000000, 0.000000000000000, 1.00000000000000 ) );
#474 = DIRECTION( '', ( 0.000000000000000, 0.000000000000000, 1.00000000000000 ) );
#475 = CARTESIAN_POINT( '', ( 3.00000000000002, 1.29843509741449E-14, 0.000000000000000 ) );
#476 = DIRECTION( '', ( -1.00000000000000, 0.000000000000000, 0.000000000000000 ) );
#477 = DIRECTION( '', ( 0.000000000000000, 0.000000000000000, 1.00000000000000 ) );
#478 = DIRECTION( '', ( 1.00000000000000, -6.12323399573677E-17, -0.000000000000000 ) );
#479 = DIRECTION( '', ( 1.00000000000000, -6.12323399573677E-17, -0.000000000000000 ) );
ENDSEC;
END-ISO-10303-21;
