ISO-10303-21;
HEADER;
FILE_DESCRIPTION( ( 'STEP AP214' ), '1' );
FILE_NAME( '//goodhand-server/Shared Folders/GoodHand Data/Kipp CAD/K0697/K0697.27125.stp', '2020-12-09T12:02:30', ( '' ), ( '' ), ' ', 'PARTsolutions', ' ' );
FILE_SCHEMA( ( 'AUTOMOTIVE_DESIGN { 1 0 10303 214 1 1 1 1 }' ) );
ENDSEC;
DATA;
#1 = MECHANICAL_DESIGN_GEOMETRIC_PRESENTATION_REPRESENTATION( ' ', ( #10, #11, #12, #13, #14, #15, #16, #17, #18 ), #6 );
#2 = PRODUCT_DEFINITION_CONTEXT( '', #19, 'design' );
#3 = APPLICATION_PROTOCOL_DEFINITION( 'international standard', 'automotive_design', 2001, #19 );
#4 = PRODUCT_CATEGORY_RELATIONSHIP( 'NONE', 'NONE', #20, #21 );
#5 = SHAPE_DEFINITION_REPRESENTATION( #22, #23 );
#6 =  ( GEOMETRIC_REPRESENTATION_CONTEXT( 3 )GLOBAL_UNCERTAINTY_ASSIGNED_CONTEXT( ( #26 ) )GLOBAL_UNIT_ASSIGNED_CONTEXT( ( #28, #29, #30 ) )REPRESENTATION_CONTEXT( 'NONE', 'WORKSPACE' ) );
#10 = STYLED_ITEM( '', ( #32 ), #33 );
#11 = STYLED_ITEM( '', ( #34 ), #35 );
#12 = STYLED_ITEM( '', ( #36 ), #37 );
#13 = STYLED_ITEM( '', ( #38 ), #39 );
#14 = STYLED_ITEM( '', ( #40 ), #41 );
#15 = STYLED_ITEM( '', ( #42 ), #43 );
#16 = STYLED_ITEM( '', ( #44 ), #45 );
#17 = STYLED_ITEM( '', ( #46 ), #47 );
#18 = STYLED_ITEM( '', ( #48 ), #49 );
#19 = APPLICATION_CONTEXT( 'core data for automotive mechanical design processes' );
#20 = PRODUCT_CATEGORY( 'part', 'NONE' );
#21 = PRODUCT_RELATED_PRODUCT_CATEGORY( 'detail', ' ', ( #50 ) );
#22 = PRODUCT_DEFINITION_SHAPE( 'NONE', 'NONE', #51 );
#23 = ADVANCED_BREP_SHAPE_REPRESENTATION( '_K0697.27125', ( #52, #53 ), #6 );
#26 = UNCERTAINTY_MEASURE_WITH_UNIT( LENGTH_MEASURE( 0.00100000000000000 ), #28, '', '' );
#28 =  ( CONVERSION_BASED_UNIT( 'MILLIMETRE', #56 )LENGTH_UNIT(  )NAMED_UNIT( #59 ) );
#29 =  ( NAMED_UNIT( #61 )PLANE_ANGLE_UNIT(  )SI_UNIT( $, .RADIAN. ) );
#30 =  ( NAMED_UNIT( #61 )SI_UNIT( $, .STERADIAN. )SOLID_ANGLE_UNIT(  ) );
#32 = PRESENTATION_STYLE_ASSIGNMENT( ( #67 ) );
#33 = ADVANCED_FACE( '', ( #68, #69 ), #70, .T. );
#34 = PRESENTATION_STYLE_ASSIGNMENT( ( #71 ) );
#35 = ADVANCED_FACE( '', ( #72, #73 ), #74, .T. );
#36 = PRESENTATION_STYLE_ASSIGNMENT( ( #75 ) );
#37 = ADVANCED_FACE( '', ( #76, #77 ), #78, .T. );
#38 = PRESENTATION_STYLE_ASSIGNMENT( ( #79 ) );
#39 = ADVANCED_FACE( '', ( #80, #81 ), #82, .T. );
#40 = PRESENTATION_STYLE_ASSIGNMENT( ( #83 ) );
#41 = ADVANCED_FACE( '', ( #84, #85 ), #86, .T. );
#42 = PRESENTATION_STYLE_ASSIGNMENT( ( #87 ) );
#43 = ADVANCED_FACE( '', ( #88 ), #89, .F. );
#44 = PRESENTATION_STYLE_ASSIGNMENT( ( #90 ) );
#45 = ADVANCED_FACE( '', ( #91, #92 ), #93, .T. );
#46 = PRESENTATION_STYLE_ASSIGNMENT( ( #94 ) );
#47 = ADVANCED_FACE( '', ( #95 ), #96, .F. );
#48 = PRESENTATION_STYLE_ASSIGNMENT( ( #97 ) );
#49 = ADVANCED_FACE( '', ( #98, #99 ), #100, .T. );
#50 = PRODUCT( '_K0697.27125', '_K0697.27125', 'PART-_K0697.27125-DESC', ( #101 ) );
#51 = PRODUCT_DEFINITION( 'NONE', 'NONE', #102, #2 );
#52 = MANIFOLD_SOLID_BREP( '_K0697.27125', #103 );
#53 = AXIS2_PLACEMENT_3D( '', #104, #105, #106 );
#56 = LENGTH_MEASURE_WITH_UNIT( LENGTH_MEASURE( 1.00000000000000 ), #107 );
#59 = DIMENSIONAL_EXPONENTS( 1.00000000000000, 0.000000000000000, 0.000000000000000, 0.000000000000000, 0.000000000000000, 0.000000000000000, 0.000000000000000 );
#61 = DIMENSIONAL_EXPONENTS( 0.000000000000000, 0.000000000000000, 0.000000000000000, 0.000000000000000, 0.000000000000000, 0.000000000000000, 0.000000000000000 );
#67 = SURFACE_STYLE_USAGE( .BOTH., #108 );
#68 = FACE_OUTER_BOUND( '', #109, .T. );
#69 = FACE_OUTER_BOUND( '', #110, .T. );
#70 = CYLINDRICAL_SURFACE( '', #111, 13.5000000000000 );
#71 = SURFACE_STYLE_USAGE( .BOTH., #112 );
#72 = FACE_OUTER_BOUND( '', #113, .T. );
#73 = FACE_OUTER_BOUND( '', #114, .T. );
#74 = CYLINDRICAL_SURFACE( '', #115, 13.5000000000000 );
#75 = SURFACE_STYLE_USAGE( .BOTH., #116 );
#76 = FACE_OUTER_BOUND( '', #117, .T. );
#77 = FACE_BOUND( '', #118, .T. );
#78 = CONICAL_SURFACE( '', #119, 11.6595000000000, 0.785398163400000 );
#79 = SURFACE_STYLE_USAGE( .BOTH., #120 );
#80 = FACE_BOUND( '', #121, .T. );
#81 = FACE_OUTER_BOUND( '', #122, .T. );
#82 = CONICAL_SURFACE( '', #123, 13.5000000000000, 0.785398163400000 );
#83 = SURFACE_STYLE_USAGE( .BOTH., #124 );
#84 = FACE_OUTER_BOUND( '', #125, .T. );
#85 = FACE_BOUND( '', #126, .T. );
#86 = CONICAL_SURFACE( '', #127, 11.6595000000000, 0.785398163400000 );
#87 = SURFACE_STYLE_USAGE( .BOTH., #128 );
#88 = FACE_OUTER_BOUND( '', #129, .T. );
#89 = PLANE( '', #130 );
#90 = SURFACE_STYLE_USAGE( .BOTH., #131 );
#91 = FACE_BOUND( '', #132, .T. );
#92 = FACE_OUTER_BOUND( '', #133, .T. );
#93 = CONICAL_SURFACE( '', #134, 13.5000000000000, 0.785398163400000 );
#94 = SURFACE_STYLE_USAGE( .BOTH., #135 );
#95 = FACE_OUTER_BOUND( '', #136, .T. );
#96 = PLANE( '', #137 );
#97 = SURFACE_STYLE_USAGE( .BOTH., #138 );
#98 = FACE_OUTER_BOUND( '', #139, .T. );
#99 = FACE_OUTER_BOUND( '', #140, .T. );
#100 = CYLINDRICAL_SURFACE( '', #141, 11.6595000000000 );
#101 = PRODUCT_CONTEXT( '', #19, 'mechanical' );
#102 = PRODUCT_DEFINITION_FORMATION_WITH_SPECIFIED_SOURCE( ' ', 'NONE', #50, .NOT_KNOWN. );
#103 = CLOSED_SHELL( '', ( #39, #35, #37, #49, #45, #33, #41, #43, #47 ) );
#104 = CARTESIAN_POINT( '', ( 0.000000000000000, 0.000000000000000, 0.000000000000000 ) );
#105 = DIRECTION( '', ( 0.000000000000000, 0.000000000000000, 1.00000000000000 ) );
#106 = DIRECTION( '', ( 1.00000000000000, 0.000000000000000, 0.000000000000000 ) );
#107 =  ( LENGTH_UNIT(  )NAMED_UNIT( #59 )SI_UNIT( .MILLI., .METRE. ) );
#108 = SURFACE_SIDE_STYLE( '', ( #143 ) );
#109 = EDGE_LOOP( '', ( #144 ) );
#110 = EDGE_LOOP( '', ( #145 ) );
#111 = AXIS2_PLACEMENT_3D( '', #146, #147, #148 );
#112 = SURFACE_SIDE_STYLE( '', ( #149 ) );
#113 = EDGE_LOOP( '', ( #150 ) );
#114 = EDGE_LOOP( '', ( #151 ) );
#115 = AXIS2_PLACEMENT_3D( '', #152, #153, #154 );
#116 = SURFACE_SIDE_STYLE( '', ( #155 ) );
#117 = EDGE_LOOP( '', ( #156 ) );
#118 = EDGE_LOOP( '', ( #157 ) );
#119 = AXIS2_PLACEMENT_3D( '', #158, #159, #160 );
#120 = SURFACE_SIDE_STYLE( '', ( #161 ) );
#121 = EDGE_LOOP( '', ( #162 ) );
#122 = EDGE_LOOP( '', ( #163 ) );
#123 = AXIS2_PLACEMENT_3D( '', #164, #165, #166 );
#124 = SURFACE_SIDE_STYLE( '', ( #167 ) );
#125 = EDGE_LOOP( '', ( #168 ) );
#126 = EDGE_LOOP( '', ( #169 ) );
#127 = AXIS2_PLACEMENT_3D( '', #170, #171, #172 );
#128 = SURFACE_SIDE_STYLE( '', ( #173 ) );
#129 = EDGE_LOOP( '', ( #174 ) );
#130 = AXIS2_PLACEMENT_3D( '', #175, #176, #177 );
#131 = SURFACE_SIDE_STYLE( '', ( #178 ) );
#132 = EDGE_LOOP( '', ( #179 ) );
#133 = EDGE_LOOP( '', ( #180 ) );
#134 = AXIS2_PLACEMENT_3D( '', #181, #182, #183 );
#135 = SURFACE_SIDE_STYLE( '', ( #184 ) );
#136 = EDGE_LOOP( '', ( #185 ) );
#137 = AXIS2_PLACEMENT_3D( '', #186, #187, #188 );
#138 = SURFACE_SIDE_STYLE( '', ( #189 ) );
#139 = EDGE_LOOP( '', ( #190 ) );
#140 = EDGE_LOOP( '', ( #191 ) );
#141 = AXIS2_PLACEMENT_3D( '', #192, #193, #194 );
#143 = SURFACE_STYLE_FILL_AREA( #195 );
#144 = ORIENTED_EDGE( '', *, *, #196, .F. );
#145 = ORIENTED_EDGE( '', *, *, #197, .T. );
#146 = CARTESIAN_POINT( '', ( 125.000000000000, 0.000000000000000, 0.000000000000000 ) );
#147 = DIRECTION( '', ( -1.00000000000000, -0.000000000000000, 0.000000000000000 ) );
#148 = DIRECTION( '', ( -0.000000000000000, 0.000000000000000, -1.00000000000000 ) );
#149 = SURFACE_STYLE_FILL_AREA( #198 );
#150 = ORIENTED_EDGE( '', *, *, #199, .F. );
#151 = ORIENTED_EDGE( '', *, *, #200, .T. );
#152 = CARTESIAN_POINT( '', ( 125.000000000000, 0.000000000000000, 0.000000000000000 ) );
#153 = DIRECTION( '', ( -1.00000000000000, -0.000000000000000, 0.000000000000000 ) );
#154 = DIRECTION( '', ( -0.000000000000000, 0.000000000000000, -1.00000000000000 ) );
#155 = SURFACE_STYLE_FILL_AREA( #201 );
#156 = ORIENTED_EDGE( '', *, *, #200, .F. );
#157 = ORIENTED_EDGE( '', *, *, #202, .T. );
#158 = CARTESIAN_POINT( '', ( 67.1595000000000, 0.000000000000000, 0.000000000000000 ) );
#159 = DIRECTION( '', ( 1.00000000000000, -0.000000000000000, -0.000000000000000 ) );
#160 = DIRECTION( '', ( -0.000000000000000, 0.000000000000000, -1.00000000000000 ) );
#161 = SURFACE_STYLE_FILL_AREA( #203 );
#162 = ORIENTED_EDGE( '', *, *, #204, .F. );
#163 = ORIENTED_EDGE( '', *, *, #199, .T. );
#164 = CARTESIAN_POINT( '', ( 123.159500000000, 0.000000000000000, 0.000000000000000 ) );
#165 = DIRECTION( '', ( -1.00000000000000, 0.000000000000000, -0.000000000000000 ) );
#166 = DIRECTION( '', ( 0.000000000000000, 0.000000000000000, 1.00000000000000 ) );
#167 = SURFACE_STYLE_FILL_AREA( #205 );
#168 = ORIENTED_EDGE( '', *, *, #197, .F. );
#169 = ORIENTED_EDGE( '', *, *, #206, .T. );
#170 = CARTESIAN_POINT( '', ( 0.000000000000000, 0.000000000000000, 0.000000000000000 ) );
#171 = DIRECTION( '', ( 1.00000000000000, -0.000000000000000, -0.000000000000000 ) );
#172 = DIRECTION( '', ( -0.000000000000000, 0.000000000000000, -1.00000000000000 ) );
#173 = SURFACE_STYLE_FILL_AREA( #207 );
#174 = ORIENTED_EDGE( '', *, *, #206, .F. );
#175 = CARTESIAN_POINT( '', ( 0.000000000000000, 0.000000000000000, 0.000000000000000 ) );
#176 = DIRECTION( '', ( 1.00000000000000, 0.000000000000000, -0.000000000000000 ) );
#177 = DIRECTION( '', ( -0.000000000000000, 0.000000000000000, -1.00000000000000 ) );
#178 = SURFACE_STYLE_FILL_AREA( #208 );
#179 = ORIENTED_EDGE( '', *, *, #209, .F. );
#180 = ORIENTED_EDGE( '', *, *, #196, .T. );
#181 = CARTESIAN_POINT( '', ( 39.0000000000000, 0.000000000000000, 0.000000000000000 ) );
#182 = DIRECTION( '', ( -1.00000000000000, 0.000000000000000, -0.000000000000000 ) );
#183 = DIRECTION( '', ( 0.000000000000000, 0.000000000000000, 1.00000000000000 ) );
#184 = SURFACE_STYLE_FILL_AREA( #210 );
#185 = ORIENTED_EDGE( '', *, *, #204, .T. );
#186 = CARTESIAN_POINT( '', ( 125.000000000000, 11.6595000000000, 0.000000000000000 ) );
#187 = DIRECTION( '', ( -1.00000000000000, 0.000000000000000, 0.000000000000000 ) );
#188 = DIRECTION( '', ( 0.000000000000000, 0.000000000000000, 1.00000000000000 ) );
#189 = SURFACE_STYLE_FILL_AREA( #211 );
#190 = ORIENTED_EDGE( '', *, *, #202, .F. );
#191 = ORIENTED_EDGE( '', *, *, #209, .T. );
#192 = CARTESIAN_POINT( '', ( 125.000000000000, 0.000000000000000, 0.000000000000000 ) );
#193 = DIRECTION( '', ( -1.00000000000000, -0.000000000000000, 0.000000000000000 ) );
#194 = DIRECTION( '', ( -0.000000000000000, 0.000000000000000, -1.00000000000000 ) );
#195 = FILL_AREA_STYLE( '', ( #212 ) );
#196 = EDGE_CURVE( '', #213, #213, #214, .T. );
#197 = EDGE_CURVE( '', #215, #215, #216, .T. );
#198 = FILL_AREA_STYLE( '', ( #217 ) );
#199 = EDGE_CURVE( '', #218, #218, #219, .T. );
#200 = EDGE_CURVE( '', #220, #220, #221, .T. );
#201 = FILL_AREA_STYLE( '', ( #222 ) );
#202 = EDGE_CURVE( '', #223, #223, #224, .T. );
#203 = FILL_AREA_STYLE( '', ( #225 ) );
#204 = EDGE_CURVE( '', #226, #226, #227, .T. );
#205 = FILL_AREA_STYLE( '', ( #228 ) );
#206 = EDGE_CURVE( '', #229, #229, #230, .T. );
#207 = FILL_AREA_STYLE( '', ( #231 ) );
#208 = FILL_AREA_STYLE( '', ( #232 ) );
#209 = EDGE_CURVE( '', #233, #233, #234, .T. );
#210 = FILL_AREA_STYLE( '', ( #235 ) );
#211 = FILL_AREA_STYLE( '', ( #236 ) );
#212 = FILL_AREA_STYLE_COLOUR( '', #237 );
#213 = VERTEX_POINT( '', #238 );
#214 = CIRCLE( '', #239, 13.5000000000000 );
#215 = VERTEX_POINT( '', #240 );
#216 = CIRCLE( '', #241, 13.5000000000000 );
#217 = FILL_AREA_STYLE_COLOUR( '', #242 );
#218 = VERTEX_POINT( '', #243 );
#219 = CIRCLE( '', #244, 13.5000000000000 );
#220 = VERTEX_POINT( '', #245 );
#221 = CIRCLE( '', #246, 13.5000000000000 );
#222 = FILL_AREA_STYLE_COLOUR( '', #247 );
#223 = VERTEX_POINT( '', #248 );
#224 = CIRCLE( '', #249, 11.6595000000000 );
#225 = FILL_AREA_STYLE_COLOUR( '', #250 );
#226 = VERTEX_POINT( '', #251 );
#227 = CIRCLE( '', #252, 11.6595000000000 );
#228 = FILL_AREA_STYLE_COLOUR( '', #253 );
#229 = VERTEX_POINT( '', #254 );
#230 = CIRCLE( '', #255, 11.6595000000000 );
#231 = FILL_AREA_STYLE_COLOUR( '', #256 );
#232 = FILL_AREA_STYLE_COLOUR( '', #257 );
#233 = VERTEX_POINT( '', #258 );
#234 = CIRCLE( '', #259, 11.6595000000000 );
#235 = FILL_AREA_STYLE_COLOUR( '', #260 );
#236 = FILL_AREA_STYLE_COLOUR( '', #261 );
#237 = COLOUR_RGB( '', 0.689999997600000, 0.689999997600000, 0.689999997600000 );
#238 = CARTESIAN_POINT( '', ( 39.0000000000000, 0.000000000000000, -13.5000000000000 ) );
#239 = AXIS2_PLACEMENT_3D( '', #262, #263, #264 );
#240 = CARTESIAN_POINT( '', ( 1.84049999999999, 0.000000000000000, -13.5000000000000 ) );
#241 = AXIS2_PLACEMENT_3D( '', #265, #266, #267 );
#242 = COLOUR_RGB( '', 0.689999997600000, 0.689999997600000, 0.689999997600000 );
#243 = CARTESIAN_POINT( '', ( 123.159500000000, 0.000000000000000, -13.5000000000000 ) );
#244 = AXIS2_PLACEMENT_3D( '', #268, #269, #270 );
#245 = CARTESIAN_POINT( '', ( 69.0000000000000, 0.000000000000000, -13.5000000000000 ) );
#246 = AXIS2_PLACEMENT_3D( '', #271, #272, #273 );
#247 = COLOUR_RGB( '', 0.689999997600000, 0.689999997600000, 0.689999997600000 );
#248 = CARTESIAN_POINT( '', ( 67.1595000000000, 0.000000000000000, -11.6595000000000 ) );
#249 = AXIS2_PLACEMENT_3D( '', #274, #275, #276 );
#250 = COLOUR_RGB( '', 0.689999997600000, 0.689999997600000, 0.689999997600000 );
#251 = CARTESIAN_POINT( '', ( 125.000000000000, 0.000000000000000, -11.6595000000000 ) );
#252 = AXIS2_PLACEMENT_3D( '', #277, #278, #279 );
#253 = COLOUR_RGB( '', 0.689999997600000, 0.689999997600000, 0.689999997600000 );
#254 = CARTESIAN_POINT( '', ( 0.000000000000000, 0.000000000000000, -11.6595000000000 ) );
#255 = AXIS2_PLACEMENT_3D( '', #280, #281, #282 );
#256 = COLOUR_RGB( '', 0.689999997600000, 0.689999997600000, 0.689999997600000 );
#257 = COLOUR_RGB( '', 0.689999997600000, 0.689999997600000, 0.689999997600000 );
#258 = CARTESIAN_POINT( '', ( 40.8404999999998, 0.000000000000000, -11.6595000000000 ) );
#259 = AXIS2_PLACEMENT_3D( '', #283, #284, #285 );
#260 = COLOUR_RGB( '', 0.689999997600000, 0.689999997600000, 0.689999997600000 );
#261 = COLOUR_RGB( '', 0.689999997600000, 0.689999997600000, 0.689999997600000 );
#262 = CARTESIAN_POINT( '', ( 39.0000000000000, 0.000000000000000, 0.000000000000000 ) );
#263 = DIRECTION( '', ( 1.00000000000000, 0.000000000000000, -0.000000000000000 ) );
#264 = DIRECTION( '', ( -0.000000000000000, 0.000000000000000, -1.00000000000000 ) );
#265 = CARTESIAN_POINT( '', ( 1.84049999999999, 0.000000000000000, 0.000000000000000 ) );
#266 = DIRECTION( '', ( 1.00000000000000, 0.000000000000000, -0.000000000000000 ) );
#267 = DIRECTION( '', ( -0.000000000000000, 0.000000000000000, -1.00000000000000 ) );
#268 = CARTESIAN_POINT( '', ( 123.159500000000, 0.000000000000000, 0.000000000000000 ) );
#269 = DIRECTION( '', ( 1.00000000000000, 0.000000000000000, -0.000000000000000 ) );
#270 = DIRECTION( '', ( -0.000000000000000, 0.000000000000000, -1.00000000000000 ) );
#271 = CARTESIAN_POINT( '', ( 69.0000000000000, 0.000000000000000, 0.000000000000000 ) );
#272 = DIRECTION( '', ( 1.00000000000000, 0.000000000000000, -0.000000000000000 ) );
#273 = DIRECTION( '', ( -0.000000000000000, 0.000000000000000, -1.00000000000000 ) );
#274 = CARTESIAN_POINT( '', ( 67.1595000000000, 0.000000000000000, 0.000000000000000 ) );
#275 = DIRECTION( '', ( 1.00000000000000, 0.000000000000000, -0.000000000000000 ) );
#276 = DIRECTION( '', ( -0.000000000000000, 0.000000000000000, -1.00000000000000 ) );
#277 = CARTESIAN_POINT( '', ( 125.000000000000, 0.000000000000000, 0.000000000000000 ) );
#278 = DIRECTION( '', ( 1.00000000000000, 0.000000000000000, -0.000000000000000 ) );
#279 = DIRECTION( '', ( -0.000000000000000, 0.000000000000000, -1.00000000000000 ) );
#280 = CARTESIAN_POINT( '', ( 0.000000000000000, 0.000000000000000, 0.000000000000000 ) );
#281 = DIRECTION( '', ( 1.00000000000000, 0.000000000000000, -0.000000000000000 ) );
#282 = DIRECTION( '', ( -0.000000000000000, 0.000000000000000, -1.00000000000000 ) );
#283 = CARTESIAN_POINT( '', ( 40.8404999999998, 0.000000000000000, 0.000000000000000 ) );
#284 = DIRECTION( '', ( 1.00000000000000, 0.000000000000000, -0.000000000000000 ) );
#285 = DIRECTION( '', ( -0.000000000000000, 0.000000000000000, -1.00000000000000 ) );
ENDSEC;
END-ISO-10303-21;
