ISO-10303-21;
HEADER;
FILE_DESCRIPTION( ( 'STEP AP214' ), '1' );
FILE_NAME( '//goodhand-server/Shared Folders/GoodHand Data/Kipp CAD/K0393/K0393.206.stp', '2020-12-07T10:24:13', ( '' ), ( '' ), ' ', 'PARTsolutions', ' ' );
FILE_SCHEMA( ( 'AUTOMOTIVE_DESIGN { 1 0 10303 214 1 1 1 1 }' ) );
ENDSEC;
DATA;
#1 = MECHANICAL_DESIGN_GEOMETRIC_PRESENTATION_REPRESENTATION( ' ', ( #10, #11, #12, #13, #14, #15, #16, #17, #18, #19, #20, #21, #22, #23 ), #6 );
#2 = PRODUCT_DEFINITION_CONTEXT( '', #24, 'design' );
#3 = APPLICATION_PROTOCOL_DEFINITION( 'international standard', 'automotive_design', 2001, #24 );
#4 = PRODUCT_CATEGORY_RELATIONSHIP( 'NONE', 'NONE', #25, #26 );
#5 = SHAPE_DEFINITION_REPRESENTATION( #27, #28 );
#6 =  ( GEOMETRIC_REPRESENTATION_CONTEXT( 3 )GLOBAL_UNCERTAINTY_ASSIGNED_CONTEXT( ( #31 ) )GLOBAL_UNIT_ASSIGNED_CONTEXT( ( #33, #34, #35 ) )REPRESENTATION_CONTEXT( 'NONE', 'WORKSPACE' ) );
#10 = STYLED_ITEM( '', ( #37 ), #38 );
#11 = STYLED_ITEM( '', ( #39 ), #40 );
#12 = STYLED_ITEM( '', ( #41 ), #42 );
#13 = STYLED_ITEM( '', ( #43 ), #44 );
#14 = STYLED_ITEM( '', ( #45 ), #46 );
#15 = STYLED_ITEM( '', ( #47 ), #48 );
#16 = STYLED_ITEM( '', ( #49 ), #50 );
#17 = STYLED_ITEM( '', ( #51 ), #52 );
#18 = STYLED_ITEM( '', ( #53 ), #54 );
#19 = STYLED_ITEM( '', ( #55 ), #56 );
#20 = STYLED_ITEM( '', ( #57 ), #58 );
#21 = STYLED_ITEM( '', ( #59 ), #60 );
#22 = STYLED_ITEM( '', ( #61 ), #62 );
#23 = STYLED_ITEM( '', ( #63 ), #64 );
#24 = APPLICATION_CONTEXT( 'core data for automotive mechanical design processes' );
#25 = PRODUCT_CATEGORY( 'part', 'NONE' );
#26 = PRODUCT_RELATED_PRODUCT_CATEGORY( 'detail', ' ', ( #65 ) );
#27 = PRODUCT_DEFINITION_SHAPE( 'NONE', 'NONE', #66 );
#28 = ADVANCED_BREP_SHAPE_REPRESENTATION( '_K0393.206', ( #67, #68 ), #6 );
#31 = UNCERTAINTY_MEASURE_WITH_UNIT( LENGTH_MEASURE( 0.00100000000000000 ), #33, '', '' );
#33 =  ( CONVERSION_BASED_UNIT( 'MILLIMETRE', #71 )LENGTH_UNIT(  )NAMED_UNIT( #74 ) );
#34 =  ( NAMED_UNIT( #76 )PLANE_ANGLE_UNIT(  )SI_UNIT( $, .RADIAN. ) );
#35 =  ( NAMED_UNIT( #76 )SI_UNIT( $, .STERADIAN. )SOLID_ANGLE_UNIT(  ) );
#37 = PRESENTATION_STYLE_ASSIGNMENT( ( #82 ) );
#38 = ADVANCED_FACE( '', ( #83, #84 ), #85, .T. );
#39 = PRESENTATION_STYLE_ASSIGNMENT( ( #86 ) );
#40 = ADVANCED_FACE( '', ( #87, #88 ), #89, .T. );
#41 = PRESENTATION_STYLE_ASSIGNMENT( ( #90 ) );
#42 = ADVANCED_FACE( '', ( #91, #92 ), #93, .F. );
#43 = PRESENTATION_STYLE_ASSIGNMENT( ( #94 ) );
#44 = ADVANCED_FACE( '', ( #95, #96 ), #97, .T. );
#45 = PRESENTATION_STYLE_ASSIGNMENT( ( #98 ) );
#46 = ADVANCED_FACE( '', ( #99, #100 ), #101, .F. );
#47 = PRESENTATION_STYLE_ASSIGNMENT( ( #102 ) );
#48 = ADVANCED_FACE( '', ( #103, #104 ), #105, .T. );
#49 = PRESENTATION_STYLE_ASSIGNMENT( ( #106 ) );
#50 = ADVANCED_FACE( '', ( #107, #108 ), #109, .F. );
#51 = PRESENTATION_STYLE_ASSIGNMENT( ( #110 ) );
#52 = ADVANCED_FACE( '', ( #111, #112 ), #113, .T. );
#53 = PRESENTATION_STYLE_ASSIGNMENT( ( #114 ) );
#54 = ADVANCED_FACE( '', ( #115, #116 ), #117, .F. );
#55 = PRESENTATION_STYLE_ASSIGNMENT( ( #118 ) );
#56 = ADVANCED_FACE( '', ( #119, #120 ), #121, .F. );
#57 = PRESENTATION_STYLE_ASSIGNMENT( ( #122 ) );
#58 = ADVANCED_FACE( '', ( #123, #124 ), #125, .F. );
#59 = PRESENTATION_STYLE_ASSIGNMENT( ( #126 ) );
#60 = ADVANCED_FACE( '', ( #127, #128 ), #129, .F. );
#61 = PRESENTATION_STYLE_ASSIGNMENT( ( #130 ) );
#62 = ADVANCED_FACE( '', ( #131, #132 ), #133, .F. );
#63 = PRESENTATION_STYLE_ASSIGNMENT( ( #134 ) );
#64 = ADVANCED_FACE( '', ( #135 ), #136, .F. );
#65 = PRODUCT( '_K0393.206', '_K0393.206', 'PART-_K0393.206-DESC', ( #137 ) );
#66 = PRODUCT_DEFINITION( 'NONE', 'NONE', #138, #2 );
#67 = MANIFOLD_SOLID_BREP( '_K0393.206', #139 );
#68 = AXIS2_PLACEMENT_3D( '', #140, #141, #142 );
#71 = LENGTH_MEASURE_WITH_UNIT( LENGTH_MEASURE( 1.00000000000000 ), #143 );
#74 = DIMENSIONAL_EXPONENTS( 1.00000000000000, 0.000000000000000, 0.000000000000000, 0.000000000000000, 0.000000000000000, 0.000000000000000, 0.000000000000000 );
#76 = DIMENSIONAL_EXPONENTS( 0.000000000000000, 0.000000000000000, 0.000000000000000, 0.000000000000000, 0.000000000000000, 0.000000000000000, 0.000000000000000 );
#82 = SURFACE_STYLE_USAGE( .BOTH., #144 );
#83 = FACE_OUTER_BOUND( '', #145, .T. );
#84 = FACE_OUTER_BOUND( '', #146, .T. );
#85 = CYLINDRICAL_SURFACE( '', #147, 4.30000000000000 );
#86 = SURFACE_STYLE_USAGE( .BOTH., #148 );
#87 = FACE_OUTER_BOUND( '', #149, .T. );
#88 = FACE_BOUND( '', #150, .T. );
#89 = CONICAL_SURFACE( '', #151, 3.94644660940000, 0.785398163400000 );
#90 = SURFACE_STYLE_USAGE( .BOTH., #152 );
#91 = FACE_OUTER_BOUND( '', #153, .T. );
#92 = FACE_OUTER_BOUND( '', #154, .T. );
#93 = CYLINDRICAL_SURFACE( '', #155, 2.20000000000000 );
#94 = SURFACE_STYLE_USAGE( .BOTH., #156 );
#95 = FACE_OUTER_BOUND( '', #157, .T. );
#96 = FACE_BOUND( '', #158, .T. );
#97 = CONICAL_SURFACE( '', #159, 4.30000000000000, 1.13245976690000 );
#98 = SURFACE_STYLE_USAGE( .BOTH., #160 );
#99 = FACE_OUTER_BOUND( '', #161, .T. );
#100 = FACE_BOUND( '', #162, .T. );
#101 = PLANE( '', #163 );
#102 = SURFACE_STYLE_USAGE( .BOTH., #164 );
#103 = FACE_BOUND( '', #165, .T. );
#104 = FACE_OUTER_BOUND( '', #166, .T. );
#105 = CONICAL_SURFACE( '', #167, 7.50000000000000, 0.785398163400000 );
#106 = SURFACE_STYLE_USAGE( .BOTH., #168 );
#107 = FACE_OUTER_BOUND( '', #169, .T. );
#108 = FACE_OUTER_BOUND( '', #170, .T. );
#109 = CYLINDRICAL_SURFACE( '', #171, 2.30000000000000 );
#110 = SURFACE_STYLE_USAGE( .BOTH., #172 );
#111 = FACE_OUTER_BOUND( '', #173, .T. );
#112 = FACE_OUTER_BOUND( '', #174, .T. );
#113 = CYLINDRICAL_SURFACE( '', #175, 7.50000000000000 );
#114 = SURFACE_STYLE_USAGE( .BOTH., #176 );
#115 = FACE_BOUND( '', #177, .T. );
#116 = FACE_OUTER_BOUND( '', #178, .T. );
#117 = PLANE( '', #179 );
#118 = SURFACE_STYLE_USAGE( .BOTH., #180 );
#119 = FACE_BOUND( '', #181, .T. );
#120 = FACE_OUTER_BOUND( '', #182, .T. );
#121 = CONICAL_SURFACE( '', #183, 2.50000000000000, 0.785398163400000 );
#122 = SURFACE_STYLE_USAGE( .BOTH., #184 );
#123 = FACE_BOUND( '', #185, .T. );
#124 = FACE_OUTER_BOUND( '', #186, .T. );
#125 = CONICAL_SURFACE( '', #187, 2.30000000000000, 1.02974425870000 );
#126 = SURFACE_STYLE_USAGE( .BOTH., #188 );
#127 = FACE_OUTER_BOUND( '', #189, .T. );
#128 = FACE_BOUND( '', #190, .T. );
#129 = CONICAL_SURFACE( '', #191, 2.20000000000000, 0.785398163400000 );
#130 = SURFACE_STYLE_USAGE( .BOTH., #192 );
#131 = FACE_OUTER_BOUND( '', #193, .T. );
#132 = FACE_OUTER_BOUND( '', #194, .T. );
#133 = CYLINDRICAL_SURFACE( '', #195, 2.60000000000000 );
#134 = SURFACE_STYLE_USAGE( .BOTH., #196 );
#135 = FACE_OUTER_BOUND( '', #197, .T. );
#136 = PLANE( '', #198 );
#137 = PRODUCT_CONTEXT( '', #24, 'mechanical' );
#138 = PRODUCT_DEFINITION_FORMATION_WITH_SPECIFIED_SOURCE( ' ', 'NONE', #65, .NOT_KNOWN. );
#139 = CLOSED_SHELL( '', ( #58, #40, #46, #56, #42, #64, #62, #54, #48, #52, #44, #38, #60, #50 ) );
#140 = CARTESIAN_POINT( '', ( 0.000000000000000, 0.000000000000000, 0.000000000000000 ) );
#141 = DIRECTION( '', ( 0.000000000000000, 0.000000000000000, 1.00000000000000 ) );
#142 = DIRECTION( '', ( 1.00000000000000, 0.000000000000000, 0.000000000000000 ) );
#143 =  ( LENGTH_UNIT(  )NAMED_UNIT( #74 )SI_UNIT( .MILLI., .METRE. ) );
#144 = SURFACE_SIDE_STYLE( '', ( #200 ) );
#145 = EDGE_LOOP( '', ( #201 ) );
#146 = EDGE_LOOP( '', ( #202 ) );
#147 = AXIS2_PLACEMENT_3D( '', #203, #204, #205 );
#148 = SURFACE_SIDE_STYLE( '', ( #206 ) );
#149 = EDGE_LOOP( '', ( #207 ) );
#150 = EDGE_LOOP( '', ( #208 ) );
#151 = AXIS2_PLACEMENT_3D( '', #209, #210, #211 );
#152 = SURFACE_SIDE_STYLE( '', ( #212 ) );
#153 = EDGE_LOOP( '', ( #213 ) );
#154 = EDGE_LOOP( '', ( #214 ) );
#155 = AXIS2_PLACEMENT_3D( '', #215, #216, #217 );
#156 = SURFACE_SIDE_STYLE( '', ( #218 ) );
#157 = EDGE_LOOP( '', ( #219 ) );
#158 = EDGE_LOOP( '', ( #220 ) );
#159 = AXIS2_PLACEMENT_3D( '', #221, #222, #223 );
#160 = SURFACE_SIDE_STYLE( '', ( #224 ) );
#161 = EDGE_LOOP( '', ( #225 ) );
#162 = EDGE_LOOP( '', ( #226 ) );
#163 = AXIS2_PLACEMENT_3D( '', #227, #228, #229 );
#164 = SURFACE_SIDE_STYLE( '', ( #230 ) );
#165 = EDGE_LOOP( '', ( #231 ) );
#166 = EDGE_LOOP( '', ( #232 ) );
#167 = AXIS2_PLACEMENT_3D( '', #233, #234, #235 );
#168 = SURFACE_SIDE_STYLE( '', ( #236 ) );
#169 = EDGE_LOOP( '', ( #237 ) );
#170 = EDGE_LOOP( '', ( #238 ) );
#171 = AXIS2_PLACEMENT_3D( '', #239, #240, #241 );
#172 = SURFACE_SIDE_STYLE( '', ( #242 ) );
#173 = EDGE_LOOP( '', ( #243 ) );
#174 = EDGE_LOOP( '', ( #244 ) );
#175 = AXIS2_PLACEMENT_3D( '', #245, #246, #247 );
#176 = SURFACE_SIDE_STYLE( '', ( #248 ) );
#177 = EDGE_LOOP( '', ( #249 ) );
#178 = EDGE_LOOP( '', ( #250 ) );
#179 = AXIS2_PLACEMENT_3D( '', #251, #252, #253 );
#180 = SURFACE_SIDE_STYLE( '', ( #254 ) );
#181 = EDGE_LOOP( '', ( #255 ) );
#182 = EDGE_LOOP( '', ( #256 ) );
#183 = AXIS2_PLACEMENT_3D( '', #257, #258, #259 );
#184 = SURFACE_SIDE_STYLE( '', ( #260 ) );
#185 = VERTEX_LOOP( '', #261 );
#186 = EDGE_LOOP( '', ( #262 ) );
#187 = AXIS2_PLACEMENT_3D( '', #263, #264, #265 );
#188 = SURFACE_SIDE_STYLE( '', ( #266 ) );
#189 = EDGE_LOOP( '', ( #267 ) );
#190 = EDGE_LOOP( '', ( #268 ) );
#191 = AXIS2_PLACEMENT_3D( '', #269, #270, #271 );
#192 = SURFACE_SIDE_STYLE( '', ( #272 ) );
#193 = EDGE_LOOP( '', ( #273 ) );
#194 = EDGE_LOOP( '', ( #274 ) );
#195 = AXIS2_PLACEMENT_3D( '', #275, #276, #277 );
#196 = SURFACE_SIDE_STYLE( '', ( #278 ) );
#197 = EDGE_LOOP( '', ( #279 ) );
#198 = AXIS2_PLACEMENT_3D( '', #280, #281, #282 );
#200 = SURFACE_STYLE_FILL_AREA( #283 );
#201 = ORIENTED_EDGE( '', *, *, #284, .F. );
#202 = ORIENTED_EDGE( '', *, *, #285, .T. );
#203 = CARTESIAN_POINT( '', ( 0.000000000000000, -6.30000000000000, 0.000000000000000 ) );
#204 = DIRECTION( '', ( -0.000000000000000, 1.00000000000000, 0.000000000000000 ) );
#205 = DIRECTION( '', ( 0.000000000000000, 0.000000000000000, -1.00000000000000 ) );
#206 = SURFACE_STYLE_FILL_AREA( #286 );
#207 = ORIENTED_EDGE( '', *, *, #285, .F. );
#208 = ORIENTED_EDGE( '', *, *, #287, .T. );
#209 = CARTESIAN_POINT( '', ( 0.000000000000000, 0.000000000000000, 0.000000000000000 ) );
#210 = DIRECTION( '', ( -0.000000000000000, -1.00000000000000, -0.000000000000000 ) );
#211 = DIRECTION( '', ( 0.000000000000000, 0.000000000000000, -1.00000000000000 ) );
#212 = SURFACE_STYLE_FILL_AREA( #288 );
#213 = ORIENTED_EDGE( '', *, *, #289, .T. );
#214 = ORIENTED_EDGE( '', *, *, #290, .F. );
#215 = CARTESIAN_POINT( '', ( 0.000000000000000, -4.18197942376339, 0.000000000000000 ) );
#216 = DIRECTION( '', ( -0.000000000000000, 1.00000000000000, 0.000000000000000 ) );
#217 = DIRECTION( '', ( 0.000000000000000, 0.000000000000000, -1.00000000000000 ) );
#218 = SURFACE_STYLE_FILL_AREA( #291 );
#219 = ORIENTED_EDGE( '', *, *, #292, .F. );
#220 = ORIENTED_EDGE( '', *, *, #284, .T. );
#221 = CARTESIAN_POINT( '', ( 0.000000000000000, -3.60000000000000, 0.000000000000000 ) );
#222 = DIRECTION( '', ( -0.000000000000000, -1.00000000000000, -0.000000000000000 ) );
#223 = DIRECTION( '', ( 0.000000000000000, 0.000000000000000, -1.00000000000000 ) );
#224 = SURFACE_STYLE_FILL_AREA( #293 );
#225 = ORIENTED_EDGE( '', *, *, #287, .F. );
#226 = ORIENTED_EDGE( '', *, *, #294, .T. );
#227 = CARTESIAN_POINT( '', ( 0.000000000000000, 0.000000000000000, 0.000000000000000 ) );
#228 = DIRECTION( '', ( 0.000000000000000, -1.00000000000000, -0.000000000000000 ) );
#229 = DIRECTION( '', ( 0.000000000000000, 0.000000000000000, -1.00000000000000 ) );
#230 = SURFACE_STYLE_FILL_AREA( #295 );
#231 = ORIENTED_EDGE( '', *, *, #296, .F. );
#232 = ORIENTED_EDGE( '', *, *, #297, .T. );
#233 = CARTESIAN_POINT( '', ( 0.000000000000000, -7.24644660940673, 0.000000000000000 ) );
#234 = DIRECTION( '', ( -0.000000000000000, 1.00000000000000, 0.000000000000000 ) );
#235 = DIRECTION( '', ( 0.000000000000000, -0.000000000000000, 1.00000000000000 ) );
#236 = SURFACE_STYLE_FILL_AREA( #298 );
#237 = ORIENTED_EDGE( '', *, *, #299, .T. );
#238 = ORIENTED_EDGE( '', *, *, #300, .F. );
#239 = CARTESIAN_POINT( '', ( 0.000000000000000, -4.18197942376339, 0.000000000000000 ) );
#240 = DIRECTION( '', ( -0.000000000000000, 1.00000000000000, 0.000000000000000 ) );
#241 = DIRECTION( '', ( 0.000000000000000, 0.000000000000000, -1.00000000000000 ) );
#242 = SURFACE_STYLE_FILL_AREA( #301 );
#243 = ORIENTED_EDGE( '', *, *, #297, .F. );
#244 = ORIENTED_EDGE( '', *, *, #292, .T. );
#245 = CARTESIAN_POINT( '', ( 0.000000000000000, -6.30000000000000, 0.000000000000000 ) );
#246 = DIRECTION( '', ( -0.000000000000000, 1.00000000000000, 0.000000000000000 ) );
#247 = DIRECTION( '', ( 0.000000000000000, 0.000000000000000, -1.00000000000000 ) );
#248 = SURFACE_STYLE_FILL_AREA( #302 );
#249 = ORIENTED_EDGE( '', *, *, #303, .F. );
#250 = ORIENTED_EDGE( '', *, *, #296, .T. );
#251 = CARTESIAN_POINT( '', ( 7.14644660940672, -7.60000000000000, 0.000000000000000 ) );
#252 = DIRECTION( '', ( 0.000000000000000, 1.00000000000000, 0.000000000000000 ) );
#253 = DIRECTION( '', ( 0.000000000000000, -0.000000000000000, 1.00000000000000 ) );
#254 = SURFACE_STYLE_FILL_AREA( #304 );
#255 = ORIENTED_EDGE( '', *, *, #290, .T. );
#256 = ORIENTED_EDGE( '', *, *, #294, .F. );
#257 = CARTESIAN_POINT( '', ( 0.000000000000000, 0.000000000000000, 0.000000000000000 ) );
#258 = DIRECTION( '', ( -0.000000000000000, 1.00000000000000, 0.000000000000000 ) );
#259 = DIRECTION( '', ( 0.000000000000000, -0.000000000000000, 1.00000000000000 ) );
#260 = SURFACE_STYLE_FILL_AREA( #305 );
#261 = VERTEX_POINT( '', #306 );
#262 = ORIENTED_EDGE( '', *, *, #299, .F. );
#263 = CARTESIAN_POINT( '', ( 0.000000000000000, -2.80000000000000, 0.000000000000000 ) );
#264 = DIRECTION( '', ( -0.000000000000000, 1.00000000000000, 0.000000000000000 ) );
#265 = DIRECTION( '', ( 0.000000000000000, -0.000000000000000, 1.00000000000000 ) );
#266 = SURFACE_STYLE_FILL_AREA( #307 );
#267 = ORIENTED_EDGE( '', *, *, #300, .T. );
#268 = ORIENTED_EDGE( '', *, *, #289, .F. );
#269 = CARTESIAN_POINT( '', ( 0.000000000000000, -0.699999999999996, 0.000000000000000 ) );
#270 = DIRECTION( '', ( -0.000000000000000, -1.00000000000000, -0.000000000000000 ) );
#271 = DIRECTION( '', ( 0.000000000000000, 0.000000000000000, -1.00000000000000 ) );
#272 = SURFACE_STYLE_FILL_AREA( #308 );
#273 = ORIENTED_EDGE( '', *, *, #309, .F. );
#274 = ORIENTED_EDGE( '', *, *, #303, .T. );
#275 = CARTESIAN_POINT( '', ( 0.000000000000000, -6.30000000000000, 0.000000000000000 ) );
#276 = DIRECTION( '', ( -0.000000000000000, 1.00000000000000, 0.000000000000000 ) );
#277 = DIRECTION( '', ( 0.000000000000000, 0.000000000000000, -1.00000000000000 ) );
#278 = SURFACE_STYLE_FILL_AREA( #310 );
#279 = ORIENTED_EDGE( '', *, *, #309, .T. );
#280 = CARTESIAN_POINT( '', ( 2.60000000000000, -6.30000000000000, 0.000000000000000 ) );
#281 = DIRECTION( '', ( 0.000000000000000, 1.00000000000000, 0.000000000000000 ) );
#282 = DIRECTION( '', ( 0.000000000000000, -0.000000000000000, 1.00000000000000 ) );
#283 = FILL_AREA_STYLE( '', ( #311 ) );
#284 = EDGE_CURVE( '', #312, #312, #313, .T. );
#285 = EDGE_CURVE( '', #314, #314, #315, .T. );
#286 = FILL_AREA_STYLE( '', ( #316 ) );
#287 = EDGE_CURVE( '', #317, #317, #318, .T. );
#288 = FILL_AREA_STYLE( '', ( #319 ) );
#289 = EDGE_CURVE( '', #320, #320, #321, .T. );
#290 = EDGE_CURVE( '', #322, #322, #323, .T. );
#291 = FILL_AREA_STYLE( '', ( #324 ) );
#292 = EDGE_CURVE( '', #325, #325, #326, .T. );
#293 = FILL_AREA_STYLE( '', ( #327 ) );
#294 = EDGE_CURVE( '', #328, #328, #329, .T. );
#295 = FILL_AREA_STYLE( '', ( #330 ) );
#296 = EDGE_CURVE( '', #331, #331, #332, .T. );
#297 = EDGE_CURVE( '', #333, #333, #334, .T. );
#298 = FILL_AREA_STYLE( '', ( #335 ) );
#299 = EDGE_CURVE( '', #336, #336, #337, .T. );
#300 = EDGE_CURVE( '', #338, #338, #339, .T. );
#301 = FILL_AREA_STYLE( '', ( #340 ) );
#302 = FILL_AREA_STYLE( '', ( #341 ) );
#303 = EDGE_CURVE( '', #342, #342, #343, .T. );
#304 = FILL_AREA_STYLE( '', ( #344 ) );
#305 = FILL_AREA_STYLE( '', ( #345 ) );
#306 = CARTESIAN_POINT( '', ( 0.000000000000000, -4.18197942376339, 0.000000000000000 ) );
#307 = FILL_AREA_STYLE( '', ( #346 ) );
#308 = FILL_AREA_STYLE( '', ( #347 ) );
#309 = EDGE_CURVE( '', #348, #348, #349, .T. );
#310 = FILL_AREA_STYLE( '', ( #350 ) );
#311 = FILL_AREA_STYLE_COLOUR( '', #351 );
#312 = VERTEX_POINT( '', #352 );
#313 = CIRCLE( '', #353, 4.30000000000000 );
#314 = VERTEX_POINT( '', #354 );
#315 = CIRCLE( '', #355, 4.30000000000000 );
#316 = FILL_AREA_STYLE_COLOUR( '', #356 );
#317 = VERTEX_POINT( '', #357 );
#318 = CIRCLE( '', #358, 3.94644660940000 );
#319 = FILL_AREA_STYLE_COLOUR( '', #359 );
#320 = VERTEX_POINT( '', #360 );
#321 = CIRCLE( '', #361, 2.20000000000000 );
#322 = VERTEX_POINT( '', #362 );
#323 = CIRCLE( '', #363, 2.20000000000000 );
#324 = FILL_AREA_STYLE_COLOUR( '', #364 );
#325 = VERTEX_POINT( '', #365 );
#326 = CIRCLE( '', #366, 7.50000000000000 );
#327 = FILL_AREA_STYLE_COLOUR( '', #367 );
#328 = VERTEX_POINT( '', #368 );
#329 = CIRCLE( '', #369, 2.50000000000000 );
#330 = FILL_AREA_STYLE_COLOUR( '', #370 );
#331 = VERTEX_POINT( '', #371 );
#332 = CIRCLE( '', #372, 7.14644660940000 );
#333 = VERTEX_POINT( '', #373 );
#334 = CIRCLE( '', #374, 7.50000000000000 );
#335 = FILL_AREA_STYLE_COLOUR( '', #375 );
#336 = VERTEX_POINT( '', #376 );
#337 = CIRCLE( '', #377, 2.30000000000000 );
#338 = VERTEX_POINT( '', #378 );
#339 = CIRCLE( '', #379, 2.30000000000000 );
#340 = FILL_AREA_STYLE_COLOUR( '', #380 );
#341 = FILL_AREA_STYLE_COLOUR( '', #381 );
#342 = VERTEX_POINT( '', #382 );
#343 = CIRCLE( '', #383, 2.60000000000000 );
#344 = FILL_AREA_STYLE_COLOUR( '', #384 );
#345 = FILL_AREA_STYLE_COLOUR( '', #385 );
#346 = FILL_AREA_STYLE_COLOUR( '', #386 );
#347 = FILL_AREA_STYLE_COLOUR( '', #387 );
#348 = VERTEX_POINT( '', #388 );
#349 = CIRCLE( '', #389, 2.60000000000000 );
#350 = FILL_AREA_STYLE_COLOUR( '', #390 );
#351 = COLOUR_RGB( '', 0.689999997600000, 0.689999997600000, 0.689999997600000 );
#352 = CARTESIAN_POINT( '', ( 0.000000000000000, -3.60000000000000, -4.30000000000000 ) );
#353 = AXIS2_PLACEMENT_3D( '', #391, #392, #393 );
#354 = CARTESIAN_POINT( '', ( 0.000000000000000, -0.353553390593273, -4.30000000000000 ) );
#355 = AXIS2_PLACEMENT_3D( '', #394, #395, #396 );
#356 = COLOUR_RGB( '', 0.689999997600000, 0.689999997600000, 0.689999997600000 );
#357 = CARTESIAN_POINT( '', ( 0.000000000000000, 0.000000000000000, -3.94644660940673 ) );
#358 = AXIS2_PLACEMENT_3D( '', #397, #398, #399 );
#359 = COLOUR_RGB( '', 0.689999997600000, 0.689999997600000, 0.689999997600000 );
#360 = CARTESIAN_POINT( '', ( 0.000000000000000, -0.699999999999996, -2.20000000000000 ) );
#361 = AXIS2_PLACEMENT_3D( '', #400, #401, #402 );
#362 = CARTESIAN_POINT( '', ( 0.000000000000000, -0.300000000000000, -2.20000000000000 ) );
#363 = AXIS2_PLACEMENT_3D( '', #403, #404, #405 );
#364 = COLOUR_RGB( '', 0.689999997600000, 0.689999997600000, 0.689999997600000 );
#365 = CARTESIAN_POINT( '', ( 0.000000000000000, -5.10000000000000, -7.49999999999999 ) );
#366 = AXIS2_PLACEMENT_3D( '', #406, #407, #408 );
#367 = COLOUR_RGB( '', 0.689999997600000, 0.689999997600000, 0.689999997600000 );
#368 = CARTESIAN_POINT( '', ( 0.000000000000000, 0.000000000000000, -2.50000000000000 ) );
#369 = AXIS2_PLACEMENT_3D( '', #409, #410, #411 );
#370 = COLOUR_RGB( '', 0.689999997600000, 0.689999997600000, 0.689999997600000 );
#371 = CARTESIAN_POINT( '', ( 0.000000000000000, -7.60000000000000, -7.14644660940672 ) );
#372 = AXIS2_PLACEMENT_3D( '', #412, #413, #414 );
#373 = CARTESIAN_POINT( '', ( 0.000000000000000, -7.24644660940673, -7.49999999999999 ) );
#374 = AXIS2_PLACEMENT_3D( '', #415, #416, #417 );
#375 = COLOUR_RGB( '', 0.689999997600000, 0.689999997600000, 0.689999997600000 );
#376 = CARTESIAN_POINT( '', ( 0.000000000000000, -2.80000000000000, -2.30000000000000 ) );
#377 = AXIS2_PLACEMENT_3D( '', #418, #419, #420 );
#378 = CARTESIAN_POINT( '', ( 0.000000000000000, -0.799999999999997, -2.30000000000000 ) );
#379 = AXIS2_PLACEMENT_3D( '', #421, #422, #423 );
#380 = COLOUR_RGB( '', 0.689999997600000, 0.689999997600000, 0.689999997600000 );
#381 = COLOUR_RGB( '', 0.689999997600000, 0.689999997600000, 0.689999997600000 );
#382 = CARTESIAN_POINT( '', ( 0.000000000000000, -7.60000000000000, -2.60000000000000 ) );
#383 = AXIS2_PLACEMENT_3D( '', #424, #425, #426 );
#384 = COLOUR_RGB( '', 0.689999997600000, 0.689999997600000, 0.689999997600000 );
#385 = COLOUR_RGB( '', 0.689999997600000, 0.689999997600000, 0.689999997600000 );
#386 = COLOUR_RGB( '', 0.689999997600000, 0.689999997600000, 0.689999997600000 );
#387 = COLOUR_RGB( '', 0.689999997600000, 0.689999997600000, 0.689999997600000 );
#388 = CARTESIAN_POINT( '', ( 0.000000000000000, -6.30000000000000, -2.60000000000000 ) );
#389 = AXIS2_PLACEMENT_3D( '', #427, #428, #429 );
#390 = COLOUR_RGB( '', 0.689999997600000, 0.689999997600000, 0.689999997600000 );
#391 = CARTESIAN_POINT( '', ( 0.000000000000000, -3.60000000000000, 0.000000000000000 ) );
#392 = DIRECTION( '', ( 0.000000000000000, -1.00000000000000, -0.000000000000000 ) );
#393 = DIRECTION( '', ( 0.000000000000000, 0.000000000000000, -1.00000000000000 ) );
#394 = CARTESIAN_POINT( '', ( 0.000000000000000, -0.353553390593273, 0.000000000000000 ) );
#395 = DIRECTION( '', ( 0.000000000000000, -1.00000000000000, -0.000000000000000 ) );
#396 = DIRECTION( '', ( 0.000000000000000, 0.000000000000000, -1.00000000000000 ) );
#397 = CARTESIAN_POINT( '', ( 0.000000000000000, 0.000000000000000, 0.000000000000000 ) );
#398 = DIRECTION( '', ( 0.000000000000000, -1.00000000000000, -0.000000000000000 ) );
#399 = DIRECTION( '', ( 0.000000000000000, 0.000000000000000, -1.00000000000000 ) );
#400 = CARTESIAN_POINT( '', ( 0.000000000000000, -0.699999999999996, 0.000000000000000 ) );
#401 = DIRECTION( '', ( 0.000000000000000, -1.00000000000000, -0.000000000000000 ) );
#402 = DIRECTION( '', ( 0.000000000000000, 0.000000000000000, -1.00000000000000 ) );
#403 = CARTESIAN_POINT( '', ( 0.000000000000000, -0.300000000000000, 0.000000000000000 ) );
#404 = DIRECTION( '', ( 0.000000000000000, -1.00000000000000, -0.000000000000000 ) );
#405 = DIRECTION( '', ( 0.000000000000000, 0.000000000000000, -1.00000000000000 ) );
#406 = CARTESIAN_POINT( '', ( 0.000000000000000, -5.10000000000000, 0.000000000000000 ) );
#407 = DIRECTION( '', ( 0.000000000000000, -1.00000000000000, -0.000000000000000 ) );
#408 = DIRECTION( '', ( 0.000000000000000, 0.000000000000000, -1.00000000000000 ) );
#409 = CARTESIAN_POINT( '', ( 0.000000000000000, 0.000000000000000, 0.000000000000000 ) );
#410 = DIRECTION( '', ( 0.000000000000000, -1.00000000000000, -0.000000000000000 ) );
#411 = DIRECTION( '', ( 0.000000000000000, 0.000000000000000, -1.00000000000000 ) );
#412 = CARTESIAN_POINT( '', ( 0.000000000000000, -7.60000000000000, 0.000000000000000 ) );
#413 = DIRECTION( '', ( 0.000000000000000, -1.00000000000000, -0.000000000000000 ) );
#414 = DIRECTION( '', ( 0.000000000000000, 0.000000000000000, -1.00000000000000 ) );
#415 = CARTESIAN_POINT( '', ( 0.000000000000000, -7.24644660940673, 0.000000000000000 ) );
#416 = DIRECTION( '', ( 0.000000000000000, -1.00000000000000, -0.000000000000000 ) );
#417 = DIRECTION( '', ( 0.000000000000000, 0.000000000000000, -1.00000000000000 ) );
#418 = CARTESIAN_POINT( '', ( 0.000000000000000, -2.80000000000000, 0.000000000000000 ) );
#419 = DIRECTION( '', ( 0.000000000000000, -1.00000000000000, -0.000000000000000 ) );
#420 = DIRECTION( '', ( 0.000000000000000, 0.000000000000000, -1.00000000000000 ) );
#421 = CARTESIAN_POINT( '', ( 0.000000000000000, -0.799999999999997, 0.000000000000000 ) );
#422 = DIRECTION( '', ( 0.000000000000000, -1.00000000000000, -0.000000000000000 ) );
#423 = DIRECTION( '', ( 0.000000000000000, 0.000000000000000, -1.00000000000000 ) );
#424 = CARTESIAN_POINT( '', ( 0.000000000000000, -7.60000000000000, 0.000000000000000 ) );
#425 = DIRECTION( '', ( 0.000000000000000, -1.00000000000000, -0.000000000000000 ) );
#426 = DIRECTION( '', ( 0.000000000000000, 0.000000000000000, -1.00000000000000 ) );
#427 = CARTESIAN_POINT( '', ( 0.000000000000000, -6.30000000000000, 0.000000000000000 ) );
#428 = DIRECTION( '', ( 0.000000000000000, -1.00000000000000, -0.000000000000000 ) );
#429 = DIRECTION( '', ( 0.000000000000000, 0.000000000000000, -1.00000000000000 ) );
ENDSEC;
END-ISO-10303-21;
