ISO-10303-21;
HEADER;
FILE_DESCRIPTION( ( 'STEP AP214' ), '1' );
FILE_NAME( '//goodhand-server/Shared Folders/GoodHand Data/Kipp CAD/K0392/K0392.06.stp', '2020-12-07T10:23:19', ( '' ), ( '' ), ' ', 'PARTsolutions', ' ' );
FILE_SCHEMA( ( 'AUTOMOTIVE_DESIGN { 1 0 10303 214 1 1 1 1 }' ) );
ENDSEC;
DATA;
#1 = MECHANICAL_DESIGN_GEOMETRIC_PRESENTATION_REPRESENTATION( ' ', ( #10, #11, #12, #13, #14, #15, #16, #17, #18, #19, #20, #21, #22, #23, #24, #25 ), #6 );
#2 = PRODUCT_DEFINITION_CONTEXT( '', #26, 'design' );
#3 = APPLICATION_PROTOCOL_DEFINITION( 'international standard', 'automotive_design', 2001, #26 );
#4 = PRODUCT_CATEGORY_RELATIONSHIP( 'NONE', 'NONE', #27, #28 );
#5 = SHAPE_DEFINITION_REPRESENTATION( #29, #30 );
#6 =  ( GEOMETRIC_REPRESENTATION_CONTEXT( 3 )GLOBAL_UNCERTAINTY_ASSIGNED_CONTEXT( ( #33 ) )GLOBAL_UNIT_ASSIGNED_CONTEXT( ( #35, #36, #37 ) )REPRESENTATION_CONTEXT( 'NONE', 'WORKSPACE' ) );
#10 = STYLED_ITEM( '', ( #39 ), #40 );
#11 = STYLED_ITEM( '', ( #41 ), #42 );
#12 = STYLED_ITEM( '', ( #43 ), #44 );
#13 = STYLED_ITEM( '', ( #45 ), #46 );
#14 = STYLED_ITEM( '', ( #47 ), #48 );
#15 = STYLED_ITEM( '', ( #49 ), #50 );
#16 = STYLED_ITEM( '', ( #51 ), #52 );
#17 = STYLED_ITEM( '', ( #53 ), #54 );
#18 = STYLED_ITEM( '', ( #55 ), #56 );
#19 = STYLED_ITEM( '', ( #57 ), #58 );
#20 = STYLED_ITEM( '', ( #59 ), #60 );
#21 = STYLED_ITEM( '', ( #61 ), #62 );
#22 = STYLED_ITEM( '', ( #63 ), #64 );
#23 = STYLED_ITEM( '', ( #65 ), #66 );
#24 = STYLED_ITEM( '', ( #67 ), #68 );
#25 = STYLED_ITEM( '', ( #69 ), #70 );
#26 = APPLICATION_CONTEXT( 'core data for automotive mechanical design processes' );
#27 = PRODUCT_CATEGORY( 'part', 'NONE' );
#28 = PRODUCT_RELATED_PRODUCT_CATEGORY( 'detail', ' ', ( #71 ) );
#29 = PRODUCT_DEFINITION_SHAPE( 'NONE', 'NONE', #72 );
#30 = ADVANCED_BREP_SHAPE_REPRESENTATION( '_K0392.06', ( #73, #74 ), #6 );
#33 = UNCERTAINTY_MEASURE_WITH_UNIT( LENGTH_MEASURE( 0.00100000000000000 ), #35, '', '' );
#35 =  ( CONVERSION_BASED_UNIT( 'MILLIMETRE', #77 )LENGTH_UNIT(  )NAMED_UNIT( #80 ) );
#36 =  ( NAMED_UNIT( #82 )PLANE_ANGLE_UNIT(  )SI_UNIT( $, .RADIAN. ) );
#37 =  ( NAMED_UNIT( #82 )SI_UNIT( $, .STERADIAN. )SOLID_ANGLE_UNIT(  ) );
#39 = PRESENTATION_STYLE_ASSIGNMENT( ( #88 ) );
#40 = ADVANCED_FACE( '', ( #89, #90 ), #91, .F. );
#41 = PRESENTATION_STYLE_ASSIGNMENT( ( #92 ) );
#42 = ADVANCED_FACE( '', ( #93, #94 ), #95, .F. );
#43 = PRESENTATION_STYLE_ASSIGNMENT( ( #96 ) );
#44 = ADVANCED_FACE( '', ( #97, #98 ), #99, .F. );
#45 = PRESENTATION_STYLE_ASSIGNMENT( ( #100 ) );
#46 = ADVANCED_FACE( '', ( #101, #102 ), #103, .F. );
#47 = PRESENTATION_STYLE_ASSIGNMENT( ( #104 ) );
#48 = ADVANCED_FACE( '', ( #105, #106, #107 ), #108, .F. );
#49 = PRESENTATION_STYLE_ASSIGNMENT( ( #109 ) );
#50 = ADVANCED_FACE( '', ( #110, #111 ), #112, .F. );
#51 = PRESENTATION_STYLE_ASSIGNMENT( ( #113 ) );
#52 = ADVANCED_FACE( '', ( #114, #115 ), #116, .F. );
#53 = PRESENTATION_STYLE_ASSIGNMENT( ( #117 ) );
#54 = ADVANCED_FACE( '', ( #118, #119 ), #120, .T. );
#55 = PRESENTATION_STYLE_ASSIGNMENT( ( #121 ) );
#56 = ADVANCED_FACE( '', ( #122 ), #123, .T. );
#57 = PRESENTATION_STYLE_ASSIGNMENT( ( #124 ) );
#58 = ADVANCED_FACE( '', ( #125, #126 ), #127, .T. );
#59 = PRESENTATION_STYLE_ASSIGNMENT( ( #128 ) );
#60 = ADVANCED_FACE( '', ( #129, #130 ), #131, .F. );
#61 = PRESENTATION_STYLE_ASSIGNMENT( ( #132 ) );
#62 = ADVANCED_FACE( '', ( #133, #134 ), #135, .T. );
#63 = PRESENTATION_STYLE_ASSIGNMENT( ( #136 ) );
#64 = ADVANCED_FACE( '', ( #137, #138 ), #139, .F. );
#65 = PRESENTATION_STYLE_ASSIGNMENT( ( #140 ) );
#66 = ADVANCED_FACE( '', ( #141, #142 ), #143, .F. );
#67 = PRESENTATION_STYLE_ASSIGNMENT( ( #144 ) );
#68 = ADVANCED_FACE( '', ( #145, #146 ), #147, .F. );
#69 = PRESENTATION_STYLE_ASSIGNMENT( ( #148 ) );
#70 = ADVANCED_FACE( '', ( #149, #150 ), #151, .T. );
#71 = PRODUCT( '_K0392.06', '_K0392.06', 'PART-_K0392.06-DESC', ( #152 ) );
#72 = PRODUCT_DEFINITION( 'NONE', 'NONE', #153, #2 );
#73 = MANIFOLD_SOLID_BREP( '_K0392.06', #154 );
#74 = AXIS2_PLACEMENT_3D( '', #155, #156, #157 );
#77 = LENGTH_MEASURE_WITH_UNIT( LENGTH_MEASURE( 1.00000000000000 ), #158 );
#80 = DIMENSIONAL_EXPONENTS( 1.00000000000000, 0.000000000000000, 0.000000000000000, 0.000000000000000, 0.000000000000000, 0.000000000000000, 0.000000000000000 );
#82 = DIMENSIONAL_EXPONENTS( 0.000000000000000, 0.000000000000000, 0.000000000000000, 0.000000000000000, 0.000000000000000, 0.000000000000000, 0.000000000000000 );
#88 = SURFACE_STYLE_USAGE( .BOTH., #159 );
#89 = FACE_BOUND( '', #160, .T. );
#90 = FACE_OUTER_BOUND( '', #161, .T. );
#91 = PLANE( '', #162 );
#92 = SURFACE_STYLE_USAGE( .BOTH., #163 );
#93 = FACE_OUTER_BOUND( '', #164, .T. );
#94 = FACE_BOUND( '', #165, .T. );
#95 = PLANE( '', #166 );
#96 = SURFACE_STYLE_USAGE( .BOTH., #167 );
#97 = FACE_OUTER_BOUND( '', #168, .T. );
#98 = FACE_OUTER_BOUND( '', #169, .T. );
#99 = CYLINDRICAL_SURFACE( '', #170, 2.30000000000000 );
#100 = SURFACE_STYLE_USAGE( .BOTH., #171 );
#101 = FACE_OUTER_BOUND( '', #172, .T. );
#102 = FACE_OUTER_BOUND( '', #173, .T. );
#103 = TOROIDAL_SURFACE( '', #174, 6.50000000000000, 1.50000000000000 );
#104 = SURFACE_STYLE_USAGE( .BOTH., #175 );
#105 = FACE_BOUND( '', #176, .T. );
#106 = FACE_OUTER_BOUND( '', #177, .T. );
#107 = FACE_OUTER_BOUND( '', #178, .T. );
#108 = TOROIDAL_SURFACE( '', #179, 2.45000000000000, 0.350000000000000 );
#109 = SURFACE_STYLE_USAGE( .BOTH., #180 );
#110 = FACE_OUTER_BOUND( '', #181, .T. );
#111 = FACE_BOUND( '', #182, .T. );
#112 = PLANE( '', #183 );
#113 = SURFACE_STYLE_USAGE( .BOTH., #184 );
#114 = FACE_OUTER_BOUND( '', #185, .T. );
#115 = FACE_OUTER_BOUND( '', #186, .T. );
#116 = CYLINDRICAL_SURFACE( '', #187, 2.30000000000000 );
#117 = SURFACE_STYLE_USAGE( .BOTH., #188 );
#118 = FACE_OUTER_BOUND( '', #189, .T. );
#119 = FACE_OUTER_BOUND( '', #190, .T. );
#120 = CYLINDRICAL_SURFACE( '', #191, 6.00000000000000 );
#121 = SURFACE_STYLE_USAGE( .BOTH., #192 );
#122 = FACE_OUTER_BOUND( '', #193, .T. );
#123 = PLANE( '', #194 );
#124 = SURFACE_STYLE_USAGE( .BOTH., #195 );
#125 = FACE_OUTER_BOUND( '', #196, .T. );
#126 = FACE_OUTER_BOUND( '', #197, .T. );
#127 = CYLINDRICAL_SURFACE( '', #198, 5.00000000000000 );
#128 = SURFACE_STYLE_USAGE( .BOTH., #199 );
#129 = FACE_OUTER_BOUND( '', #200, .T. );
#130 = FACE_BOUND( '', #201, .T. );
#131 = CONICAL_SURFACE( '', #202, 857.167300702100, 1.02974425870000 );
#132 = SURFACE_STYLE_USAGE( .BOTH., #203 );
#133 = FACE_BOUND( '', #204, .T. );
#134 = FACE_OUTER_BOUND( '', #205, .T. );
#135 = CONICAL_SURFACE( '', #206, 6.00000000000000, 0.785398163400000 );
#136 = SURFACE_STYLE_USAGE( .BOTH., #207 );
#137 = FACE_OUTER_BOUND( '', #208, .T. );
#138 = FACE_BOUND( '', #209, .T. );
#139 = CONICAL_SURFACE( '', #210, 2.30000000000000, 0.785398163400000 );
#140 = SURFACE_STYLE_USAGE( .BOTH., #211 );
#141 = FACE_OUTER_BOUND( '', #212, .T. );
#142 = FACE_OUTER_BOUND( '', #213, .T. );
#143 = CYLINDRICAL_SURFACE( '', #214, 2.50000000000000 );
#144 = SURFACE_STYLE_USAGE( .BOTH., #215 );
#145 = FACE_BOUND( '', #216, .T. );
#146 = FACE_OUTER_BOUND( '', #217, .T. );
#147 = PLANE( '', #218 );
#148 = SURFACE_STYLE_USAGE( .BOTH., #219 );
#149 = FACE_OUTER_BOUND( '', #220, .T. );
#150 = FACE_BOUND( '', #221, .T. );
#151 = CONICAL_SURFACE( '', #222, 4.40000000000000, 0.785398163400000 );
#152 = PRODUCT_CONTEXT( '', #26, 'mechanical' );
#153 = PRODUCT_DEFINITION_FORMATION_WITH_SPECIFIED_SOURCE( ' ', 'NONE', #71, .NOT_KNOWN. );
#154 = CLOSED_SHELL( '', ( #60, #44, #42, #48, #68, #52, #64, #50, #70, #58, #46, #54, #62, #40, #56, #66 ) );
#155 = CARTESIAN_POINT( '', ( 0.000000000000000, 0.000000000000000, 0.000000000000000 ) );
#156 = DIRECTION( '', ( 0.000000000000000, 0.000000000000000, 1.00000000000000 ) );
#157 = DIRECTION( '', ( 1.00000000000000, 0.000000000000000, 0.000000000000000 ) );
#158 =  ( LENGTH_UNIT(  )NAMED_UNIT( #80 )SI_UNIT( .MILLI., .METRE. ) );
#159 = SURFACE_SIDE_STYLE( '', ( #224 ) );
#160 = EDGE_LOOP( '', ( #225 ) );
#161 = EDGE_LOOP( '', ( #226 ) );
#162 = AXIS2_PLACEMENT_3D( '', #227, #228, #229 );
#163 = SURFACE_SIDE_STYLE( '', ( #230 ) );
#164 = EDGE_LOOP( '', ( #231 ) );
#165 = EDGE_LOOP( '', ( #232 ) );
#166 = AXIS2_PLACEMENT_3D( '', #233, #234, #235 );
#167 = SURFACE_SIDE_STYLE( '', ( #236 ) );
#168 = EDGE_LOOP( '', ( #237 ) );
#169 = EDGE_LOOP( '', ( #238 ) );
#170 = AXIS2_PLACEMENT_3D( '', #239, #240, #241 );
#171 = SURFACE_SIDE_STYLE( '', ( #242 ) );
#172 = EDGE_LOOP( '', ( #243 ) );
#173 = EDGE_LOOP( '', ( #244 ) );
#174 = AXIS2_PLACEMENT_3D( '', #245, #246, #247 );
#175 = SURFACE_SIDE_STYLE( '', ( #248 ) );
#176 = VERTEX_LOOP( '', #249 );
#177 = EDGE_LOOP( '', ( #250 ) );
#178 = EDGE_LOOP( '', ( #251 ) );
#179 = AXIS2_PLACEMENT_3D( '', #252, #253, #254 );
#180 = SURFACE_SIDE_STYLE( '', ( #255 ) );
#181 = EDGE_LOOP( '', ( #256 ) );
#182 = EDGE_LOOP( '', ( #257 ) );
#183 = AXIS2_PLACEMENT_3D( '', #258, #259, #260 );
#184 = SURFACE_SIDE_STYLE( '', ( #261 ) );
#185 = EDGE_LOOP( '', ( #262 ) );
#186 = EDGE_LOOP( '', ( #263 ) );
#187 = AXIS2_PLACEMENT_3D( '', #264, #265, #266 );
#188 = SURFACE_SIDE_STYLE( '', ( #267 ) );
#189 = EDGE_LOOP( '', ( #268 ) );
#190 = EDGE_LOOP( '', ( #269 ) );
#191 = AXIS2_PLACEMENT_3D( '', #270, #271, #272 );
#192 = SURFACE_SIDE_STYLE( '', ( #273 ) );
#193 = EDGE_LOOP( '', ( #274 ) );
#194 = AXIS2_PLACEMENT_3D( '', #275, #276, #277 );
#195 = SURFACE_SIDE_STYLE( '', ( #278 ) );
#196 = EDGE_LOOP( '', ( #279 ) );
#197 = EDGE_LOOP( '', ( #280 ) );
#198 = AXIS2_PLACEMENT_3D( '', #281, #282, #283 );
#199 = SURFACE_SIDE_STYLE( '', ( #284 ) );
#200 = EDGE_LOOP( '', ( #285 ) );
#201 = VERTEX_LOOP( '', #286 );
#202 = AXIS2_PLACEMENT_3D( '', #287, #288, #289 );
#203 = SURFACE_SIDE_STYLE( '', ( #290 ) );
#204 = EDGE_LOOP( '', ( #291 ) );
#205 = EDGE_LOOP( '', ( #292 ) );
#206 = AXIS2_PLACEMENT_3D( '', #293, #294, #295 );
#207 = SURFACE_SIDE_STYLE( '', ( #296 ) );
#208 = EDGE_LOOP( '', ( #297 ) );
#209 = EDGE_LOOP( '', ( #298 ) );
#210 = AXIS2_PLACEMENT_3D( '', #299, #300, #301 );
#211 = SURFACE_SIDE_STYLE( '', ( #302 ) );
#212 = EDGE_LOOP( '', ( #303 ) );
#213 = EDGE_LOOP( '', ( #304 ) );
#214 = AXIS2_PLACEMENT_3D( '', #305, #306, #307 );
#215 = SURFACE_SIDE_STYLE( '', ( #308 ) );
#216 = EDGE_LOOP( '', ( #309 ) );
#217 = EDGE_LOOP( '', ( #310 ) );
#218 = AXIS2_PLACEMENT_3D( '', #311, #312, #313 );
#219 = SURFACE_SIDE_STYLE( '', ( #314 ) );
#220 = EDGE_LOOP( '', ( #315 ) );
#221 = EDGE_LOOP( '', ( #316 ) );
#222 = AXIS2_PLACEMENT_3D( '', #317, #318, #319 );
#224 = SURFACE_STYLE_FILL_AREA( #320 );
#225 = ORIENTED_EDGE( '', *, *, #321, .F. );
#226 = ORIENTED_EDGE( '', *, *, #322, .T. );
#227 = CARTESIAN_POINT( '', ( 5.40000000000000, 0.000000000000000, 0.000000000000000 ) );
#228 = DIRECTION( '', ( 0.000000000000000, 1.00000000000000, 0.000000000000000 ) );
#229 = DIRECTION( '', ( 0.000000000000000, -0.000000000000000, 1.00000000000000 ) );
#230 = SURFACE_STYLE_FILL_AREA( #323 );
#231 = ORIENTED_EDGE( '', *, *, #324, .F. );
#232 = ORIENTED_EDGE( '', *, *, #325, .T. );
#233 = CARTESIAN_POINT( '', ( 2.30000000000000, 4.85000000000000, 0.000000000000000 ) );
#234 = DIRECTION( '', ( 0.000000000000000, -1.00000000000000, -0.000000000000000 ) );
#235 = DIRECTION( '', ( 0.000000000000000, 0.000000000000000, -1.00000000000000 ) );
#236 = SURFACE_STYLE_FILL_AREA( #326 );
#237 = ORIENTED_EDGE( '', *, *, #325, .F. );
#238 = ORIENTED_EDGE( '', *, *, #327, .T. );
#239 = CARTESIAN_POINT( '', ( 0.000000000000000, 0.000000000000000, 0.000000000000000 ) );
#240 = DIRECTION( '', ( -0.000000000000000, 1.00000000000000, 0.000000000000000 ) );
#241 = DIRECTION( '', ( 0.000000000000000, 0.000000000000000, -1.00000000000000 ) );
#242 = SURFACE_STYLE_FILL_AREA( #328 );
#243 = ORIENTED_EDGE( '', *, *, #329, .F. );
#244 = ORIENTED_EDGE( '', *, *, #330, .T. );
#245 = CARTESIAN_POINT( '', ( 0.000000000000000, 3.91421356237309, 0.000000000000000 ) );
#246 = DIRECTION( '', ( 0.000000000000000, -1.00000000000000, -0.000000000000000 ) );
#247 = DIRECTION( '', ( 0.000000000000000, 0.000000000000000, -1.00000000000000 ) );
#248 = SURFACE_STYLE_FILL_AREA( #331 );
#249 = VERTEX_POINT( '', #332 );
#250 = ORIENTED_EDGE( '', *, *, #333, .F. );
#251 = ORIENTED_EDGE( '', *, *, #324, .T. );
#252 = CARTESIAN_POINT( '', ( 0.000000000000000, 5.20000000000000, 0.000000000000000 ) );
#253 = DIRECTION( '', ( 0.000000000000000, -1.00000000000000, -0.000000000000000 ) );
#254 = DIRECTION( '', ( 0.000000000000000, 0.000000000000000, -1.00000000000000 ) );
#255 = SURFACE_STYLE_FILL_AREA( #334 );
#256 = ORIENTED_EDGE( '', *, *, #335, .F. );
#257 = ORIENTED_EDGE( '', *, *, #336, .T. );
#258 = CARTESIAN_POINT( '', ( 3.30000000000000, 7.00000000000000, 0.000000000000000 ) );
#259 = DIRECTION( '', ( 0.000000000000000, -1.00000000000000, -0.000000000000000 ) );
#260 = DIRECTION( '', ( 0.000000000000000, 0.000000000000000, -1.00000000000000 ) );
#261 = SURFACE_STYLE_FILL_AREA( #337 );
#262 = ORIENTED_EDGE( '', *, *, #338, .F. );
#263 = ORIENTED_EDGE( '', *, *, #339, .T. );
#264 = CARTESIAN_POINT( '', ( 0.000000000000000, 0.000000000000000, 0.000000000000000 ) );
#265 = DIRECTION( '', ( -0.000000000000000, 1.00000000000000, 0.000000000000000 ) );
#266 = DIRECTION( '', ( 0.000000000000000, 0.000000000000000, -1.00000000000000 ) );
#267 = SURFACE_STYLE_FILL_AREA( #340 );
#268 = ORIENTED_EDGE( '', *, *, #341, .F. );
#269 = ORIENTED_EDGE( '', *, *, #329, .T. );
#270 = CARTESIAN_POINT( '', ( 0.000000000000000, 0.000000000000000, 0.000000000000000 ) );
#271 = DIRECTION( '', ( -0.000000000000000, 1.00000000000000, 0.000000000000000 ) );
#272 = DIRECTION( '', ( 0.000000000000000, 0.000000000000000, -1.00000000000000 ) );
#273 = SURFACE_STYLE_FILL_AREA( #342 );
#274 = ORIENTED_EDGE( '', *, *, #343, .T. );
#275 = CARTESIAN_POINT( '', ( 0.000000000000000, 0.500000000000000, 0.000000000000000 ) );
#276 = DIRECTION( '', ( 0.000000000000000, -1.00000000000000, -0.000000000000000 ) );
#277 = DIRECTION( '', ( 0.000000000000000, 0.000000000000000, -1.00000000000000 ) );
#278 = SURFACE_STYLE_FILL_AREA( #344 );
#279 = ORIENTED_EDGE( '', *, *, #330, .F. );
#280 = ORIENTED_EDGE( '', *, *, #345, .T. );
#281 = CARTESIAN_POINT( '', ( 0.000000000000000, 0.000000000000000, 0.000000000000000 ) );
#282 = DIRECTION( '', ( -0.000000000000000, 1.00000000000000, 0.000000000000000 ) );
#283 = DIRECTION( '', ( 0.000000000000000, 0.000000000000000, -1.00000000000000 ) );
#284 = SURFACE_STYLE_FILL_AREA( #346 );
#285 = ORIENTED_EDGE( '', *, *, #327, .F. );
#286 = VERTEX_POINT( '', #347 );
#287 = CARTESIAN_POINT( '', ( 0.000000000000000, 516.656095486291, 0.000000000000000 ) );
#288 = DIRECTION( '', ( -0.000000000000000, 1.00000000000000, 0.000000000000000 ) );
#289 = DIRECTION( '', ( 0.000000000000000, -0.000000000000000, 1.00000000000000 ) );
#290 = SURFACE_STYLE_FILL_AREA( #348 );
#291 = ORIENTED_EDGE( '', *, *, #322, .F. );
#292 = ORIENTED_EDGE( '', *, *, #341, .T. );
#293 = CARTESIAN_POINT( '', ( 0.000000000000000, 0.600000000000000, 0.000000000000000 ) );
#294 = DIRECTION( '', ( -0.000000000000000, 1.00000000000000, 0.000000000000000 ) );
#295 = DIRECTION( '', ( 0.000000000000000, -0.000000000000000, 1.00000000000000 ) );
#296 = SURFACE_STYLE_FILL_AREA( #349 );
#297 = ORIENTED_EDGE( '', *, *, #336, .F. );
#298 = ORIENTED_EDGE( '', *, *, #338, .T. );
#299 = CARTESIAN_POINT( '', ( 0.000000000000000, 6.00000000000000, 0.000000000000000 ) );
#300 = DIRECTION( '', ( -0.000000000000000, 1.00000000000000, 0.000000000000000 ) );
#301 = DIRECTION( '', ( 0.000000000000000, -0.000000000000000, 1.00000000000000 ) );
#302 = SURFACE_STYLE_FILL_AREA( #350 );
#303 = ORIENTED_EDGE( '', *, *, #321, .T. );
#304 = ORIENTED_EDGE( '', *, *, #343, .F. );
#305 = CARTESIAN_POINT( '', ( 0.000000000000000, 0.000000000000000, 0.000000000000000 ) );
#306 = DIRECTION( '', ( -0.000000000000000, 1.00000000000000, 0.000000000000000 ) );
#307 = DIRECTION( '', ( 0.000000000000000, 0.000000000000000, -1.00000000000000 ) );
#308 = SURFACE_STYLE_FILL_AREA( #351 );
#309 = ORIENTED_EDGE( '', *, *, #339, .F. );
#310 = ORIENTED_EDGE( '', *, *, #333, .T. );
#311 = CARTESIAN_POINT( '', ( 2.45000000000000, 5.55000000000000, 0.000000000000000 ) );
#312 = DIRECTION( '', ( 0.000000000000000, 1.00000000000000, 0.000000000000000 ) );
#313 = DIRECTION( '', ( 0.000000000000000, -0.000000000000000, 1.00000000000000 ) );
#314 = SURFACE_STYLE_FILL_AREA( #352 );
#315 = ORIENTED_EDGE( '', *, *, #345, .F. );
#316 = ORIENTED_EDGE( '', *, *, #335, .T. );
#317 = CARTESIAN_POINT( '', ( 0.000000000000000, 7.00000000000000, 0.000000000000000 ) );
#318 = DIRECTION( '', ( -0.000000000000000, -1.00000000000000, -0.000000000000000 ) );
#319 = DIRECTION( '', ( 0.000000000000000, 0.000000000000000, -1.00000000000000 ) );
#320 = FILL_AREA_STYLE( '', ( #353 ) );
#321 = EDGE_CURVE( '', #354, #354, #355, .T. );
#322 = EDGE_CURVE( '', #356, #356, #357, .T. );
#323 = FILL_AREA_STYLE( '', ( #358 ) );
#324 = EDGE_CURVE( '', #359, #359, #360, .T. );
#325 = EDGE_CURVE( '', #361, #361, #362, .T. );
#326 = FILL_AREA_STYLE( '', ( #363 ) );
#327 = EDGE_CURVE( '', #364, #364, #365, .T. );
#328 = FILL_AREA_STYLE( '', ( #366 ) );
#329 = EDGE_CURVE( '', #367, #367, #368, .T. );
#330 = EDGE_CURVE( '', #369, #369, #370, .T. );
#331 = FILL_AREA_STYLE( '', ( #371 ) );
#332 = CARTESIAN_POINT( '', ( 0.000000000000000, 5.20000000000000, -2.80000000000000 ) );
#333 = EDGE_CURVE( '', #372, #372, #373, .T. );
#334 = FILL_AREA_STYLE( '', ( #374 ) );
#335 = EDGE_CURVE( '', #375, #375, #376, .T. );
#336 = EDGE_CURVE( '', #377, #377, #378, .T. );
#337 = FILL_AREA_STYLE( '', ( #379 ) );
#338 = EDGE_CURVE( '', #380, #380, #381, .T. );
#339 = EDGE_CURVE( '', #382, #382, #383, .T. );
#340 = FILL_AREA_STYLE( '', ( #384 ) );
#341 = EDGE_CURVE( '', #385, #385, #386, .T. );
#342 = FILL_AREA_STYLE( '', ( #387 ) );
#343 = EDGE_CURVE( '', #388, #388, #389, .T. );
#344 = FILL_AREA_STYLE( '', ( #390 ) );
#345 = EDGE_CURVE( '', #391, #391, #392, .T. );
#346 = FILL_AREA_STYLE( '', ( #393 ) );
#347 = CARTESIAN_POINT( '', ( 0.000000000000000, 1.61802057623661, 0.000000000000000 ) );
#348 = FILL_AREA_STYLE( '', ( #394 ) );
#349 = FILL_AREA_STYLE( '', ( #395 ) );
#350 = FILL_AREA_STYLE( '', ( #396 ) );
#351 = FILL_AREA_STYLE( '', ( #397 ) );
#352 = FILL_AREA_STYLE( '', ( #398 ) );
#353 = FILL_AREA_STYLE_COLOUR( '', #399 );
#354 = VERTEX_POINT( '', #400 );
#355 = CIRCLE( '', #401, 2.50000000000000 );
#356 = VERTEX_POINT( '', #402 );
#357 = CIRCLE( '', #403, 5.40000000000000 );
#358 = FILL_AREA_STYLE_COLOUR( '', #404 );
#359 = VERTEX_POINT( '', #405 );
#360 = CIRCLE( '', #406, 2.45000000000000 );
#361 = VERTEX_POINT( '', #407 );
#362 = CIRCLE( '', #408, 2.30000000000000 );
#363 = FILL_AREA_STYLE_COLOUR( '', #409 );
#364 = VERTEX_POINT( '', #410 );
#365 = CIRCLE( '', #411, 2.30000000000000 );
#366 = FILL_AREA_STYLE_COLOUR( '', #412 );
#367 = VERTEX_POINT( '', #413 );
#368 = CIRCLE( '', #414, 6.00000000000000 );
#369 = VERTEX_POINT( '', #415 );
#370 = CIRCLE( '', #416, 5.00000000000000 );
#371 = FILL_AREA_STYLE_COLOUR( '', #417 );
#372 = VERTEX_POINT( '', #418 );
#373 = CIRCLE( '', #419, 2.45000000000000 );
#374 = FILL_AREA_STYLE_COLOUR( '', #420 );
#375 = VERTEX_POINT( '', #421 );
#376 = CIRCLE( '', #422, 4.40000000000000 );
#377 = VERTEX_POINT( '', #423 );
#378 = CIRCLE( '', #424, 3.30000000000000 );
#379 = FILL_AREA_STYLE_COLOUR( '', #425 );
#380 = VERTEX_POINT( '', #426 );
#381 = CIRCLE( '', #427, 2.30000000000000 );
#382 = VERTEX_POINT( '', #428 );
#383 = CIRCLE( '', #429, 2.30000000000000 );
#384 = FILL_AREA_STYLE_COLOUR( '', #430 );
#385 = VERTEX_POINT( '', #431 );
#386 = CIRCLE( '', #432, 6.00000000000000 );
#387 = FILL_AREA_STYLE_COLOUR( '', #433 );
#388 = VERTEX_POINT( '', #434 );
#389 = CIRCLE( '', #435, 2.50000000000000 );
#390 = FILL_AREA_STYLE_COLOUR( '', #436 );
#391 = VERTEX_POINT( '', #437 );
#392 = CIRCLE( '', #438, 5.00000000000000 );
#393 = FILL_AREA_STYLE_COLOUR( '', #439 );
#394 = FILL_AREA_STYLE_COLOUR( '', #440 );
#395 = FILL_AREA_STYLE_COLOUR( '', #441 );
#396 = FILL_AREA_STYLE_COLOUR( '', #442 );
#397 = FILL_AREA_STYLE_COLOUR( '', #443 );
#398 = FILL_AREA_STYLE_COLOUR( '', #444 );
#399 = COLOUR_RGB( '', 0.689999997600000, 0.689999997600000, 0.689999997600000 );
#400 = CARTESIAN_POINT( '', ( 0.000000000000000, 0.000000000000000, -2.50000000000000 ) );
#401 = AXIS2_PLACEMENT_3D( '', #445, #446, #447 );
#402 = CARTESIAN_POINT( '', ( 0.000000000000000, 0.000000000000000, -5.40000000000000 ) );
#403 = AXIS2_PLACEMENT_3D( '', #448, #449, #450 );
#404 = COLOUR_RGB( '', 0.689999997600000, 0.689999997600000, 0.689999997600000 );
#405 = CARTESIAN_POINT( '', ( 0.000000000000000, 4.85000000000000, -2.45000000000000 ) );
#406 = AXIS2_PLACEMENT_3D( '', #451, #452, #453 );
#407 = CARTESIAN_POINT( '', ( 0.000000000000000, 4.85000000000000, -2.30000000000000 ) );
#408 = AXIS2_PLACEMENT_3D( '', #454, #455, #456 );
#409 = COLOUR_RGB( '', 0.689999997600000, 0.689999997600000, 0.689999997600000 );
#410 = CARTESIAN_POINT( '', ( 0.000000000000000, 3.00000000000000, -2.30000000000000 ) );
#411 = AXIS2_PLACEMENT_3D( '', #457, #458, #459 );
#412 = COLOUR_RGB( '', 0.689999997600000, 0.689999997600000, 0.689999997600000 );
#413 = CARTESIAN_POINT( '', ( 0.000000000000000, 2.50000000000000, -6.00000000000000 ) );
#414 = AXIS2_PLACEMENT_3D( '', #460, #461, #462 );
#415 = CARTESIAN_POINT( '', ( 0.000000000000000, 3.91421356237309, -5.00000000000000 ) );
#416 = AXIS2_PLACEMENT_3D( '', #463, #464, #465 );
#417 = COLOUR_RGB( '', 0.689999997600000, 0.689999997600000, 0.689999997600000 );
#418 = CARTESIAN_POINT( '', ( 0.000000000000000, 5.55000000000000, -2.45000000000000 ) );
#419 = AXIS2_PLACEMENT_3D( '', #466, #467, #468 );
#420 = COLOUR_RGB( '', 0.689999997600000, 0.689999997600000, 0.689999997600000 );
#421 = CARTESIAN_POINT( '', ( 0.000000000000000, 7.00000000000000, -4.40000000000000 ) );
#422 = AXIS2_PLACEMENT_3D( '', #469, #470, #471 );
#423 = CARTESIAN_POINT( '', ( 0.000000000000000, 7.00000000000000, -3.30000000000000 ) );
#424 = AXIS2_PLACEMENT_3D( '', #472, #473, #474 );
#425 = COLOUR_RGB( '', 0.689999997600000, 0.689999997600000, 0.689999997600000 );
#426 = CARTESIAN_POINT( '', ( 0.000000000000000, 6.00000000000000, -2.30000000000000 ) );
#427 = AXIS2_PLACEMENT_3D( '', #475, #476, #477 );
#428 = CARTESIAN_POINT( '', ( 0.000000000000000, 5.55000000000000, -2.30000000000000 ) );
#429 = AXIS2_PLACEMENT_3D( '', #478, #479, #480 );
#430 = COLOUR_RGB( '', 0.689999997600000, 0.689999997600000, 0.689999997600000 );
#431 = CARTESIAN_POINT( '', ( 0.000000000000000, 0.600000000000000, -6.00000000000000 ) );
#432 = AXIS2_PLACEMENT_3D( '', #481, #482, #483 );
#433 = COLOUR_RGB( '', 0.689999997600000, 0.689999997600000, 0.689999997600000 );
#434 = CARTESIAN_POINT( '', ( 0.000000000000000, 0.500000000000000, -2.50000000000000 ) );
#435 = AXIS2_PLACEMENT_3D( '', #484, #485, #486 );
#436 = COLOUR_RGB( '', 0.689999997600000, 0.689999997600000, 0.689999997600000 );
#437 = CARTESIAN_POINT( '', ( 0.000000000000000, 6.40000000000000, -5.00000000000000 ) );
#438 = AXIS2_PLACEMENT_3D( '', #487, #488, #489 );
#439 = COLOUR_RGB( '', 0.689999997600000, 0.689999997600000, 0.689999997600000 );
#440 = COLOUR_RGB( '', 0.689999997600000, 0.689999997600000, 0.689999997600000 );
#441 = COLOUR_RGB( '', 0.689999997600000, 0.689999997600000, 0.689999997600000 );
#442 = COLOUR_RGB( '', 0.689999997600000, 0.689999997600000, 0.689999997600000 );
#443 = COLOUR_RGB( '', 0.689999997600000, 0.689999997600000, 0.689999997600000 );
#444 = COLOUR_RGB( '', 0.689999997600000, 0.689999997600000, 0.689999997600000 );
#445 = CARTESIAN_POINT( '', ( 0.000000000000000, 0.000000000000000, 0.000000000000000 ) );
#446 = DIRECTION( '', ( 0.000000000000000, -1.00000000000000, -0.000000000000000 ) );
#447 = DIRECTION( '', ( 0.000000000000000, 0.000000000000000, -1.00000000000000 ) );
#448 = CARTESIAN_POINT( '', ( 0.000000000000000, 0.000000000000000, 0.000000000000000 ) );
#449 = DIRECTION( '', ( 0.000000000000000, -1.00000000000000, -0.000000000000000 ) );
#450 = DIRECTION( '', ( 0.000000000000000, 0.000000000000000, -1.00000000000000 ) );
#451 = CARTESIAN_POINT( '', ( 0.000000000000000, 4.85000000000000, 0.000000000000000 ) );
#452 = DIRECTION( '', ( 0.000000000000000, -1.00000000000000, -0.000000000000000 ) );
#453 = DIRECTION( '', ( 0.000000000000000, 0.000000000000000, -1.00000000000000 ) );
#454 = CARTESIAN_POINT( '', ( 0.000000000000000, 4.85000000000000, 0.000000000000000 ) );
#455 = DIRECTION( '', ( 0.000000000000000, -1.00000000000000, -0.000000000000000 ) );
#456 = DIRECTION( '', ( 0.000000000000000, 0.000000000000000, -1.00000000000000 ) );
#457 = CARTESIAN_POINT( '', ( 0.000000000000000, 3.00000000000000, 0.000000000000000 ) );
#458 = DIRECTION( '', ( 0.000000000000000, -1.00000000000000, -0.000000000000000 ) );
#459 = DIRECTION( '', ( 0.000000000000000, 0.000000000000000, -1.00000000000000 ) );
#460 = CARTESIAN_POINT( '', ( 0.000000000000000, 2.50000000000000, 0.000000000000000 ) );
#461 = DIRECTION( '', ( 0.000000000000000, -1.00000000000000, -0.000000000000000 ) );
#462 = DIRECTION( '', ( 0.000000000000000, 0.000000000000000, -1.00000000000000 ) );
#463 = CARTESIAN_POINT( '', ( 0.000000000000000, 3.91421356237309, 0.000000000000000 ) );
#464 = DIRECTION( '', ( 0.000000000000000, -1.00000000000000, -0.000000000000000 ) );
#465 = DIRECTION( '', ( 0.000000000000000, 0.000000000000000, -1.00000000000000 ) );
#466 = CARTESIAN_POINT( '', ( 0.000000000000000, 5.55000000000000, 0.000000000000000 ) );
#467 = DIRECTION( '', ( 0.000000000000000, -1.00000000000000, -0.000000000000000 ) );
#468 = DIRECTION( '', ( 0.000000000000000, 0.000000000000000, -1.00000000000000 ) );
#469 = CARTESIAN_POINT( '', ( 0.000000000000000, 7.00000000000000, 0.000000000000000 ) );
#470 = DIRECTION( '', ( 0.000000000000000, -1.00000000000000, -0.000000000000000 ) );
#471 = DIRECTION( '', ( 0.000000000000000, 0.000000000000000, -1.00000000000000 ) );
#472 = CARTESIAN_POINT( '', ( 0.000000000000000, 7.00000000000000, 0.000000000000000 ) );
#473 = DIRECTION( '', ( 0.000000000000000, -1.00000000000000, -0.000000000000000 ) );
#474 = DIRECTION( '', ( 0.000000000000000, 0.000000000000000, -1.00000000000000 ) );
#475 = CARTESIAN_POINT( '', ( 0.000000000000000, 6.00000000000000, 0.000000000000000 ) );
#476 = DIRECTION( '', ( 0.000000000000000, -1.00000000000000, -0.000000000000000 ) );
#477 = DIRECTION( '', ( 0.000000000000000, 0.000000000000000, -1.00000000000000 ) );
#478 = CARTESIAN_POINT( '', ( 0.000000000000000, 5.55000000000000, 0.000000000000000 ) );
#479 = DIRECTION( '', ( 0.000000000000000, -1.00000000000000, -0.000000000000000 ) );
#480 = DIRECTION( '', ( 0.000000000000000, 0.000000000000000, -1.00000000000000 ) );
#481 = CARTESIAN_POINT( '', ( 0.000000000000000, 0.600000000000000, 0.000000000000000 ) );
#482 = DIRECTION( '', ( 0.000000000000000, -1.00000000000000, -0.000000000000000 ) );
#483 = DIRECTION( '', ( 0.000000000000000, 0.000000000000000, -1.00000000000000 ) );
#484 = CARTESIAN_POINT( '', ( 0.000000000000000, 0.500000000000000, 0.000000000000000 ) );
#485 = DIRECTION( '', ( 0.000000000000000, -1.00000000000000, -0.000000000000000 ) );
#486 = DIRECTION( '', ( 0.000000000000000, 0.000000000000000, -1.00000000000000 ) );
#487 = CARTESIAN_POINT( '', ( 0.000000000000000, 6.40000000000000, 0.000000000000000 ) );
#488 = DIRECTION( '', ( 0.000000000000000, -1.00000000000000, -0.000000000000000 ) );
#489 = DIRECTION( '', ( 0.000000000000000, 0.000000000000000, -1.00000000000000 ) );
ENDSEC;
END-ISO-10303-21;
