ISO-10303-21;
HEADER;
FILE_DESCRIPTION( ( 'STEP AP214' ), '1' );
FILE_NAME( '//goodhand-server/Shared Folders/GoodHand Data/Kipp CAD/K0390/K0390.16X125.stp', '2020-12-07T10:15:03', ( '' ), ( '' ), ' ', 'PARTsolutions', ' ' );
FILE_SCHEMA( ( 'AUTOMOTIVE_DESIGN { 1 0 10303 214 1 1 1 1 }' ) );
ENDSEC;
DATA;
#1 = MECHANICAL_DESIGN_GEOMETRIC_PRESENTATION_REPRESENTATION( ' ', ( #10, #11, #12, #13, #14, #15, #16, #17, #18, #19, #20, #21, #22 ), #6 );
#2 = PRODUCT_DEFINITION_CONTEXT( '', #23, 'design' );
#3 = APPLICATION_PROTOCOL_DEFINITION( 'international standard', 'automotive_design', 2001, #23 );
#4 = PRODUCT_CATEGORY_RELATIONSHIP( 'NONE', 'NONE', #24, #25 );
#5 = SHAPE_DEFINITION_REPRESENTATION( #26, #27 );
#6 =  ( GEOMETRIC_REPRESENTATION_CONTEXT( 3 )GLOBAL_UNCERTAINTY_ASSIGNED_CONTEXT( ( #30 ) )GLOBAL_UNIT_ASSIGNED_CONTEXT( ( #32, #33, #34 ) )REPRESENTATION_CONTEXT( 'NONE', 'WORKSPACE' ) );
#10 = STYLED_ITEM( '', ( #36 ), #37 );
#11 = STYLED_ITEM( '', ( #38 ), #39 );
#12 = STYLED_ITEM( '', ( #40 ), #41 );
#13 = STYLED_ITEM( '', ( #42 ), #43 );
#14 = STYLED_ITEM( '', ( #44 ), #45 );
#15 = STYLED_ITEM( '', ( #46 ), #47 );
#16 = STYLED_ITEM( '', ( #48 ), #49 );
#17 = STYLED_ITEM( '', ( #50 ), #51 );
#18 = STYLED_ITEM( '', ( #52 ), #53 );
#19 = STYLED_ITEM( '', ( #54 ), #55 );
#20 = STYLED_ITEM( '', ( #56 ), #57 );
#21 = STYLED_ITEM( '', ( #58 ), #59 );
#22 = STYLED_ITEM( '', ( #60 ), #61 );
#23 = APPLICATION_CONTEXT( 'core data for automotive mechanical design processes' );
#24 = PRODUCT_CATEGORY( 'part', 'NONE' );
#25 = PRODUCT_RELATED_PRODUCT_CATEGORY( 'detail', ' ', ( #62 ) );
#26 = PRODUCT_DEFINITION_SHAPE( 'NONE', 'NONE', #63 );
#27 = ADVANCED_BREP_SHAPE_REPRESENTATION( '_K0390.16X125', ( #64, #65 ), #6 );
#30 = UNCERTAINTY_MEASURE_WITH_UNIT( LENGTH_MEASURE( 0.00100000000000000 ), #32, '', '' );
#32 =  ( CONVERSION_BASED_UNIT( 'MILLIMETRE', #68 )LENGTH_UNIT(  )NAMED_UNIT( #71 ) );
#33 =  ( NAMED_UNIT( #73 )PLANE_ANGLE_UNIT(  )SI_UNIT( $, .RADIAN. ) );
#34 =  ( NAMED_UNIT( #73 )SI_UNIT( $, .STERADIAN. )SOLID_ANGLE_UNIT(  ) );
#36 = PRESENTATION_STYLE_ASSIGNMENT( ( #79 ) );
#37 = ADVANCED_FACE( '', ( #80, #81 ), #82, .T. );
#38 = PRESENTATION_STYLE_ASSIGNMENT( ( #83 ) );
#39 = ADVANCED_FACE( '', ( #84 ), #85, .F. );
#40 = PRESENTATION_STYLE_ASSIGNMENT( ( #86 ) );
#41 = ADVANCED_FACE( '', ( #87, #88 ), #89, .F. );
#42 = PRESENTATION_STYLE_ASSIGNMENT( ( #90 ) );
#43 = ADVANCED_FACE( '', ( #91 ), #92, .T. );
#44 = PRESENTATION_STYLE_ASSIGNMENT( ( #93 ) );
#45 = ADVANCED_FACE( '', ( #94 ), #95, .F. );
#46 = PRESENTATION_STYLE_ASSIGNMENT( ( #96 ) );
#47 = ADVANCED_FACE( '', ( #97, #98 ), #99, .T. );
#48 = PRESENTATION_STYLE_ASSIGNMENT( ( #100 ) );
#49 = ADVANCED_FACE( '', ( #101 ), #102, .F. );
#50 = PRESENTATION_STYLE_ASSIGNMENT( ( #103 ) );
#51 = ADVANCED_FACE( '', ( #104 ), #105, .T. );
#52 = PRESENTATION_STYLE_ASSIGNMENT( ( #106 ) );
#53 = ADVANCED_FACE( '', ( #107, #108 ), #109, .T. );
#54 = PRESENTATION_STYLE_ASSIGNMENT( ( #110 ) );
#55 = ADVANCED_FACE( '', ( #111 ), #112, .F. );
#56 = PRESENTATION_STYLE_ASSIGNMENT( ( #113 ) );
#57 = ADVANCED_FACE( '', ( #114, #115 ), #116, .T. );
#58 = PRESENTATION_STYLE_ASSIGNMENT( ( #117 ) );
#59 = ADVANCED_FACE( '', ( #118, #119 ), #120, .T. );
#60 = PRESENTATION_STYLE_ASSIGNMENT( ( #121 ) );
#61 = ADVANCED_FACE( '', ( #122 ), #123, .T. );
#62 = PRODUCT( '_K0390.16X125', '_K0390.16X125', 'PART-_K0390.16X125-DESC', ( #124 ) );
#63 = PRODUCT_DEFINITION( 'NONE', 'NONE', #125, #2 );
#64 = MANIFOLD_SOLID_BREP( '_K0390.16X125', #126 );
#65 = AXIS2_PLACEMENT_3D( '', #127, #128, #129 );
#68 = LENGTH_MEASURE_WITH_UNIT( LENGTH_MEASURE( 1.00000000000000 ), #130 );
#71 = DIMENSIONAL_EXPONENTS( 1.00000000000000, 0.000000000000000, 0.000000000000000, 0.000000000000000, 0.000000000000000, 0.000000000000000, 0.000000000000000 );
#73 = DIMENSIONAL_EXPONENTS( 0.000000000000000, 0.000000000000000, 0.000000000000000, 0.000000000000000, 0.000000000000000, 0.000000000000000, 0.000000000000000 );
#79 = SURFACE_STYLE_USAGE( .BOTH., #131 );
#80 = FACE_BOUND( '', #132, .T. );
#81 = FACE_OUTER_BOUND( '', #133, .T. );
#82 = CONICAL_SURFACE( '', #134, 8.00000000000000, 1.13808724680000 );
#83 = SURFACE_STYLE_USAGE( .BOTH., #135 );
#84 = FACE_OUTER_BOUND( '', #136, .T. );
#85 = PLANE( '', #137 );
#86 = SURFACE_STYLE_USAGE( .BOTH., #138 );
#87 = FACE_OUTER_BOUND( '', #139, .T. );
#88 = FACE_BOUND( '', #140, .T. );
#89 = PLANE( '', #141 );
#90 = SURFACE_STYLE_USAGE( .BOTH., #142 );
#91 = FACE_OUTER_BOUND( '', #143, .T. );
#92 = CONICAL_SURFACE( '', #144, 6.77300000000000, 0.785398163400000 );
#93 = SURFACE_STYLE_USAGE( .BOTH., #145 );
#94 = FACE_OUTER_BOUND( '', #146, .T. );
#95 = PLANE( '', #147 );
#96 = SURFACE_STYLE_USAGE( .BOTH., #148 );
#97 = FACE_OUTER_BOUND( '', #149, .T. );
#98 = FACE_OUTER_BOUND( '', #150, .T. );
#99 = CYLINDRICAL_SURFACE( '', #151, 6.00000000000000 );
#100 = SURFACE_STYLE_USAGE( .BOTH., #152 );
#101 = FACE_OUTER_BOUND( '', #153, .T. );
#102 = PLANE( '', #154 );
#103 = SURFACE_STYLE_USAGE( .BOTH., #155 );
#104 = FACE_OUTER_BOUND( '', #156, .T. );
#105 = PLANE( '', #157 );
#106 = SURFACE_STYLE_USAGE( .BOTH., #158 );
#107 = FACE_OUTER_BOUND( '', #159, .T. );
#108 = FACE_OUTER_BOUND( '', #160, .T. );
#109 = CYLINDRICAL_SURFACE( '', #161, 5.50000000000000 );
#110 = SURFACE_STYLE_USAGE( .BOTH., #162 );
#111 = FACE_OUTER_BOUND( '', #163, .T. );
#112 = PLANE( '', #164 );
#113 = SURFACE_STYLE_USAGE( .BOTH., #165 );
#114 = FACE_BOUND( '', #166, .T. );
#115 = FACE_OUTER_BOUND( '', #167, .T. );
#116 = SPHERICAL_SURFACE( '', #168, 10.0644000000000 );
#117 = SURFACE_STYLE_USAGE( .BOTH., #169 );
#118 = FACE_OUTER_BOUND( '', #170, .T. );
#119 = FACE_OUTER_BOUND( '', #171, .T. );
#120 = CYLINDRICAL_SURFACE( '', #172, 8.00000000000000 );
#121 = SURFACE_STYLE_USAGE( .BOTH., #173 );
#122 = FACE_OUTER_BOUND( '', #174, .T. );
#123 = CONICAL_SURFACE( '', #175, 6.77300000000000, 0.785398163400000 );
#124 = PRODUCT_CONTEXT( '', #23, 'mechanical' );
#125 = PRODUCT_DEFINITION_FORMATION_WITH_SPECIFIED_SOURCE( ' ', 'NONE', #62, .NOT_KNOWN. );
#126 = CLOSED_SHELL( '', ( #55, #39, #57, #47, #41, #53, #37, #59, #61, #45, #43, #49, #51 ) );
#127 = CARTESIAN_POINT( '', ( 0.000000000000000, 0.000000000000000, 0.000000000000000 ) );
#128 = DIRECTION( '', ( 0.000000000000000, 0.000000000000000, 1.00000000000000 ) );
#129 = DIRECTION( '', ( 1.00000000000000, 0.000000000000000, 0.000000000000000 ) );
#130 =  ( LENGTH_UNIT(  )NAMED_UNIT( #71 )SI_UNIT( .MILLI., .METRE. ) );
#131 = SURFACE_SIDE_STYLE( '', ( #177 ) );
#132 = EDGE_LOOP( '', ( #178 ) );
#133 = EDGE_LOOP( '', ( #179 ) );
#134 = AXIS2_PLACEMENT_3D( '', #180, #181, #182 );
#135 = SURFACE_SIDE_STYLE( '', ( #183 ) );
#136 = EDGE_LOOP( '', ( #184, #185, #186, #187, #188, #189 ) );
#137 = AXIS2_PLACEMENT_3D( '', #190, #191, #192 );
#138 = SURFACE_SIDE_STYLE( '', ( #193 ) );
#139 = EDGE_LOOP( '', ( #194 ) );
#140 = EDGE_LOOP( '', ( #195 ) );
#141 = AXIS2_PLACEMENT_3D( '', #196, #197, #198 );
#142 = SURFACE_SIDE_STYLE( '', ( #199 ) );
#143 = EDGE_LOOP( '', ( #200, #201, #202, #203 ) );
#144 = AXIS2_PLACEMENT_3D( '', #204, #205, #206 );
#145 = SURFACE_SIDE_STYLE( '', ( #207 ) );
#146 = EDGE_LOOP( '', ( #208, #209 ) );
#147 = AXIS2_PLACEMENT_3D( '', #210, #211, #212 );
#148 = SURFACE_SIDE_STYLE( '', ( #213 ) );
#149 = EDGE_LOOP( '', ( #214 ) );
#150 = EDGE_LOOP( '', ( #215 ) );
#151 = AXIS2_PLACEMENT_3D( '', #216, #217, #218 );
#152 = SURFACE_SIDE_STYLE( '', ( #219 ) );
#153 = EDGE_LOOP( '', ( #220, #221 ) );
#154 = AXIS2_PLACEMENT_3D( '', #222, #223, #224 );
#155 = SURFACE_SIDE_STYLE( '', ( #225 ) );
#156 = EDGE_LOOP( '', ( #226, #227, #228, #229 ) );
#157 = AXIS2_PLACEMENT_3D( '', #230, #231, #232 );
#158 = SURFACE_SIDE_STYLE( '', ( #233 ) );
#159 = EDGE_LOOP( '', ( #234 ) );
#160 = EDGE_LOOP( '', ( #235 ) );
#161 = AXIS2_PLACEMENT_3D( '', #236, #237, #238 );
#162 = SURFACE_SIDE_STYLE( '', ( #239 ) );
#163 = EDGE_LOOP( '', ( #240, #241, #242, #243, #244, #245 ) );
#164 = AXIS2_PLACEMENT_3D( '', #246, #247, #248 );
#165 = SURFACE_SIDE_STYLE( '', ( #249 ) );
#166 = VERTEX_LOOP( '', #250 );
#167 = EDGE_LOOP( '', ( #251 ) );
#168 = AXIS2_PLACEMENT_3D( '', #252, #253, #254 );
#169 = SURFACE_SIDE_STYLE( '', ( #255 ) );
#170 = EDGE_LOOP( '', ( #256 ) );
#171 = EDGE_LOOP( '', ( #257, #258, #259, #260, #261, #262, #263, #264 ) );
#172 = AXIS2_PLACEMENT_3D( '', #265, #266, #267 );
#173 = SURFACE_SIDE_STYLE( '', ( #268 ) );
#174 = EDGE_LOOP( '', ( #269, #270, #271, #272 ) );
#175 = AXIS2_PLACEMENT_3D( '', #273, #274, #275 );
#177 = SURFACE_STYLE_FILL_AREA( #276 );
#178 = ORIENTED_EDGE( '', *, *, #277, .F. );
#179 = ORIENTED_EDGE( '', *, *, #278, .T. );
#180 = CARTESIAN_POINT( '', ( 113.000000000000, 2.20510701522914E-14, 0.000000000000000 ) );
#181 = DIRECTION( '', ( -1.00000000000000, 6.12323399573677E-17, -0.000000000000000 ) );
#182 = DIRECTION( '', ( -6.12323399573677E-17, -1.00000000000000, 0.000000000000000 ) );
#183 = SURFACE_STYLE_FILL_AREA( #279 );
#184 = ORIENTED_EDGE( '', *, *, #280, .T. );
#185 = ORIENTED_EDGE( '', *, *, #281, .F. );
#186 = ORIENTED_EDGE( '', *, *, #282, .F. );
#187 = ORIENTED_EDGE( '', *, *, #283, .F. );
#188 = ORIENTED_EDGE( '', *, *, #284, .F. );
#189 = ORIENTED_EDGE( '', *, *, #285, .F. );
#190 = CARTESIAN_POINT( '', ( 3.00000000000003, -0.899999999999971, -10.5000000000000 ) );
#191 = DIRECTION( '', ( 0.000000000000000, -1.00000000000000, 0.000000000000000 ) );
#192 = DIRECTION( '', ( 0.000000000000000, 0.000000000000000, -1.00000000000000 ) );
#193 = SURFACE_STYLE_FILL_AREA( #286 );
#194 = ORIENTED_EDGE( '', *, *, #287, .F. );
#195 = ORIENTED_EDGE( '', *, *, #288, .T. );
#196 = CARTESIAN_POINT( '', ( 120.000000000000, 5.50000000000002, 0.000000000000000 ) );
#197 = DIRECTION( '', ( 1.00000000000000, -6.12323399573677E-17, -0.000000000000000 ) );
#198 = DIRECTION( '', ( 6.12323399573677E-17, 1.00000000000000, 0.000000000000000 ) );
#199 = SURFACE_STYLE_FILL_AREA( #289 );
#200 = ORIENTED_EDGE( '', *, *, #290, .F. );
#201 = ORIENTED_EDGE( '', *, *, #281, .T. );
#202 = ORIENTED_EDGE( '', *, *, #291, .T. );
#203 = ORIENTED_EDGE( '', *, *, #285, .T. );
#204 = CARTESIAN_POINT( '', ( 2.77555756156289E-14, 2.89703245674740E-14, 0.000000000000000 ) );
#205 = DIRECTION( '', ( 1.00000000000000, -6.12323399573677E-17, -0.000000000000000 ) );
#206 = DIRECTION( '', ( 6.12323399573677E-17, 1.00000000000000, 0.000000000000000 ) );
#207 = SURFACE_STYLE_FILL_AREA( #292 );
#208 = ORIENTED_EDGE( '', *, *, #291, .F. );
#209 = ORIENTED_EDGE( '', *, *, #280, .F. );
#210 = CARTESIAN_POINT( '', ( 2.82143461111384E-14, 2.89703245674740E-14, 0.000000000000000 ) );
#211 = DIRECTION( '', ( 1.00000000000000, -6.12323399573677E-17, -0.000000000000000 ) );
#212 = DIRECTION( '', ( 6.12323399573677E-17, 1.00000000000000, 0.000000000000000 ) );
#213 = SURFACE_STYLE_FILL_AREA( #293 );
#214 = ORIENTED_EDGE( '', *, *, #294, .F. );
#215 = ORIENTED_EDGE( '', *, *, #287, .T. );
#216 = CARTESIAN_POINT( '', ( 125.000000000000, 2.13162820728030E-14, 0.000000000000000 ) );
#217 = DIRECTION( '', ( -1.00000000000000, 6.12323399573677E-17, 0.000000000000000 ) );
#218 = DIRECTION( '', ( 6.12323399573677E-17, 1.00000000000000, 0.000000000000000 ) );
#219 = SURFACE_STYLE_FILL_AREA( #295 );
#220 = ORIENTED_EDGE( '', *, *, #296, .F. );
#221 = ORIENTED_EDGE( '', *, *, #297, .F. );
#222 = CARTESIAN_POINT( '', ( 2.82143461111384E-14, 2.89703245674740E-14, 0.000000000000000 ) );
#223 = DIRECTION( '', ( 1.00000000000000, -6.12323399573677E-17, -0.000000000000000 ) );
#224 = DIRECTION( '', ( 6.12323399573677E-17, 1.00000000000000, 0.000000000000000 ) );
#225 = SURFACE_STYLE_FILL_AREA( #298 );
#226 = ORIENTED_EDGE( '', *, *, #299, .T. );
#227 = ORIENTED_EDGE( '', *, *, #283, .T. );
#228 = ORIENTED_EDGE( '', *, *, #300, .T. );
#229 = ORIENTED_EDGE( '', *, *, #301, .T. );
#230 = CARTESIAN_POINT( '', ( 3.00000000000003, -0.000000000000000, -0.000000000000000 ) );
#231 = DIRECTION( '', ( -1.00000000000000, 0.000000000000000, 0.000000000000000 ) );
#232 = DIRECTION( '', ( 0.000000000000000, 0.000000000000000, 1.00000000000000 ) );
#233 = SURFACE_STYLE_FILL_AREA( #302 );
#234 = ORIENTED_EDGE( '', *, *, #288, .F. );
#235 = ORIENTED_EDGE( '', *, *, #277, .T. );
#236 = CARTESIAN_POINT( '', ( 125.000000000000, 2.13162820728030E-14, 0.000000000000000 ) );
#237 = DIRECTION( '', ( -1.00000000000000, 6.12323399573677E-17, 0.000000000000000 ) );
#238 = DIRECTION( '', ( 6.12323399573677E-17, 1.00000000000000, 0.000000000000000 ) );
#239 = SURFACE_STYLE_FILL_AREA( #303 );
#240 = ORIENTED_EDGE( '', *, *, #304, .F. );
#241 = ORIENTED_EDGE( '', *, *, #297, .T. );
#242 = ORIENTED_EDGE( '', *, *, #305, .F. );
#243 = ORIENTED_EDGE( '', *, *, #306, .F. );
#244 = ORIENTED_EDGE( '', *, *, #301, .F. );
#245 = ORIENTED_EDGE( '', *, *, #307, .F. );
#246 = CARTESIAN_POINT( '', ( 3.00000000000003, 0.900000000000029, 10.5000000000000 ) );
#247 = DIRECTION( '', ( 0.000000000000000, 1.00000000000000, 0.000000000000000 ) );
#248 = DIRECTION( '', ( 0.000000000000000, -0.000000000000000, 1.00000000000000 ) );
#249 = SURFACE_STYLE_FILL_AREA( #308 );
#250 = VERTEX_POINT( '', #309 );
#251 = ORIENTED_EDGE( '', *, *, #294, .T. );
#252 = CARTESIAN_POINT( '', ( 114.935600000000, 2.34187669256869E-14, 0.000000000000000 ) );
#253 = DIRECTION( '', ( 1.00000000000000, 0.000000000000000, 0.000000000000000 ) );
#254 = DIRECTION( '', ( 0.000000000000000, 1.00000000000000, 0.000000000000000 ) );
#255 = SURFACE_STYLE_FILL_AREA( #310 );
#256 = ORIENTED_EDGE( '', *, *, #278, .F. );
#257 = ORIENTED_EDGE( '', *, *, #290, .T. );
#258 = ORIENTED_EDGE( '', *, *, #284, .T. );
#259 = ORIENTED_EDGE( '', *, *, #299, .F. );
#260 = ORIENTED_EDGE( '', *, *, #306, .T. );
#261 = ORIENTED_EDGE( '', *, *, #311, .T. );
#262 = ORIENTED_EDGE( '', *, *, #307, .T. );
#263 = ORIENTED_EDGE( '', *, *, #300, .F. );
#264 = ORIENTED_EDGE( '', *, *, #282, .T. );
#265 = CARTESIAN_POINT( '', ( 125.000000000000, 2.13162820728030E-14, 0.000000000000000 ) );
#266 = DIRECTION( '', ( -1.00000000000000, 6.12323399573677E-17, 0.000000000000000 ) );
#267 = DIRECTION( '', ( 6.12323399573677E-17, 1.00000000000000, 0.000000000000000 ) );
#268 = SURFACE_STYLE_FILL_AREA( #312 );
#269 = ORIENTED_EDGE( '', *, *, #296, .T. );
#270 = ORIENTED_EDGE( '', *, *, #304, .T. );
#271 = ORIENTED_EDGE( '', *, *, #311, .F. );
#272 = ORIENTED_EDGE( '', *, *, #305, .T. );
#273 = CARTESIAN_POINT( '', ( 2.77555756156289E-14, 2.89703245674740E-14, 0.000000000000000 ) );
#274 = DIRECTION( '', ( 1.00000000000000, -6.12323399573677E-17, -0.000000000000000 ) );
#275 = DIRECTION( '', ( 6.12323399573677E-17, 1.00000000000000, 0.000000000000000 ) );
#276 = FILL_AREA_STYLE( '', ( #313 ) );
#277 = EDGE_CURVE( '', #314, #314, #315, .T. );
#278 = EDGE_CURVE( '', #316, #316, #317, .T. );
#279 = FILL_AREA_STYLE( '', ( #318 ) );
#280 = EDGE_CURVE( '', #319, #320, #321, .T. );
#281 = EDGE_CURVE( '', #322, #320, #323, .T. );
#282 = EDGE_CURVE( '', #324, #322, #325, .F. );
#283 = EDGE_CURVE( '', #326, #324, #327, .T. );
#284 = EDGE_CURVE( '', #328, #326, #329, .T. );
#285 = EDGE_CURVE( '', #319, #328, #330, .T. );
#286 = FILL_AREA_STYLE( '', ( #331 ) );
#287 = EDGE_CURVE( '', #332, #332, #333, .T. );
#288 = EDGE_CURVE( '', #334, #334, #335, .T. );
#289 = FILL_AREA_STYLE( '', ( #336 ) );
#290 = EDGE_CURVE( '', #322, #328, #337, .T. );
#291 = EDGE_CURVE( '', #320, #319, #338, .T. );
#292 = FILL_AREA_STYLE( '', ( #339 ) );
#293 = FILL_AREA_STYLE( '', ( #340 ) );
#294 = EDGE_CURVE( '', #341, #341, #342, .T. );
#295 = FILL_AREA_STYLE( '', ( #343 ) );
#296 = EDGE_CURVE( '', #344, #345, #346, .T. );
#297 = EDGE_CURVE( '', #345, #344, #347, .T. );
#298 = FILL_AREA_STYLE( '', ( #348 ) );
#299 = EDGE_CURVE( '', #349, #326, #350, .T. );
#300 = EDGE_CURVE( '', #324, #351, #352, .T. );
#301 = EDGE_CURVE( '', #351, #349, #353, .T. );
#302 = FILL_AREA_STYLE( '', ( #354 ) );
#303 = FILL_AREA_STYLE( '', ( #355 ) );
#304 = EDGE_CURVE( '', #345, #356, #357, .T. );
#305 = EDGE_CURVE( '', #358, #344, #359, .T. );
#306 = EDGE_CURVE( '', #349, #358, #360, .F. );
#307 = EDGE_CURVE( '', #356, #351, #361, .T. );
#308 = FILL_AREA_STYLE( '', ( #362 ) );
#309 = CARTESIAN_POINT( '', ( 125.000000000000, 2.34187669256869E-14, 0.000000000000000 ) );
#310 = FILL_AREA_STYLE( '', ( #363 ) );
#311 = EDGE_CURVE( '', #358, #356, #364, .T. );
#312 = FILL_AREA_STYLE( '', ( #365 ) );
#313 = FILL_AREA_STYLE_COLOUR( '', #366 );
#314 = VERTEX_POINT( '', #367 );
#315 = CIRCLE( '', #368, 5.50000000000000 );
#316 = VERTEX_POINT( '', #369 );
#317 = CIRCLE( '', #370, 8.00000000000000 );
#318 = FILL_AREA_STYLE_COLOUR( '', #371 );
#319 = VERTEX_POINT( '', #372 );
#320 = VERTEX_POINT( '', #373 );
#321 = LINE( '', #374, #375 );
#322 = VERTEX_POINT( '', #376 );
#323 = B_SPLINE_CURVE_WITH_KNOTS( '', 3, ( #377, #378, #379, #380 ), .UNSPECIFIED., .F., .F., ( 4, 4 ), ( 0.0136362270213629, 0.0153780387903499 ), .UNSPECIFIED. );
#324 = VERTEX_POINT( '', #381 );
#325 = LINE( '', #382, #383 );
#326 = VERTEX_POINT( '', #384 );
#327 = LINE( '', #385, #386 );
#328 = VERTEX_POINT( '', #387 );
#329 = LINE( '', #388, #389 );
#330 = B_SPLINE_CURVE_WITH_KNOTS( '', 3, ( #390, #391, #392, #393 ), .UNSPECIFIED., .F., .F., ( 4, 4 ), ( 0.0333752047769191, 0.0351188466568865 ), .UNSPECIFIED. );
#331 = FILL_AREA_STYLE_COLOUR( '', #394 );
#332 = VERTEX_POINT( '', #395 );
#333 = CIRCLE( '', #396, 6.00000000000000 );
#334 = VERTEX_POINT( '', #397 );
#335 = CIRCLE( '', #398, 5.50000000000000 );
#336 = FILL_AREA_STYLE_COLOUR( '', #399 );
#337 = CIRCLE( '', #400, 8.00000000000000 );
#338 = CIRCLE( '', #401, 6.77300000000000 );
#339 = FILL_AREA_STYLE_COLOUR( '', #402 );
#340 = FILL_AREA_STYLE_COLOUR( '', #403 );
#341 = VERTEX_POINT( '', #404 );
#342 = CIRCLE( '', #405, 6.00000000000000 );
#343 = FILL_AREA_STYLE_COLOUR( '', #406 );
#344 = VERTEX_POINT( '', #407 );
#345 = VERTEX_POINT( '', #408 );
#346 = CIRCLE( '', #409, 6.77300000000000 );
#347 = LINE( '', #410, #411 );
#348 = FILL_AREA_STYLE_COLOUR( '', #412 );
#349 = VERTEX_POINT( '', #413 );
#350 = CIRCLE( '', #414, 8.00000000000000 );
#351 = VERTEX_POINT( '', #415 );
#352 = CIRCLE( '', #416, 8.00000000000000 );
#353 = LINE( '', #417, #418 );
#354 = FILL_AREA_STYLE_COLOUR( '', #419 );
#355 = FILL_AREA_STYLE_COLOUR( '', #420 );
#356 = VERTEX_POINT( '', #421 );
#357 = B_SPLINE_CURVE_WITH_KNOTS( '', 3, ( #422, #423, #424, #425 ), .UNSPECIFIED., .F., .F., ( 4, 4 ), ( 0.0333752047769191, 0.0351188466568865 ), .UNSPECIFIED. );
#358 = VERTEX_POINT( '', #426 );
#359 = B_SPLINE_CURVE_WITH_KNOTS( '', 3, ( #427, #428, #429, #430 ), .UNSPECIFIED., .F., .F., ( 4, 4 ), ( 0.0136362270213629, 0.0153780387903499 ), .UNSPECIFIED. );
#360 = LINE( '', #431, #432 );
#361 = LINE( '', #433, #434 );
#362 = FILL_AREA_STYLE_COLOUR( '', #435 );
#363 = FILL_AREA_STYLE_COLOUR( '', #436 );
#364 = CIRCLE( '', #437, 8.00000000000000 );
#365 = FILL_AREA_STYLE_COLOUR( '', #438 );
#366 = COLOUR_RGB( '', 0.689999997600000, 0.689999997600000, 0.689999997600000 );
#367 = CARTESIAN_POINT( '', ( 114.154760000000, 5.50000000000002, 0.000000000000000 ) );
#368 = AXIS2_PLACEMENT_3D( '', #439, #440, #441 );
#369 = CARTESIAN_POINT( '', ( 113.000000000000, 8.00000000000002, 0.000000000000000 ) );
#370 = AXIS2_PLACEMENT_3D( '', #442, #443, #444 );
#371 = COLOUR_RGB( '', 0.689999997600000, 0.689999997600000, 0.689999997600000 );
#372 = CARTESIAN_POINT( '', ( 2.84217094304040E-14, -0.899999999999971, -6.71293743453639 ) );
#373 = CARTESIAN_POINT( '', ( 2.84217094304040E-14, -0.899999999999971, 6.71293743453639 ) );
#374 = CARTESIAN_POINT( '', ( 2.84217094304040E-14, -0.899999999999971, -10.5000000000000 ) );
#375 = VECTOR( '', #445, 1000.00000000000 );
#376 = CARTESIAN_POINT( '', ( 1.22700000000003, -0.899999999999963, 7.94921379760288 ) );
#377 = CARTESIAN_POINT( '', ( 1.22700000000003, -0.899999999999971, 7.94921379760288 ) );
#378 = CARTESIAN_POINT( '', ( 0.817760310665047, -0.899999999999971, 7.53735954408323 ) );
#379 = CARTESIAN_POINT( '', ( 0.408716531538621, -0.899999999999971, 7.12531086943078 ) );
#380 = CARTESIAN_POINT( '', ( 2.90652413737022E-14, -0.899999999999971, 6.71293743453639 ) );
#381 = CARTESIAN_POINT( '', ( 3.00000000000003, -0.899999999999971, 7.94921379760288 ) );
#382 = CARTESIAN_POINT( '', ( 125.000000000000, -0.899999999999971, 7.94921379760288 ) );
#383 = VECTOR( '', #446, 1000.00000000000 );
#384 = CARTESIAN_POINT( '', ( 3.00000000000003, -0.899999999999971, -7.94921379760288 ) );
#385 = CARTESIAN_POINT( '', ( 3.00000000000003, -0.899999999999971, -10.5000000000000 ) );
#386 = VECTOR( '', #447, 1000.00000000000 );
#387 = CARTESIAN_POINT( '', ( 1.22700000000003, -0.899999999999963, -7.94921379760288 ) );
#388 = CARTESIAN_POINT( '', ( 125.000000000000, -0.899999999999971, -7.94921379760288 ) );
#389 = VECTOR( '', #448, 1000.00000000000 );
#390 = CARTESIAN_POINT( '', ( 2.73219902488370E-14, -0.899999999999971, -6.71293743453639 ) );
#391 = CARTESIAN_POINT( '', ( 0.408715634480854, -0.899999999999971, -7.12530996434678 ) );
#392 = CARTESIAN_POINT( '', ( 0.817759551175717, -0.899999999999971, -7.53735877974164 ) );
#393 = CARTESIAN_POINT( '', ( 1.22700000000003, -0.899999999999971, -7.94921379760288 ) );
#394 = COLOUR_RGB( '', 0.689999997600000, 0.689999997600000, 0.689999997600000 );
#395 = CARTESIAN_POINT( '', ( 120.000000000000, 6.00000000000002, 0.000000000000000 ) );
#396 = AXIS2_PLACEMENT_3D( '', #449, #450, #451 );
#397 = CARTESIAN_POINT( '', ( 120.000000000000, 5.50000000000002, 0.000000000000000 ) );
#398 = AXIS2_PLACEMENT_3D( '', #452, #453, #454 );
#399 = COLOUR_RGB( '', 0.689999997600000, 0.689999997600000, 0.689999997600000 );
#400 = AXIS2_PLACEMENT_3D( '', #455, #456, #457 );
#401 = AXIS2_PLACEMENT_3D( '', #458, #459, #460 );
#402 = COLOUR_RGB( '', 0.689999997600000, 0.689999997600000, 0.689999997600000 );
#403 = COLOUR_RGB( '', 0.689999997600000, 0.689999997600000, 0.689999997600000 );
#404 = CARTESIAN_POINT( '', ( 123.015955645638, 6.00000000000002, 0.000000000000000 ) );
#405 = AXIS2_PLACEMENT_3D( '', #461, #462, #463 );
#406 = COLOUR_RGB( '', 0.689999997600000, 0.689999997600000, 0.689999997600000 );
#407 = CARTESIAN_POINT( '', ( 2.84217094304040E-14, 0.900000000000029, -6.71293743453639 ) );
#408 = CARTESIAN_POINT( '', ( 2.84217094304040E-14, 0.900000000000029, 6.71293743453639 ) );
#409 = AXIS2_PLACEMENT_3D( '', #464, #465, #466 );
#410 = CARTESIAN_POINT( '', ( 2.84217094304040E-14, 0.900000000000029, 10.5000000000000 ) );
#411 = VECTOR( '', #467, 1000.00000000000 );
#412 = COLOUR_RGB( '', 0.689999997600000, 0.689999997600000, 0.689999997600000 );
#413 = CARTESIAN_POINT( '', ( 3.00000000000003, 0.900000000000029, -7.94921379760288 ) );
#414 = AXIS2_PLACEMENT_3D( '', #468, #469, #470 );
#415 = CARTESIAN_POINT( '', ( 3.00000000000003, 0.900000000000029, 7.94921379760288 ) );
#416 = AXIS2_PLACEMENT_3D( '', #471, #472, #473 );
#417 = CARTESIAN_POINT( '', ( 3.00000000000003, 0.900000000000029, 10.5000000000000 ) );
#418 = VECTOR( '', #474, 1000.00000000000 );
#419 = COLOUR_RGB( '', 0.689999997600000, 0.689999997600000, 0.689999997600000 );
#420 = COLOUR_RGB( '', 0.689999997600000, 0.689999997600000, 0.689999997600000 );
#421 = CARTESIAN_POINT( '', ( 1.22700000000003, 0.900000000000037, 7.94921379760288 ) );
#422 = CARTESIAN_POINT( '', ( 2.93329511168909E-14, 0.900000000000029, 6.71293743453639 ) );
#423 = CARTESIAN_POINT( '', ( 0.408715634480854, 0.900000000000029, 7.12530996434678 ) );
#424 = CARTESIAN_POINT( '', ( 0.817759551175716, 0.900000000000029, 7.53735877974164 ) );
#425 = CARTESIAN_POINT( '', ( 1.22700000000003, 0.900000000000029, 7.94921379760287 ) );
#426 = CARTESIAN_POINT( '', ( 1.22700000000003, 0.900000000000037, -7.94921379760288 ) );
#427 = CARTESIAN_POINT( '', ( 1.22700000000003, 0.900000000000029, -7.94921379760288 ) );
#428 = CARTESIAN_POINT( '', ( 0.817760310665043, 0.900000000000029, -7.53735954408322 ) );
#429 = CARTESIAN_POINT( '', ( 0.408716531538618, 0.900000000000029, -7.12531086943078 ) );
#430 = CARTESIAN_POINT( '', ( 2.73909295861972E-14, 0.900000000000029, -6.71293743453639 ) );
#431 = CARTESIAN_POINT( '', ( 125.000000000000, 0.900000000000029, -7.94921379760288 ) );
#432 = VECTOR( '', #475, 1000.00000000000 );
#433 = CARTESIAN_POINT( '', ( 125.000000000000, 0.900000000000029, 7.94921379760288 ) );
#434 = VECTOR( '', #476, 1000.00000000000 );
#435 = COLOUR_RGB( '', 0.689999997600000, 0.689999997600000, 0.689999997600000 );
#436 = COLOUR_RGB( '', 0.689999997600000, 0.689999997600000, 0.689999997600000 );
#437 = AXIS2_PLACEMENT_3D( '', #477, #478, #479 );
#438 = COLOUR_RGB( '', 0.689999997600000, 0.689999997600000, 0.689999997600000 );
#439 = CARTESIAN_POINT( '', ( 114.154760000000, 2.19803614954022E-14, 0.000000000000000 ) );
#440 = DIRECTION( '', ( 1.00000000000000, -6.12323399573677E-17, -0.000000000000000 ) );
#441 = DIRECTION( '', ( 6.12323399573677E-17, 1.00000000000000, 0.000000000000000 ) );
#442 = CARTESIAN_POINT( '', ( 113.000000000000, 2.20510701522914E-14, 0.000000000000000 ) );
#443 = DIRECTION( '', ( 1.00000000000000, -6.12323399573677E-17, -0.000000000000000 ) );
#444 = DIRECTION( '', ( 6.12323399573677E-17, 1.00000000000000, 0.000000000000000 ) );
#445 = DIRECTION( '', ( 0.000000000000000, 0.000000000000000, 1.00000000000000 ) );
#446 = DIRECTION( '', ( 1.00000000000000, -6.12323399573677E-17, -0.000000000000000 ) );
#447 = DIRECTION( '', ( 0.000000000000000, 0.000000000000000, 1.00000000000000 ) );
#448 = DIRECTION( '', ( 1.00000000000000, -6.12323399573677E-17, -0.000000000000000 ) );
#449 = CARTESIAN_POINT( '', ( 120.000000000000, 2.16224437725898E-14, 0.000000000000000 ) );
#450 = DIRECTION( '', ( 1.00000000000000, -6.12323399573677E-17, -0.000000000000000 ) );
#451 = DIRECTION( '', ( 6.12323399573677E-17, 1.00000000000000, 0.000000000000000 ) );
#452 = CARTESIAN_POINT( '', ( 120.000000000000, 2.16224437725898E-14, 0.000000000000000 ) );
#453 = DIRECTION( '', ( 1.00000000000000, -6.12323399573677E-17, -0.000000000000000 ) );
#454 = DIRECTION( '', ( 6.12323399573677E-17, 1.00000000000000, 0.000000000000000 ) );
#455 = CARTESIAN_POINT( '', ( 1.22700000000003, 2.88951924863463E-14, 0.000000000000000 ) );
#456 = DIRECTION( '', ( 1.00000000000000, -6.12323399573677E-17, -0.000000000000000 ) );
#457 = DIRECTION( '', ( 6.12323399573677E-17, 1.00000000000000, 0.000000000000000 ) );
#458 = CARTESIAN_POINT( '', ( 2.77555756156289E-14, 2.89703245674740E-14, 0.000000000000000 ) );
#459 = DIRECTION( '', ( 1.00000000000000, -6.12323399573677E-17, -0.000000000000000 ) );
#460 = DIRECTION( '', ( 6.12323399573677E-17, 1.00000000000000, 0.000000000000000 ) );
#461 = CARTESIAN_POINT( '', ( 123.015955645638, 2.14377697511998E-14, 0.000000000000000 ) );
#462 = DIRECTION( '', ( 1.00000000000000, -6.12323399573677E-17, -0.000000000000000 ) );
#463 = DIRECTION( '', ( 6.12323399573677E-17, 1.00000000000000, 0.000000000000000 ) );
#464 = CARTESIAN_POINT( '', ( 2.77555756156289E-14, 2.89703245674740E-14, 0.000000000000000 ) );
#465 = DIRECTION( '', ( 1.00000000000000, -6.12323399573677E-17, -0.000000000000000 ) );
#466 = DIRECTION( '', ( 6.12323399573677E-17, 1.00000000000000, 0.000000000000000 ) );
#467 = DIRECTION( '', ( 0.000000000000000, 0.000000000000000, -1.00000000000000 ) );
#468 = CARTESIAN_POINT( '', ( 3.00000000000003, 2.87866275476019E-14, 0.000000000000000 ) );
#469 = DIRECTION( '', ( -1.00000000000000, 0.000000000000000, 0.000000000000000 ) );
#470 = DIRECTION( '', ( 0.000000000000000, 0.000000000000000, 1.00000000000000 ) );
#471 = CARTESIAN_POINT( '', ( 3.00000000000003, 2.87866275476019E-14, 0.000000000000000 ) );
#472 = DIRECTION( '', ( -1.00000000000000, 0.000000000000000, 0.000000000000000 ) );
#473 = DIRECTION( '', ( 0.000000000000000, 0.000000000000000, 1.00000000000000 ) );
#474 = DIRECTION( '', ( 0.000000000000000, 0.000000000000000, -1.00000000000000 ) );
#475 = DIRECTION( '', ( 1.00000000000000, -6.12323399573677E-17, -0.000000000000000 ) );
#476 = DIRECTION( '', ( 1.00000000000000, -6.12323399573677E-17, -0.000000000000000 ) );
#477 = CARTESIAN_POINT( '', ( 1.22700000000003, 2.88951924863463E-14, 0.000000000000000 ) );
#478 = DIRECTION( '', ( 1.00000000000000, -6.12323399573677E-17, -0.000000000000000 ) );
#479 = DIRECTION( '', ( 6.12323399573677E-17, 1.00000000000000, 0.000000000000000 ) );
ENDSEC;
END-ISO-10303-21;
