ISO-10303-21;
HEADER;
FILE_DESCRIPTION( ( 'STEP AP214' ), '1' );
FILE_NAME( '//goodhand-server/Shared Folders/GoodHand Data/Kipp CAD/K0762/K0762.230.stp', '2020-12-10T08:54:35', ( '' ), ( '' ), ' ', 'PARTsolutions', ' ' );
FILE_SCHEMA( ( 'AUTOMOTIVE_DESIGN { 1 0 10303 214 1 1 1 1 }' ) );
ENDSEC;
DATA;
#1 = MECHANICAL_DESIGN_GEOMETRIC_PRESENTATION_REPRESENTATION( ' ', ( #10, #11, #12, #13, #14, #15, #16, #17, #18, #19, #20, #21, #22, #23, #24 ), #6 );
#2 = PRODUCT_DEFINITION_CONTEXT( '', #25, 'design' );
#3 = APPLICATION_PROTOCOL_DEFINITION( 'international standard', 'automotive_design', 2001, #25 );
#4 = PRODUCT_CATEGORY_RELATIONSHIP( 'NONE', 'NONE', #26, #27 );
#5 = SHAPE_DEFINITION_REPRESENTATION( #28, #29 );
#6 =  ( GEOMETRIC_REPRESENTATION_CONTEXT( 3 )GLOBAL_UNCERTAINTY_ASSIGNED_CONTEXT( ( #32 ) )GLOBAL_UNIT_ASSIGNED_CONTEXT( ( #34, #35, #36 ) )REPRESENTATION_CONTEXT( 'NONE', 'WORKSPACE' ) );
#10 = STYLED_ITEM( '', ( #38 ), #39 );
#11 = STYLED_ITEM( '', ( #40 ), #41 );
#12 = STYLED_ITEM( '', ( #42 ), #43 );
#13 = STYLED_ITEM( '', ( #44 ), #45 );
#14 = STYLED_ITEM( '', ( #46 ), #47 );
#15 = STYLED_ITEM( '', ( #48 ), #49 );
#16 = STYLED_ITEM( '', ( #50 ), #51 );
#17 = STYLED_ITEM( '', ( #52 ), #53 );
#18 = STYLED_ITEM( '', ( #54 ), #55 );
#19 = STYLED_ITEM( '', ( #56 ), #57 );
#20 = STYLED_ITEM( '', ( #58 ), #59 );
#21 = STYLED_ITEM( '', ( #60 ), #61 );
#22 = STYLED_ITEM( '', ( #62 ), #63 );
#23 = STYLED_ITEM( '', ( #64 ), #65 );
#24 = STYLED_ITEM( '', ( #66 ), #67 );
#25 = APPLICATION_CONTEXT( 'core data for automotive mechanical design processes' );
#26 = PRODUCT_CATEGORY( 'part', 'NONE' );
#27 = PRODUCT_RELATED_PRODUCT_CATEGORY( 'detail', ' ', ( #68 ) );
#28 = PRODUCT_DEFINITION_SHAPE( 'NONE', 'NONE', #69 );
#29 = ADVANCED_BREP_SHAPE_REPRESENTATION( '_K0762.230', ( #70, #71 ), #6 );
#32 = UNCERTAINTY_MEASURE_WITH_UNIT( LENGTH_MEASURE( 0.00100000000000000 ), #34, '', '' );
#34 =  ( CONVERSION_BASED_UNIT( 'MILLIMETRE', #74 )LENGTH_UNIT(  )NAMED_UNIT( #77 ) );
#35 =  ( NAMED_UNIT( #79 )PLANE_ANGLE_UNIT(  )SI_UNIT( $, .RADIAN. ) );
#36 =  ( NAMED_UNIT( #79 )SI_UNIT( $, .STERADIAN. )SOLID_ANGLE_UNIT(  ) );
#38 = PRESENTATION_STYLE_ASSIGNMENT( ( #85 ) );
#39 = ADVANCED_FACE( '', ( #86 ), #87, .F. );
#40 = PRESENTATION_STYLE_ASSIGNMENT( ( #88 ) );
#41 = ADVANCED_FACE( '', ( #89, #90 ), #91, .F. );
#42 = PRESENTATION_STYLE_ASSIGNMENT( ( #92 ) );
#43 = ADVANCED_FACE( '', ( #93, #94 ), #95, .F. );
#44 = PRESENTATION_STYLE_ASSIGNMENT( ( #96 ) );
#45 = ADVANCED_FACE( '', ( #97, #98 ), #99, .F. );
#46 = PRESENTATION_STYLE_ASSIGNMENT( ( #100 ) );
#47 = ADVANCED_FACE( '', ( #101, #102 ), #103, .F. );
#48 = PRESENTATION_STYLE_ASSIGNMENT( ( #104 ) );
#49 = ADVANCED_FACE( '', ( #105, #106 ), #107, .F. );
#50 = PRESENTATION_STYLE_ASSIGNMENT( ( #108 ) );
#51 = ADVANCED_FACE( '', ( #109, #110, #111 ), #112, .F. );
#52 = PRESENTATION_STYLE_ASSIGNMENT( ( #113 ) );
#53 = ADVANCED_FACE( '', ( #114, #115 ), #116, .T. );
#54 = PRESENTATION_STYLE_ASSIGNMENT( ( #117 ) );
#55 = ADVANCED_FACE( '', ( #118, #119 ), #120, .T. );
#56 = PRESENTATION_STYLE_ASSIGNMENT( ( #121 ) );
#57 = ADVANCED_FACE( '', ( #122, #123 ), #124, .T. );
#58 = PRESENTATION_STYLE_ASSIGNMENT( ( #125 ) );
#59 = ADVANCED_FACE( '', ( #126, #127 ), #128, .T. );
#60 = PRESENTATION_STYLE_ASSIGNMENT( ( #129 ) );
#61 = ADVANCED_FACE( '', ( #130, #131 ), #132, .T. );
#62 = PRESENTATION_STYLE_ASSIGNMENT( ( #133 ) );
#63 = ADVANCED_FACE( '', ( #134, #135 ), #136, .T. );
#64 = PRESENTATION_STYLE_ASSIGNMENT( ( #137 ) );
#65 = ADVANCED_FACE( '', ( #138, #139 ), #140, .T. );
#66 = PRESENTATION_STYLE_ASSIGNMENT( ( #141 ) );
#67 = ADVANCED_FACE( '', ( #142, #143 ), #144, .F. );
#68 = PRODUCT( '_K0762.230', '_K0762.230', 'PART-_K0762.230-DESC', ( #145 ) );
#69 = PRODUCT_DEFINITION( 'NONE', 'NONE', #146, #2 );
#70 = MANIFOLD_SOLID_BREP( '_K0762.230', #147 );
#71 = AXIS2_PLACEMENT_3D( '', #148, #149, #150 );
#74 = LENGTH_MEASURE_WITH_UNIT( LENGTH_MEASURE( 1.00000000000000 ), #151 );
#77 = DIMENSIONAL_EXPONENTS( 1.00000000000000, 0.000000000000000, 0.000000000000000, 0.000000000000000, 0.000000000000000, 0.000000000000000, 0.000000000000000 );
#79 = DIMENSIONAL_EXPONENTS( 0.000000000000000, 0.000000000000000, 0.000000000000000, 0.000000000000000, 0.000000000000000, 0.000000000000000, 0.000000000000000 );
#85 = SURFACE_STYLE_USAGE( .BOTH., #152 );
#86 = FACE_OUTER_BOUND( '', #153, .T. );
#87 = PLANE( '', #154 );
#88 = SURFACE_STYLE_USAGE( .BOTH., #155 );
#89 = FACE_OUTER_BOUND( '', #156, .T. );
#90 = FACE_BOUND( '', #157, .T. );
#91 = PLANE( '', #158 );
#92 = SURFACE_STYLE_USAGE( .BOTH., #159 );
#93 = FACE_OUTER_BOUND( '', #160, .T. );
#94 = FACE_OUTER_BOUND( '', #161, .T. );
#95 = CYLINDRICAL_SURFACE( '', #162, 28.0000000000000 );
#96 = SURFACE_STYLE_USAGE( .BOTH., #163 );
#97 = FACE_BOUND( '', #164, .T. );
#98 = FACE_OUTER_BOUND( '', #165, .T. );
#99 = PLANE( '', #166 );
#100 = SURFACE_STYLE_USAGE( .BOTH., #167 );
#101 = FACE_OUTER_BOUND( '', #168, .T. );
#102 = FACE_BOUND( '', #169, .T. );
#103 = PLANE( '', #170 );
#104 = SURFACE_STYLE_USAGE( .BOTH., #171 );
#105 = FACE_OUTER_BOUND( '', #172, .T. );
#106 = FACE_BOUND( '', #173, .T. );
#107 = PLANE( '', #174 );
#108 = SURFACE_STYLE_USAGE( .BOTH., #175 );
#109 = FACE_BOUND( '', #176, .T. );
#110 = FACE_OUTER_BOUND( '', #177, .T. );
#111 = FACE_OUTER_BOUND( '', #178, .T. );
#112 = TOROIDAL_SURFACE( '', #179, 10.2920308008000, 2.97466855790000 );
#113 = SURFACE_STYLE_USAGE( .BOTH., #180 );
#114 = FACE_BOUND( '', #181, .T. );
#115 = FACE_OUTER_BOUND( '', #182, .T. );
#116 = SPHERICAL_SURFACE( '', #183, 15.0000000000000 );
#117 = SURFACE_STYLE_USAGE( .BOTH., #184 );
#118 = FACE_OUTER_BOUND( '', #185, .T. );
#119 = FACE_OUTER_BOUND( '', #186, .T. );
#120 = CYLINDRICAL_SURFACE( '', #187, 24.1000000000000 );
#121 = SURFACE_STYLE_USAGE( .BOTH., #188 );
#122 = FACE_OUTER_BOUND( '', #189, .T. );
#123 = FACE_OUTER_BOUND( '', #190, .T. );
#124 = TOROIDAL_SURFACE( '', #191, 11.5741114079000, 6.00000000000000 );
#125 = SURFACE_STYLE_USAGE( .BOTH., #192 );
#126 = FACE_OUTER_BOUND( '', #193, .T. );
#127 = FACE_OUTER_BOUND( '', #194, .T. );
#128 = TOROIDAL_SURFACE( '', #195, 30.5000000000000, 0.500000000000000 );
#129 = SURFACE_STYLE_USAGE( .BOTH., #196 );
#130 = FACE_OUTER_BOUND( '', #197, .T. );
#131 = FACE_OUTER_BOUND( '', #198, .T. );
#132 = TOROIDAL_SURFACE( '', #199, 30.5000000000000, 0.500000000000000 );
#133 = SURFACE_STYLE_USAGE( .BOTH., #200 );
#134 = FACE_OUTER_BOUND( '', #201, .T. );
#135 = FACE_OUTER_BOUND( '', #202, .T. );
#136 = TOROIDAL_SURFACE( '', #203, 23.6000000000000, 0.500000000000000 );
#137 = SURFACE_STYLE_USAGE( .BOTH., #204 );
#138 = FACE_OUTER_BOUND( '', #205, .T. );
#139 = FACE_OUTER_BOUND( '', #206, .T. );
#140 = CYLINDRICAL_SURFACE( '', #207, 31.0000000000000 );
#141 = SURFACE_STYLE_USAGE( .BOTH., #208 );
#142 = FACE_OUTER_BOUND( '', #209, .T. );
#143 = FACE_OUTER_BOUND( '', #210, .T. );
#144 = TOROIDAL_SURFACE( '', #211, 24.6000000000000, 0.500000000000000 );
#145 = PRODUCT_CONTEXT( '', #25, 'mechanical' );
#146 = PRODUCT_DEFINITION_FORMATION_WITH_SPECIFIED_SOURCE( ' ', 'NONE', #68, .NOT_KNOWN. );
#147 = CLOSED_SHELL( '', ( #63, #39, #55, #51, #49, #57, #47, #43, #41, #59, #65, #61, #45, #67, #53 ) );
#148 = CARTESIAN_POINT( '', ( 0.000000000000000, 0.000000000000000, 0.000000000000000 ) );
#149 = DIRECTION( '', ( 0.000000000000000, 0.000000000000000, 1.00000000000000 ) );
#150 = DIRECTION( '', ( 1.00000000000000, 0.000000000000000, 0.000000000000000 ) );
#151 =  ( LENGTH_UNIT(  )NAMED_UNIT( #77 )SI_UNIT( .MILLI., .METRE. ) );
#152 = SURFACE_SIDE_STYLE( '', ( #213 ) );
#153 = EDGE_LOOP( '', ( #214 ) );
#154 = AXIS2_PLACEMENT_3D( '', #215, #216, #217 );
#155 = SURFACE_SIDE_STYLE( '', ( #218 ) );
#156 = EDGE_LOOP( '', ( #219 ) );
#157 = EDGE_LOOP( '', ( #220 ) );
#158 = AXIS2_PLACEMENT_3D( '', #221, #222, #223 );
#159 = SURFACE_SIDE_STYLE( '', ( #224 ) );
#160 = EDGE_LOOP( '', ( #225 ) );
#161 = EDGE_LOOP( '', ( #226 ) );
#162 = AXIS2_PLACEMENT_3D( '', #227, #228, #229 );
#163 = SURFACE_SIDE_STYLE( '', ( #230 ) );
#164 = EDGE_LOOP( '', ( #231 ) );
#165 = EDGE_LOOP( '', ( #232 ) );
#166 = AXIS2_PLACEMENT_3D( '', #233, #234, #235 );
#167 = SURFACE_SIDE_STYLE( '', ( #236 ) );
#168 = EDGE_LOOP( '', ( #237 ) );
#169 = EDGE_LOOP( '', ( #238 ) );
#170 = AXIS2_PLACEMENT_3D( '', #239, #240, #241 );
#171 = SURFACE_SIDE_STYLE( '', ( #242 ) );
#172 = EDGE_LOOP( '', ( #243 ) );
#173 = EDGE_LOOP( '', ( #244 ) );
#174 = AXIS2_PLACEMENT_3D( '', #245, #246, #247 );
#175 = SURFACE_SIDE_STYLE( '', ( #248 ) );
#176 = VERTEX_LOOP( '', #249 );
#177 = EDGE_LOOP( '', ( #250 ) );
#178 = EDGE_LOOP( '', ( #251 ) );
#179 = AXIS2_PLACEMENT_3D( '', #252, #253, #254 );
#180 = SURFACE_SIDE_STYLE( '', ( #255 ) );
#181 = VERTEX_LOOP( '', #256 );
#182 = EDGE_LOOP( '', ( #257 ) );
#183 = AXIS2_PLACEMENT_3D( '', #258, #259, #260 );
#184 = SURFACE_SIDE_STYLE( '', ( #261 ) );
#185 = EDGE_LOOP( '', ( #262 ) );
#186 = EDGE_LOOP( '', ( #263 ) );
#187 = AXIS2_PLACEMENT_3D( '', #264, #265, #266 );
#188 = SURFACE_SIDE_STYLE( '', ( #267 ) );
#189 = EDGE_LOOP( '', ( #268 ) );
#190 = EDGE_LOOP( '', ( #269 ) );
#191 = AXIS2_PLACEMENT_3D( '', #270, #271, #272 );
#192 = SURFACE_SIDE_STYLE( '', ( #273 ) );
#193 = EDGE_LOOP( '', ( #274 ) );
#194 = EDGE_LOOP( '', ( #275 ) );
#195 = AXIS2_PLACEMENT_3D( '', #276, #277, #278 );
#196 = SURFACE_SIDE_STYLE( '', ( #279 ) );
#197 = EDGE_LOOP( '', ( #280 ) );
#198 = EDGE_LOOP( '', ( #281 ) );
#199 = AXIS2_PLACEMENT_3D( '', #282, #283, #284 );
#200 = SURFACE_SIDE_STYLE( '', ( #285 ) );
#201 = EDGE_LOOP( '', ( #286 ) );
#202 = EDGE_LOOP( '', ( #287 ) );
#203 = AXIS2_PLACEMENT_3D( '', #288, #289, #290 );
#204 = SURFACE_SIDE_STYLE( '', ( #291 ) );
#205 = EDGE_LOOP( '', ( #292 ) );
#206 = EDGE_LOOP( '', ( #293 ) );
#207 = AXIS2_PLACEMENT_3D( '', #294, #295, #296 );
#208 = SURFACE_SIDE_STYLE( '', ( #297 ) );
#209 = EDGE_LOOP( '', ( #298 ) );
#210 = EDGE_LOOP( '', ( #299 ) );
#211 = AXIS2_PLACEMENT_3D( '', #300, #301, #302 );
#213 = SURFACE_STYLE_FILL_AREA( #303 );
#214 = ORIENTED_EDGE( '', *, *, #304, .T. );
#215 = CARTESIAN_POINT( '', ( 23.6000000000000, -5.42101086242752E-16, 0.000000000000000 ) );
#216 = DIRECTION( '', ( 0.000000000000000, 1.00000000000000, 0.000000000000000 ) );
#217 = DIRECTION( '', ( 0.000000000000000, -0.000000000000000, 1.00000000000000 ) );
#218 = SURFACE_STYLE_FILL_AREA( #305 );
#219 = ORIENTED_EDGE( '', *, *, #306, .F. );
#220 = ORIENTED_EDGE( '', *, *, #307, .T. );
#221 = CARTESIAN_POINT( '', ( 28.0000000000000, 63.3000000000000, 0.000000000000000 ) );
#222 = DIRECTION( '', ( 0.000000000000000, -1.00000000000000, -0.000000000000000 ) );
#223 = DIRECTION( '', ( 0.000000000000000, 0.000000000000000, -1.00000000000000 ) );
#224 = SURFACE_STYLE_FILL_AREA( #308 );
#225 = ORIENTED_EDGE( '', *, *, #307, .F. );
#226 = ORIENTED_EDGE( '', *, *, #309, .T. );
#227 = CARTESIAN_POINT( '', ( 0.000000000000000, 0.000000000000000, 0.000000000000000 ) );
#228 = DIRECTION( '', ( -0.000000000000000, 1.00000000000000, 0.000000000000000 ) );
#229 = DIRECTION( '', ( 0.000000000000000, 0.000000000000000, -1.00000000000000 ) );
#230 = SURFACE_STYLE_FILL_AREA( #310 );
#231 = ORIENTED_EDGE( '', *, *, #311, .F. );
#232 = ORIENTED_EDGE( '', *, *, #312, .T. );
#233 = CARTESIAN_POINT( '', ( 30.5000000000000, 45.6000000000000, 0.000000000000000 ) );
#234 = DIRECTION( '', ( 0.000000000000000, 1.00000000000000, 0.000000000000000 ) );
#235 = DIRECTION( '', ( 0.000000000000000, -0.000000000000000, 1.00000000000000 ) );
#236 = SURFACE_STYLE_FILL_AREA( #313 );
#237 = ORIENTED_EDGE( '', *, *, #309, .F. );
#238 = ORIENTED_EDGE( '', *, *, #314, .T. );
#239 = CARTESIAN_POINT( '', ( 17.0000000000000, 60.8000000000000, 0.000000000000000 ) );
#240 = DIRECTION( '', ( 0.000000000000000, -1.00000000000000, -0.000000000000000 ) );
#241 = DIRECTION( '', ( 0.000000000000000, 0.000000000000000, -1.00000000000000 ) );
#242 = SURFACE_STYLE_FILL_AREA( #315 );
#243 = ORIENTED_EDGE( '', *, *, #316, .F. );
#244 = ORIENTED_EDGE( '', *, *, #317, .T. );
#245 = CARTESIAN_POINT( '', ( 12.7500000000000, 64.0000000000000, 0.000000000000000 ) );
#246 = DIRECTION( '', ( 0.000000000000000, -1.00000000000000, -0.000000000000000 ) );
#247 = DIRECTION( '', ( 0.000000000000000, 0.000000000000000, -1.00000000000000 ) );
#248 = SURFACE_STYLE_FILL_AREA( #318 );
#249 = VERTEX_POINT( '', #319 );
#250 = ORIENTED_EDGE( '', *, *, #317, .F. );
#251 = ORIENTED_EDGE( '', *, *, #320, .T. );
#252 = CARTESIAN_POINT( '', ( 0.000000000000000, 62.3245775323365, 0.000000000000000 ) );
#253 = DIRECTION( '', ( 0.000000000000000, -1.00000000000000, -0.000000000000000 ) );
#254 = DIRECTION( '', ( 0.000000000000000, 0.000000000000000, -1.00000000000000 ) );
#255 = SURFACE_STYLE_FILL_AREA( #321 );
#256 = VERTEX_POINT( '', #322 );
#257 = ORIENTED_EDGE( '', *, *, #320, .F. );
#258 = CARTESIAN_POINT( '', ( -8.67361737988404E-16, 55.0000000000000, 0.000000000000000 ) );
#259 = DIRECTION( '', ( 0.000000000000000, -1.00000000000000, 0.000000000000000 ) );
#260 = DIRECTION( '', ( -1.00000000000000, 0.000000000000000, 0.000000000000000 ) );
#261 = SURFACE_STYLE_FILL_AREA( #323 );
#262 = ORIENTED_EDGE( '', *, *, #324, .F. );
#263 = ORIENTED_EDGE( '', *, *, #325, .T. );
#264 = CARTESIAN_POINT( '', ( 0.000000000000000, 0.000000000000000, 0.000000000000000 ) );
#265 = DIRECTION( '', ( -0.000000000000000, 1.00000000000000, 0.000000000000000 ) );
#266 = DIRECTION( '', ( 0.000000000000000, 0.000000000000000, -1.00000000000000 ) );
#267 = SURFACE_STYLE_FILL_AREA( #326 );
#268 = ORIENTED_EDGE( '', *, *, #316, .T. );
#269 = ORIENTED_EDGE( '', *, *, #314, .F. );
#270 = CARTESIAN_POINT( '', ( 0.000000000000000, 58.2388024311782, 0.000000000000000 ) );
#271 = DIRECTION( '', ( 0.000000000000000, -1.00000000000000, -0.000000000000000 ) );
#272 = DIRECTION( '', ( 0.000000000000000, 0.000000000000000, -1.00000000000000 ) );
#273 = SURFACE_STYLE_FILL_AREA( #327 );
#274 = ORIENTED_EDGE( '', *, *, #306, .T. );
#275 = ORIENTED_EDGE( '', *, *, #328, .F. );
#276 = CARTESIAN_POINT( '', ( 0.000000000000000, 62.8000000000000, 0.000000000000000 ) );
#277 = DIRECTION( '', ( 0.000000000000000, -1.00000000000000, -0.000000000000000 ) );
#278 = DIRECTION( '', ( 0.000000000000000, 0.000000000000000, -1.00000000000000 ) );
#279 = SURFACE_STYLE_FILL_AREA( #329 );
#280 = ORIENTED_EDGE( '', *, *, #330, .T. );
#281 = ORIENTED_EDGE( '', *, *, #312, .F. );
#282 = CARTESIAN_POINT( '', ( 0.000000000000000, 46.1000000000000, 0.000000000000000 ) );
#283 = DIRECTION( '', ( 0.000000000000000, -1.00000000000000, -0.000000000000000 ) );
#284 = DIRECTION( '', ( 0.000000000000000, 0.000000000000000, -1.00000000000000 ) );
#285 = SURFACE_STYLE_FILL_AREA( #331 );
#286 = ORIENTED_EDGE( '', *, *, #324, .T. );
#287 = ORIENTED_EDGE( '', *, *, #304, .F. );
#288 = CARTESIAN_POINT( '', ( 0.000000000000000, 0.499999999999999, 0.000000000000000 ) );
#289 = DIRECTION( '', ( 0.000000000000000, -1.00000000000000, -0.000000000000000 ) );
#290 = DIRECTION( '', ( 0.000000000000000, 0.000000000000000, -1.00000000000000 ) );
#291 = SURFACE_STYLE_FILL_AREA( #332 );
#292 = ORIENTED_EDGE( '', *, *, #330, .F. );
#293 = ORIENTED_EDGE( '', *, *, #328, .T. );
#294 = CARTESIAN_POINT( '', ( 0.000000000000000, 0.000000000000000, 0.000000000000000 ) );
#295 = DIRECTION( '', ( -0.000000000000000, 1.00000000000000, 0.000000000000000 ) );
#296 = DIRECTION( '', ( 0.000000000000000, 0.000000000000000, -1.00000000000000 ) );
#297 = SURFACE_STYLE_FILL_AREA( #333 );
#298 = ORIENTED_EDGE( '', *, *, #325, .F. );
#299 = ORIENTED_EDGE( '', *, *, #311, .T. );
#300 = CARTESIAN_POINT( '', ( 0.000000000000000, 45.1000000000000, 0.000000000000000 ) );
#301 = DIRECTION( '', ( 0.000000000000000, -1.00000000000000, -0.000000000000000 ) );
#302 = DIRECTION( '', ( 0.000000000000000, 0.000000000000000, -1.00000000000000 ) );
#303 = FILL_AREA_STYLE( '', ( #334 ) );
#304 = EDGE_CURVE( '', #335, #335, #336, .T. );
#305 = FILL_AREA_STYLE( '', ( #337 ) );
#306 = EDGE_CURVE( '', #338, #338, #339, .T. );
#307 = EDGE_CURVE( '', #340, #340, #341, .T. );
#308 = FILL_AREA_STYLE( '', ( #342 ) );
#309 = EDGE_CURVE( '', #343, #343, #344, .T. );
#310 = FILL_AREA_STYLE( '', ( #345 ) );
#311 = EDGE_CURVE( '', #346, #346, #347, .T. );
#312 = EDGE_CURVE( '', #348, #348, #349, .T. );
#313 = FILL_AREA_STYLE( '', ( #350 ) );
#314 = EDGE_CURVE( '', #351, #351, #352, .T. );
#315 = FILL_AREA_STYLE( '', ( #353 ) );
#316 = EDGE_CURVE( '', #354, #354, #355, .T. );
#317 = EDGE_CURVE( '', #356, #356, #357, .T. );
#318 = FILL_AREA_STYLE( '', ( #358 ) );
#319 = CARTESIAN_POINT( '', ( 0.000000000000000, 62.3245775323365, -13.2666993586967 ) );
#320 = EDGE_CURVE( '', #359, #359, #360, .T. );
#321 = FILL_AREA_STYLE( '', ( #361 ) );
#322 = CARTESIAN_POINT( '', ( -1.78584683734892E-15, 70.0000000000000, 0.000000000000000 ) );
#323 = FILL_AREA_STYLE( '', ( #362 ) );
#324 = EDGE_CURVE( '', #363, #363, #364, .T. );
#325 = EDGE_CURVE( '', #365, #365, #366, .T. );
#326 = FILL_AREA_STYLE( '', ( #367 ) );
#327 = FILL_AREA_STYLE( '', ( #368 ) );
#328 = EDGE_CURVE( '', #369, #369, #370, .T. );
#329 = FILL_AREA_STYLE( '', ( #371 ) );
#330 = EDGE_CURVE( '', #372, #372, #373, .T. );
#331 = FILL_AREA_STYLE( '', ( #374 ) );
#332 = FILL_AREA_STYLE( '', ( #375 ) );
#333 = FILL_AREA_STYLE( '', ( #376 ) );
#334 = FILL_AREA_STYLE_COLOUR( '', #377 );
#335 = VERTEX_POINT( '', #378 );
#336 = CIRCLE( '', #379, 23.6000000000000 );
#337 = FILL_AREA_STYLE_COLOUR( '', #380 );
#338 = VERTEX_POINT( '', #381 );
#339 = CIRCLE( '', #382, 30.5000000000000 );
#340 = VERTEX_POINT( '', #383 );
#341 = CIRCLE( '', #384, 28.0000000000000 );
#342 = FILL_AREA_STYLE_COLOUR( '', #385 );
#343 = VERTEX_POINT( '', #386 );
#344 = CIRCLE( '', #387, 28.0000000000000 );
#345 = FILL_AREA_STYLE_COLOUR( '', #388 );
#346 = VERTEX_POINT( '', #389 );
#347 = CIRCLE( '', #390, 24.6000000000000 );
#348 = VERTEX_POINT( '', #391 );
#349 = CIRCLE( '', #392, 30.5000000000000 );
#350 = FILL_AREA_STYLE_COLOUR( '', #393 );
#351 = VERTEX_POINT( '', #394 );
#352 = CIRCLE( '', #395, 17.0000000000000 );
#353 = FILL_AREA_STYLE_COLOUR( '', #396 );
#354 = VERTEX_POINT( '', #397 );
#355 = CIRCLE( '', #398, 13.2500000000000 );
#356 = VERTEX_POINT( '', #399 );
#357 = CIRCLE( '', #400, 12.7500000000000 );
#358 = FILL_AREA_STYLE_COLOUR( '', #401 );
#359 = VERTEX_POINT( '', #402 );
#360 = CIRCLE( '', #403, 13.2518475885000 );
#361 = FILL_AREA_STYLE_COLOUR( '', #404 );
#362 = FILL_AREA_STYLE_COLOUR( '', #405 );
#363 = VERTEX_POINT( '', #406 );
#364 = CIRCLE( '', #407, 24.1000000000000 );
#365 = VERTEX_POINT( '', #408 );
#366 = CIRCLE( '', #409, 24.1000000000000 );
#367 = FILL_AREA_STYLE_COLOUR( '', #410 );
#368 = FILL_AREA_STYLE_COLOUR( '', #411 );
#369 = VERTEX_POINT( '', #412 );
#370 = CIRCLE( '', #413, 31.0000000000000 );
#371 = FILL_AREA_STYLE_COLOUR( '', #414 );
#372 = VERTEX_POINT( '', #415 );
#373 = CIRCLE( '', #416, 31.0000000000000 );
#374 = FILL_AREA_STYLE_COLOUR( '', #417 );
#375 = FILL_AREA_STYLE_COLOUR( '', #418 );
#376 = FILL_AREA_STYLE_COLOUR( '', #419 );
#377 = COLOUR_RGB( '', 0.689999997600000, 0.689999997600000, 0.689999997600000 );
#378 = CARTESIAN_POINT( '', ( 0.000000000000000, -1.08420217248550E-15, -23.6000000000000 ) );
#379 = AXIS2_PLACEMENT_3D( '', #420, #421, #422 );
#380 = COLOUR_RGB( '', 0.689999997600000, 0.689999997600000, 0.689999997600000 );
#381 = CARTESIAN_POINT( '', ( 0.000000000000000, 63.3000000000000, -30.5000000000000 ) );
#382 = AXIS2_PLACEMENT_3D( '', #423, #424, #425 );
#383 = CARTESIAN_POINT( '', ( 0.000000000000000, 63.3000000000000, -28.0000000000000 ) );
#384 = AXIS2_PLACEMENT_3D( '', #426, #427, #428 );
#385 = COLOUR_RGB( '', 0.689999997600000, 0.689999997600000, 0.689999997600000 );
#386 = CARTESIAN_POINT( '', ( 0.000000000000000, 60.8000000000000, -28.0000000000000 ) );
#387 = AXIS2_PLACEMENT_3D( '', #429, #430, #431 );
#388 = COLOUR_RGB( '', 0.689999997600000, 0.689999997600000, 0.689999997600000 );
#389 = CARTESIAN_POINT( '', ( 0.000000000000000, 45.6000000000000, -24.6000000000000 ) );
#390 = AXIS2_PLACEMENT_3D( '', #432, #433, #434 );
#391 = CARTESIAN_POINT( '', ( 0.000000000000000, 45.6000000000000, -30.5000000000000 ) );
#392 = AXIS2_PLACEMENT_3D( '', #435, #436, #437 );
#393 = COLOUR_RGB( '', 0.689999997600000, 0.689999997600000, 0.689999997600000 );
#394 = CARTESIAN_POINT( '', ( 0.000000000000000, 60.8000000000000, -17.0000000000000 ) );
#395 = AXIS2_PLACEMENT_3D( '', #438, #439, #440 );
#396 = COLOUR_RGB( '', 0.689999997600000, 0.689999997600000, 0.689999997600000 );
#397 = CARTESIAN_POINT( '', ( 0.000000000000000, 64.0000000000000, -13.2500000000000 ) );
#398 = AXIS2_PLACEMENT_3D( '', #441, #442, #443 );
#399 = CARTESIAN_POINT( '', ( 0.000000000000000, 64.0000000000000, -12.7500000000000 ) );
#400 = AXIS2_PLACEMENT_3D( '', #444, #445, #446 );
#401 = COLOUR_RGB( '', 0.689999997600000, 0.689999997600000, 0.689999997600000 );
#402 = CARTESIAN_POINT( '', ( 13.2518475885101, 62.0276977375880, 0.000000000000000 ) );
#403 = AXIS2_PLACEMENT_3D( '', #447, #448, #449 );
#404 = COLOUR_RGB( '', 0.689999997600000, 0.689999997600000, 0.689999997600000 );
#405 = COLOUR_RGB( '', 0.689999997600000, 0.689999997600000, 0.689999997600000 );
#406 = CARTESIAN_POINT( '', ( 0.000000000000000, 0.500000000000000, -24.1000000000000 ) );
#407 = AXIS2_PLACEMENT_3D( '', #450, #451, #452 );
#408 = CARTESIAN_POINT( '', ( 0.000000000000000, 45.1000000000000, -24.1000000000000 ) );
#409 = AXIS2_PLACEMENT_3D( '', #453, #454, #455 );
#410 = COLOUR_RGB( '', 0.689999997600000, 0.689999997600000, 0.689999997600000 );
#411 = COLOUR_RGB( '', 0.689999997600000, 0.689999997600000, 0.689999997600000 );
#412 = CARTESIAN_POINT( '', ( 0.000000000000000, 62.8000000000000, -31.0000000000000 ) );
#413 = AXIS2_PLACEMENT_3D( '', #456, #457, #458 );
#414 = COLOUR_RGB( '', 0.689999997600000, 0.689999997600000, 0.689999997600000 );
#415 = CARTESIAN_POINT( '', ( 0.000000000000000, 46.1000000000000, -31.0000000000000 ) );
#416 = AXIS2_PLACEMENT_3D( '', #459, #460, #461 );
#417 = COLOUR_RGB( '', 0.689999997600000, 0.689999997600000, 0.689999997600000 );
#418 = COLOUR_RGB( '', 0.689999997600000, 0.689999997600000, 0.689999997600000 );
#419 = COLOUR_RGB( '', 0.689999997600000, 0.689999997600000, 0.689999997600000 );
#420 = CARTESIAN_POINT( '', ( 0.000000000000000, -1.08420217248550E-15, 0.000000000000000 ) );
#421 = DIRECTION( '', ( 0.000000000000000, -1.00000000000000, -0.000000000000000 ) );
#422 = DIRECTION( '', ( 0.000000000000000, 0.000000000000000, -1.00000000000000 ) );
#423 = CARTESIAN_POINT( '', ( 0.000000000000000, 63.3000000000000, 0.000000000000000 ) );
#424 = DIRECTION( '', ( 0.000000000000000, -1.00000000000000, -0.000000000000000 ) );
#425 = DIRECTION( '', ( 0.000000000000000, 0.000000000000000, -1.00000000000000 ) );
#426 = CARTESIAN_POINT( '', ( 0.000000000000000, 63.3000000000000, 0.000000000000000 ) );
#427 = DIRECTION( '', ( 0.000000000000000, -1.00000000000000, -0.000000000000000 ) );
#428 = DIRECTION( '', ( 0.000000000000000, 0.000000000000000, -1.00000000000000 ) );
#429 = CARTESIAN_POINT( '', ( 0.000000000000000, 60.8000000000000, 0.000000000000000 ) );
#430 = DIRECTION( '', ( 0.000000000000000, -1.00000000000000, -0.000000000000000 ) );
#431 = DIRECTION( '', ( 0.000000000000000, 0.000000000000000, -1.00000000000000 ) );
#432 = CARTESIAN_POINT( '', ( 0.000000000000000, 45.6000000000000, 0.000000000000000 ) );
#433 = DIRECTION( '', ( 0.000000000000000, -1.00000000000000, -0.000000000000000 ) );
#434 = DIRECTION( '', ( 0.000000000000000, 0.000000000000000, -1.00000000000000 ) );
#435 = CARTESIAN_POINT( '', ( 0.000000000000000, 45.6000000000000, 0.000000000000000 ) );
#436 = DIRECTION( '', ( 0.000000000000000, -1.00000000000000, -0.000000000000000 ) );
#437 = DIRECTION( '', ( 0.000000000000000, 0.000000000000000, -1.00000000000000 ) );
#438 = CARTESIAN_POINT( '', ( 0.000000000000000, 60.8000000000000, 0.000000000000000 ) );
#439 = DIRECTION( '', ( 0.000000000000000, -1.00000000000000, -0.000000000000000 ) );
#440 = DIRECTION( '', ( 0.000000000000000, 0.000000000000000, -1.00000000000000 ) );
#441 = CARTESIAN_POINT( '', ( 0.000000000000000, 64.0000000000000, 0.000000000000000 ) );
#442 = DIRECTION( '', ( 0.000000000000000, -1.00000000000000, -0.000000000000000 ) );
#443 = DIRECTION( '', ( 0.000000000000000, 0.000000000000000, -1.00000000000000 ) );
#444 = CARTESIAN_POINT( '', ( 0.000000000000000, 64.0000000000000, 0.000000000000000 ) );
#445 = DIRECTION( '', ( 0.000000000000000, -1.00000000000000, -0.000000000000000 ) );
#446 = DIRECTION( '', ( 0.000000000000000, 0.000000000000000, -1.00000000000000 ) );
#447 = CARTESIAN_POINT( '', ( -1.75779540601390E-17, 62.0276977375880, 0.000000000000000 ) );
#448 = DIRECTION( '', ( -5.92089942497829E-17, -1.00000000000000, 0.000000000000000 ) );
#449 = DIRECTION( '', ( 1.00000000000000, -5.92089942497829E-17, 0.000000000000000 ) );
#450 = CARTESIAN_POINT( '', ( 0.000000000000000, 0.500000000000000, 0.000000000000000 ) );
#451 = DIRECTION( '', ( 0.000000000000000, -1.00000000000000, -0.000000000000000 ) );
#452 = DIRECTION( '', ( 0.000000000000000, 0.000000000000000, -1.00000000000000 ) );
#453 = CARTESIAN_POINT( '', ( 0.000000000000000, 45.1000000000000, 0.000000000000000 ) );
#454 = DIRECTION( '', ( 0.000000000000000, -1.00000000000000, -0.000000000000000 ) );
#455 = DIRECTION( '', ( 0.000000000000000, 0.000000000000000, -1.00000000000000 ) );
#456 = CARTESIAN_POINT( '', ( 0.000000000000000, 62.8000000000000, 0.000000000000000 ) );
#457 = DIRECTION( '', ( 0.000000000000000, -1.00000000000000, -0.000000000000000 ) );
#458 = DIRECTION( '', ( 0.000000000000000, 0.000000000000000, -1.00000000000000 ) );
#459 = CARTESIAN_POINT( '', ( 0.000000000000000, 46.1000000000000, 0.000000000000000 ) );
#460 = DIRECTION( '', ( 0.000000000000000, -1.00000000000000, -0.000000000000000 ) );
#461 = DIRECTION( '', ( 0.000000000000000, 0.000000000000000, -1.00000000000000 ) );
ENDSEC;
END-ISO-10303-21;
