ISO-10303-21;
HEADER;
FILE_DESCRIPTION( ( 'STEP AP214' ), '1' );
FILE_NAME( '//goodhand-server/Shared Folders/GoodHand Data/Kipp CAD/K1152/K1152.281330.stp', '2020-12-10T10:25:41', ( '' ), ( '' ), ' ', 'PARTsolutions', ' ' );
FILE_SCHEMA( ( 'AUTOMOTIVE_DESIGN { 1 0 10303 214 1 1 1 1 }' ) );
ENDSEC;
DATA;
#1 = MECHANICAL_DESIGN_GEOMETRIC_PRESENTATION_REPRESENTATION( ' ', ( #10, #11, #12, #13, #14, #15, #16, #17, #18, #19, #20, #21, #22, #23, #24, #25 ), #6 );
#2 = PRODUCT_DEFINITION_CONTEXT( '', #26, 'design' );
#3 = APPLICATION_PROTOCOL_DEFINITION( 'international standard', 'automotive_design', 2001, #26 );
#4 = PRODUCT_CATEGORY_RELATIONSHIP( 'NONE', 'NONE', #27, #28 );
#5 = SHAPE_DEFINITION_REPRESENTATION( #29, #30 );
#6 =  ( GEOMETRIC_REPRESENTATION_CONTEXT( 3 )GLOBAL_UNCERTAINTY_ASSIGNED_CONTEXT( ( #33 ) )GLOBAL_UNIT_ASSIGNED_CONTEXT( ( #35, #36, #37 ) )REPRESENTATION_CONTEXT( 'NONE', 'WORKSPACE' ) );
#10 = STYLED_ITEM( '', ( #39 ), #40 );
#11 = STYLED_ITEM( '', ( #41 ), #42 );
#12 = STYLED_ITEM( '', ( #43 ), #44 );
#13 = STYLED_ITEM( '', ( #45 ), #46 );
#14 = STYLED_ITEM( '', ( #47 ), #48 );
#15 = STYLED_ITEM( '', ( #49 ), #50 );
#16 = STYLED_ITEM( '', ( #51 ), #52 );
#17 = STYLED_ITEM( '', ( #53 ), #54 );
#18 = STYLED_ITEM( '', ( #55 ), #56 );
#19 = STYLED_ITEM( '', ( #57 ), #58 );
#20 = STYLED_ITEM( '', ( #59 ), #60 );
#21 = STYLED_ITEM( '', ( #61 ), #62 );
#22 = STYLED_ITEM( '', ( #63 ), #64 );
#23 = STYLED_ITEM( '', ( #65 ), #66 );
#24 = STYLED_ITEM( '', ( #67 ), #68 );
#25 = STYLED_ITEM( '', ( #69 ), #70 );
#26 = APPLICATION_CONTEXT( 'core data for automotive mechanical design processes' );
#27 = PRODUCT_CATEGORY( 'part', 'NONE' );
#28 = PRODUCT_RELATED_PRODUCT_CATEGORY( 'detail', ' ', ( #71 ) );
#29 = PRODUCT_DEFINITION_SHAPE( 'NONE', 'NONE', #72 );
#30 = ADVANCED_BREP_SHAPE_REPRESENTATION( '_K1152.281330', ( #73, #74 ), #6 );
#33 = UNCERTAINTY_MEASURE_WITH_UNIT( LENGTH_MEASURE( 0.00100000000000000 ), #35, '', '' );
#35 =  ( CONVERSION_BASED_UNIT( 'MILLIMETRE', #77 )LENGTH_UNIT(  )NAMED_UNIT( #80 ) );
#36 =  ( NAMED_UNIT( #82 )PLANE_ANGLE_UNIT(  )SI_UNIT( $, .RADIAN. ) );
#37 =  ( NAMED_UNIT( #82 )SI_UNIT( $, .STERADIAN. )SOLID_ANGLE_UNIT(  ) );
#39 = PRESENTATION_STYLE_ASSIGNMENT( ( #88 ) );
#40 = ADVANCED_FACE( '', ( #89, #90 ), #91, .T. );
#41 = PRESENTATION_STYLE_ASSIGNMENT( ( #92 ) );
#42 = ADVANCED_FACE( '', ( #93, #94 ), #95, .F. );
#43 = PRESENTATION_STYLE_ASSIGNMENT( ( #96 ) );
#44 = ADVANCED_FACE( '', ( #97, #98 ), #99, .F. );
#45 = PRESENTATION_STYLE_ASSIGNMENT( ( #100 ) );
#46 = ADVANCED_FACE( '', ( #101, #102 ), #103, .T. );
#47 = PRESENTATION_STYLE_ASSIGNMENT( ( #104 ) );
#48 = ADVANCED_FACE( '', ( #105, #106 ), #107, .F. );
#49 = PRESENTATION_STYLE_ASSIGNMENT( ( #108 ) );
#50 = ADVANCED_FACE( '', ( #109 ), #110, .F. );
#51 = PRESENTATION_STYLE_ASSIGNMENT( ( #111 ) );
#52 = ADVANCED_FACE( '', ( #112, #113 ), #114, .T. );
#53 = PRESENTATION_STYLE_ASSIGNMENT( ( #115 ) );
#54 = ADVANCED_FACE( '', ( #116, #117 ), #118, .T. );
#55 = PRESENTATION_STYLE_ASSIGNMENT( ( #119 ) );
#56 = ADVANCED_FACE( '', ( #120, #121 ), #122, .T. );
#57 = PRESENTATION_STYLE_ASSIGNMENT( ( #123 ) );
#58 = ADVANCED_FACE( '', ( #124, #125 ), #126, .F. );
#59 = PRESENTATION_STYLE_ASSIGNMENT( ( #127 ) );
#60 = ADVANCED_FACE( '', ( #128, #129 ), #130, .F. );
#61 = PRESENTATION_STYLE_ASSIGNMENT( ( #131 ) );
#62 = ADVANCED_FACE( '', ( #132, #133 ), #134, .T. );
#63 = PRESENTATION_STYLE_ASSIGNMENT( ( #135 ) );
#64 = ADVANCED_FACE( '', ( #136, #137 ), #138, .F. );
#65 = PRESENTATION_STYLE_ASSIGNMENT( ( #139 ) );
#66 = ADVANCED_FACE( '', ( #140, #141 ), #142, .T. );
#67 = PRESENTATION_STYLE_ASSIGNMENT( ( #143 ) );
#68 = ADVANCED_FACE( '', ( #144, #145 ), #146, .T. );
#69 = PRESENTATION_STYLE_ASSIGNMENT( ( #147 ) );
#70 = ADVANCED_FACE( '', ( #148 ), #149, .F. );
#71 = PRODUCT( '_K1152.281330', '_K1152.281330', 'PART-_K1152.281330-DESC', ( #150 ) );
#72 = PRODUCT_DEFINITION( 'NONE', 'NONE', #151, #2 );
#73 = MANIFOLD_SOLID_BREP( '_K1152.281330', #152 );
#74 = AXIS2_PLACEMENT_3D( '', #153, #154, #155 );
#77 = LENGTH_MEASURE_WITH_UNIT( LENGTH_MEASURE( 1.00000000000000 ), #156 );
#80 = DIMENSIONAL_EXPONENTS( 1.00000000000000, 0.000000000000000, 0.000000000000000, 0.000000000000000, 0.000000000000000, 0.000000000000000, 0.000000000000000 );
#82 = DIMENSIONAL_EXPONENTS( 0.000000000000000, 0.000000000000000, 0.000000000000000, 0.000000000000000, 0.000000000000000, 0.000000000000000, 0.000000000000000 );
#88 = SURFACE_STYLE_USAGE( .BOTH., #157 );
#89 = FACE_OUTER_BOUND( '', #158, .T. );
#90 = FACE_OUTER_BOUND( '', #159, .T. );
#91 = CYLINDRICAL_SURFACE( '', #160, 14.0000000000000 );
#92 = SURFACE_STYLE_USAGE( .BOTH., #161 );
#93 = FACE_BOUND( '', #162, .T. );
#94 = FACE_OUTER_BOUND( '', #163, .T. );
#95 = PLANE( '', #164 );
#96 = SURFACE_STYLE_USAGE( .BOTH., #165 );
#97 = FACE_OUTER_BOUND( '', #166, .T. );
#98 = FACE_BOUND( '', #167, .T. );
#99 = CONICAL_SURFACE( '', #168, 10.0000000000000, 1.10626929740000 );
#100 = SURFACE_STYLE_USAGE( .BOTH., #169 );
#101 = FACE_OUTER_BOUND( '', #170, .T. );
#102 = FACE_BOUND( '', #171, .T. );
#103 = CONICAL_SURFACE( '', #172, 12.9100428529000, 1.19597132090000 );
#104 = SURFACE_STYLE_USAGE( .BOTH., #173 );
#105 = FACE_OUTER_BOUND( '', #174, .T. );
#106 = FACE_BOUND( '', #175, .T. );
#107 = PLANE( '', #176 );
#108 = SURFACE_STYLE_USAGE( .BOTH., #177 );
#109 = FACE_OUTER_BOUND( '', #178, .T. );
#110 = PLANE( '', #179 );
#111 = SURFACE_STYLE_USAGE( .BOTH., #180 );
#112 = FACE_OUTER_BOUND( '', #181, .T. );
#113 = FACE_OUTER_BOUND( '', #182, .T. );
#114 = CYLINDRICAL_SURFACE( '', #183, 15.0000000000000 );
#115 = SURFACE_STYLE_USAGE( .BOTH., #184 );
#116 = FACE_OUTER_BOUND( '', #185, .T. );
#117 = FACE_OUTER_BOUND( '', #186, .T. );
#118 = CYLINDRICAL_SURFACE( '', #187, 14.0000000000000 );
#119 = SURFACE_STYLE_USAGE( .BOTH., #188 );
#120 = FACE_OUTER_BOUND( '', #189, .T. );
#121 = FACE_OUTER_BOUND( '', #190, .T. );
#122 = TOROIDAL_SURFACE( '', #191, 12.5000000000000, 1.12000000000000 );
#123 = SURFACE_STYLE_USAGE( .BOTH., #192 );
#124 = FACE_BOUND( '', #193, .T. );
#125 = FACE_OUTER_BOUND( '', #194, .T. );
#126 = PLANE( '', #195 );
#127 = SURFACE_STYLE_USAGE( .BOTH., #196 );
#128 = FACE_BOUND( '', #197, .T. );
#129 = FACE_OUTER_BOUND( '', #198, .T. );
#130 = PLANE( '', #199 );
#131 = SURFACE_STYLE_USAGE( .BOTH., #200 );
#132 = FACE_OUTER_BOUND( '', #201, .T. );
#133 = FACE_OUTER_BOUND( '', #202, .T. );
#134 = CYLINDRICAL_SURFACE( '', #203, 13.8500000000000 );
#135 = SURFACE_STYLE_USAGE( .BOTH., #204 );
#136 = FACE_OUTER_BOUND( '', #205, .T. );
#137 = FACE_BOUND( '', #206, .T. );
#138 = PLANE( '', #207 );
#139 = SURFACE_STYLE_USAGE( .BOTH., #208 );
#140 = FACE_OUTER_BOUND( '', #209, .T. );
#141 = FACE_OUTER_BOUND( '', #210, .T. );
#142 = CYLINDRICAL_SURFACE( '', #211, 13.8500000000000 );
#143 = SURFACE_STYLE_USAGE( .BOTH., #212 );
#144 = FACE_OUTER_BOUND( '', #213, .T. );
#145 = FACE_OUTER_BOUND( '', #214, .T. );
#146 = CYLINDRICAL_SURFACE( '', #215, 14.0000000000000 );
#147 = SURFACE_STYLE_USAGE( .BOTH., #216 );
#148 = FACE_OUTER_BOUND( '', #217, .T. );
#149 = PLANE( '', #218 );
#150 = PRODUCT_CONTEXT( '', #26, 'mechanical' );
#151 = PRODUCT_DEFINITION_FORMATION_WITH_SPECIFIED_SOURCE( ' ', 'NONE', #71, .NOT_KNOWN. );
#152 = CLOSED_SHELL( '', ( #40, #64, #62, #60, #54, #48, #66, #42, #68, #58, #52, #46, #56, #44, #70, #50 ) );
#153 = CARTESIAN_POINT( '', ( 0.000000000000000, 0.000000000000000, 0.000000000000000 ) );
#154 = DIRECTION( '', ( 0.000000000000000, 0.000000000000000, 1.00000000000000 ) );
#155 = DIRECTION( '', ( 1.00000000000000, 0.000000000000000, 0.000000000000000 ) );
#156 =  ( LENGTH_UNIT(  )NAMED_UNIT( #80 )SI_UNIT( .MILLI., .METRE. ) );
#157 = SURFACE_SIDE_STYLE( '', ( #220 ) );
#158 = EDGE_LOOP( '', ( #221 ) );
#159 = EDGE_LOOP( '', ( #222 ) );
#160 = AXIS2_PLACEMENT_3D( '', #223, #224, #225 );
#161 = SURFACE_SIDE_STYLE( '', ( #226 ) );
#162 = EDGE_LOOP( '', ( #227 ) );
#163 = EDGE_LOOP( '', ( #228 ) );
#164 = AXIS2_PLACEMENT_3D( '', #229, #230, #231 );
#165 = SURFACE_SIDE_STYLE( '', ( #232 ) );
#166 = EDGE_LOOP( '', ( #233 ) );
#167 = EDGE_LOOP( '', ( #234 ) );
#168 = AXIS2_PLACEMENT_3D( '', #235, #236, #237 );
#169 = SURFACE_SIDE_STYLE( '', ( #238 ) );
#170 = EDGE_LOOP( '', ( #239 ) );
#171 = EDGE_LOOP( '', ( #240 ) );
#172 = AXIS2_PLACEMENT_3D( '', #241, #242, #243 );
#173 = SURFACE_SIDE_STYLE( '', ( #244 ) );
#174 = EDGE_LOOP( '', ( #245 ) );
#175 = EDGE_LOOP( '', ( #246 ) );
#176 = AXIS2_PLACEMENT_3D( '', #247, #248, #249 );
#177 = SURFACE_SIDE_STYLE( '', ( #250 ) );
#178 = EDGE_LOOP( '', ( #251 ) );
#179 = AXIS2_PLACEMENT_3D( '', #252, #253, #254 );
#180 = SURFACE_SIDE_STYLE( '', ( #255 ) );
#181 = EDGE_LOOP( '', ( #256 ) );
#182 = EDGE_LOOP( '', ( #257 ) );
#183 = AXIS2_PLACEMENT_3D( '', #258, #259, #260 );
#184 = SURFACE_SIDE_STYLE( '', ( #261 ) );
#185 = EDGE_LOOP( '', ( #262 ) );
#186 = EDGE_LOOP( '', ( #263 ) );
#187 = AXIS2_PLACEMENT_3D( '', #264, #265, #266 );
#188 = SURFACE_SIDE_STYLE( '', ( #267 ) );
#189 = EDGE_LOOP( '', ( #268 ) );
#190 = EDGE_LOOP( '', ( #269 ) );
#191 = AXIS2_PLACEMENT_3D( '', #270, #271, #272 );
#192 = SURFACE_SIDE_STYLE( '', ( #273 ) );
#193 = EDGE_LOOP( '', ( #274 ) );
#194 = EDGE_LOOP( '', ( #275 ) );
#195 = AXIS2_PLACEMENT_3D( '', #276, #277, #278 );
#196 = SURFACE_SIDE_STYLE( '', ( #279 ) );
#197 = EDGE_LOOP( '', ( #280 ) );
#198 = EDGE_LOOP( '', ( #281 ) );
#199 = AXIS2_PLACEMENT_3D( '', #282, #283, #284 );
#200 = SURFACE_SIDE_STYLE( '', ( #285 ) );
#201 = EDGE_LOOP( '', ( #286 ) );
#202 = EDGE_LOOP( '', ( #287 ) );
#203 = AXIS2_PLACEMENT_3D( '', #288, #289, #290 );
#204 = SURFACE_SIDE_STYLE( '', ( #291 ) );
#205 = EDGE_LOOP( '', ( #292 ) );
#206 = EDGE_LOOP( '', ( #293 ) );
#207 = AXIS2_PLACEMENT_3D( '', #294, #295, #296 );
#208 = SURFACE_SIDE_STYLE( '', ( #297 ) );
#209 = EDGE_LOOP( '', ( #298 ) );
#210 = EDGE_LOOP( '', ( #299 ) );
#211 = AXIS2_PLACEMENT_3D( '', #300, #301, #302 );
#212 = SURFACE_SIDE_STYLE( '', ( #303 ) );
#213 = EDGE_LOOP( '', ( #304 ) );
#214 = EDGE_LOOP( '', ( #305 ) );
#215 = AXIS2_PLACEMENT_3D( '', #306, #307, #308 );
#216 = SURFACE_SIDE_STYLE( '', ( #309 ) );
#217 = EDGE_LOOP( '', ( #310 ) );
#218 = AXIS2_PLACEMENT_3D( '', #311, #312, #313 );
#220 = SURFACE_STYLE_FILL_AREA( #314 );
#221 = ORIENTED_EDGE( '', *, *, #315, .F. );
#222 = ORIENTED_EDGE( '', *, *, #316, .T. );
#223 = CARTESIAN_POINT( '', ( 0.000000000000000, 0.000000000000000, 0.000000000000000 ) );
#224 = DIRECTION( '', ( -0.000000000000000, 1.00000000000000, 0.000000000000000 ) );
#225 = DIRECTION( '', ( 0.000000000000000, 0.000000000000000, -1.00000000000000 ) );
#226 = SURFACE_STYLE_FILL_AREA( #317 );
#227 = ORIENTED_EDGE( '', *, *, #318, .F. );
#228 = ORIENTED_EDGE( '', *, *, #319, .T. );
#229 = CARTESIAN_POINT( '', ( 14.0000000000000, 6.70000000000000, 0.000000000000000 ) );
#230 = DIRECTION( '', ( 0.000000000000000, 1.00000000000000, 0.000000000000000 ) );
#231 = DIRECTION( '', ( 0.000000000000000, -0.000000000000000, 1.00000000000000 ) );
#232 = SURFACE_STYLE_FILL_AREA( #320 );
#233 = ORIENTED_EDGE( '', *, *, #321, .F. );
#234 = ORIENTED_EDGE( '', *, *, #322, .T. );
#235 = CARTESIAN_POINT( '', ( 0.000000000000000, 11.8800000000000, 0.000000000000000 ) );
#236 = DIRECTION( '', ( -0.000000000000000, 1.00000000000000, 0.000000000000000 ) );
#237 = DIRECTION( '', ( 0.000000000000000, -0.000000000000000, 1.00000000000000 ) );
#238 = SURFACE_STYLE_FILL_AREA( #323 );
#239 = ORIENTED_EDGE( '', *, *, #324, .F. );
#240 = ORIENTED_EDGE( '', *, *, #325, .T. );
#241 = CARTESIAN_POINT( '', ( 0.000000000000000, 12.9222403075870, 0.000000000000000 ) );
#242 = DIRECTION( '', ( -0.000000000000000, -1.00000000000000, -0.000000000000000 ) );
#243 = DIRECTION( '', ( 0.000000000000000, 0.000000000000000, -1.00000000000000 ) );
#244 = SURFACE_STYLE_FILL_AREA( #326 );
#245 = ORIENTED_EDGE( '', *, *, #327, .F. );
#246 = ORIENTED_EDGE( '', *, *, #328, .T. );
#247 = CARTESIAN_POINT( '', ( 13.8500000000000, 6.20000000000000, 0.000000000000000 ) );
#248 = DIRECTION( '', ( 0.000000000000000, -1.00000000000000, -0.000000000000000 ) );
#249 = DIRECTION( '', ( 0.000000000000000, 0.000000000000000, -1.00000000000000 ) );
#250 = SURFACE_STYLE_FILL_AREA( #329 );
#251 = ORIENTED_EDGE( '', *, *, #315, .T. );
#252 = CARTESIAN_POINT( '', ( 14.0000000000000, 0.000000000000000, 0.000000000000000 ) );
#253 = DIRECTION( '', ( 0.000000000000000, 1.00000000000000, 0.000000000000000 ) );
#254 = DIRECTION( '', ( 0.000000000000000, -0.000000000000000, 1.00000000000000 ) );
#255 = SURFACE_STYLE_FILL_AREA( #330 );
#256 = ORIENTED_EDGE( '', *, *, #331, .F. );
#257 = ORIENTED_EDGE( '', *, *, #324, .T. );
#258 = CARTESIAN_POINT( '', ( 0.000000000000000, 0.000000000000000, 0.000000000000000 ) );
#259 = DIRECTION( '', ( -0.000000000000000, 1.00000000000000, 0.000000000000000 ) );
#260 = DIRECTION( '', ( 0.000000000000000, 0.000000000000000, -1.00000000000000 ) );
#261 = SURFACE_STYLE_FILL_AREA( #332 );
#262 = ORIENTED_EDGE( '', *, *, #333, .F. );
#263 = ORIENTED_EDGE( '', *, *, #327, .T. );
#264 = CARTESIAN_POINT( '', ( 0.000000000000000, 0.000000000000000, 0.000000000000000 ) );
#265 = DIRECTION( '', ( -0.000000000000000, 1.00000000000000, 0.000000000000000 ) );
#266 = DIRECTION( '', ( 0.000000000000000, 0.000000000000000, -1.00000000000000 ) );
#267 = SURFACE_STYLE_FILL_AREA( #334 );
#268 = ORIENTED_EDGE( '', *, *, #321, .T. );
#269 = ORIENTED_EDGE( '', *, *, #325, .F. );
#270 = CARTESIAN_POINT( '', ( 0.000000000000000, 11.8800000000000, 0.000000000000000 ) );
#271 = DIRECTION( '', ( 0.000000000000000, -1.00000000000000, -0.000000000000000 ) );
#272 = DIRECTION( '', ( 0.000000000000000, 0.000000000000000, -1.00000000000000 ) );
#273 = SURFACE_STYLE_FILL_AREA( #335 );
#274 = ORIENTED_EDGE( '', *, *, #336, .F. );
#275 = ORIENTED_EDGE( '', *, *, #331, .T. );
#276 = CARTESIAN_POINT( '', ( 15.0000000000000, 10.0000000000000, 0.000000000000000 ) );
#277 = DIRECTION( '', ( 0.000000000000000, 1.00000000000000, 0.000000000000000 ) );
#278 = DIRECTION( '', ( 0.000000000000000, -0.000000000000000, 1.00000000000000 ) );
#279 = SURFACE_STYLE_FILL_AREA( #337 );
#280 = ORIENTED_EDGE( '', *, *, #338, .F. );
#281 = ORIENTED_EDGE( '', *, *, #333, .T. );
#282 = CARTESIAN_POINT( '', ( 14.0000000000000, 2.60000000000000, 0.000000000000000 ) );
#283 = DIRECTION( '', ( 0.000000000000000, 1.00000000000000, 0.000000000000000 ) );
#284 = DIRECTION( '', ( 0.000000000000000, -0.000000000000000, 1.00000000000000 ) );
#285 = SURFACE_STYLE_FILL_AREA( #339 );
#286 = ORIENTED_EDGE( '', *, *, #340, .F. );
#287 = ORIENTED_EDGE( '', *, *, #338, .T. );
#288 = CARTESIAN_POINT( '', ( 0.000000000000000, 0.000000000000000, 0.000000000000000 ) );
#289 = DIRECTION( '', ( -0.000000000000000, 1.00000000000000, 0.000000000000000 ) );
#290 = DIRECTION( '', ( 0.000000000000000, 0.000000000000000, -1.00000000000000 ) );
#291 = SURFACE_STYLE_FILL_AREA( #341 );
#292 = ORIENTED_EDGE( '', *, *, #316, .F. );
#293 = ORIENTED_EDGE( '', *, *, #340, .T. );
#294 = CARTESIAN_POINT( '', ( 13.8500000000000, 2.10000000000000, 0.000000000000000 ) );
#295 = DIRECTION( '', ( 0.000000000000000, -1.00000000000000, -0.000000000000000 ) );
#296 = DIRECTION( '', ( 0.000000000000000, 0.000000000000000, -1.00000000000000 ) );
#297 = SURFACE_STYLE_FILL_AREA( #342 );
#298 = ORIENTED_EDGE( '', *, *, #328, .F. );
#299 = ORIENTED_EDGE( '', *, *, #318, .T. );
#300 = CARTESIAN_POINT( '', ( 0.000000000000000, 0.000000000000000, 0.000000000000000 ) );
#301 = DIRECTION( '', ( -0.000000000000000, 1.00000000000000, 0.000000000000000 ) );
#302 = DIRECTION( '', ( 0.000000000000000, 0.000000000000000, -1.00000000000000 ) );
#303 = SURFACE_STYLE_FILL_AREA( #343 );
#304 = ORIENTED_EDGE( '', *, *, #319, .F. );
#305 = ORIENTED_EDGE( '', *, *, #336, .T. );
#306 = CARTESIAN_POINT( '', ( 0.000000000000000, 0.000000000000000, 0.000000000000000 ) );
#307 = DIRECTION( '', ( -0.000000000000000, 1.00000000000000, 0.000000000000000 ) );
#308 = DIRECTION( '', ( 0.000000000000000, 0.000000000000000, -1.00000000000000 ) );
#309 = SURFACE_STYLE_FILL_AREA( #344 );
#310 = ORIENTED_EDGE( '', *, *, #322, .F. );
#311 = CARTESIAN_POINT( '', ( 0.000000000000000, 11.8800000000000, 0.000000000000000 ) );
#312 = DIRECTION( '', ( 0.000000000000000, -1.00000000000000, -0.000000000000000 ) );
#313 = DIRECTION( '', ( 0.000000000000000, 0.000000000000000, -1.00000000000000 ) );
#314 = FILL_AREA_STYLE( '', ( #345 ) );
#315 = EDGE_CURVE( '', #346, #346, #347, .T. );
#316 = EDGE_CURVE( '', #348, #348, #349, .T. );
#317 = FILL_AREA_STYLE( '', ( #350 ) );
#318 = EDGE_CURVE( '', #351, #351, #352, .T. );
#319 = EDGE_CURVE( '', #353, #353, #354, .T. );
#320 = FILL_AREA_STYLE( '', ( #355 ) );
#321 = EDGE_CURVE( '', #356, #356, #357, .T. );
#322 = EDGE_CURVE( '', #358, #358, #359, .T. );
#323 = FILL_AREA_STYLE( '', ( #360 ) );
#324 = EDGE_CURVE( '', #361, #361, #362, .T. );
#325 = EDGE_CURVE( '', #363, #363, #364, .T. );
#326 = FILL_AREA_STYLE( '', ( #365 ) );
#327 = EDGE_CURVE( '', #366, #366, #367, .T. );
#328 = EDGE_CURVE( '', #368, #368, #369, .T. );
#329 = FILL_AREA_STYLE( '', ( #370 ) );
#330 = FILL_AREA_STYLE( '', ( #371 ) );
#331 = EDGE_CURVE( '', #372, #372, #373, .T. );
#332 = FILL_AREA_STYLE( '', ( #374 ) );
#333 = EDGE_CURVE( '', #375, #375, #376, .T. );
#334 = FILL_AREA_STYLE( '', ( #377 ) );
#335 = FILL_AREA_STYLE( '', ( #378 ) );
#336 = EDGE_CURVE( '', #379, #379, #380, .T. );
#337 = FILL_AREA_STYLE( '', ( #381 ) );
#338 = EDGE_CURVE( '', #382, #382, #383, .T. );
#339 = FILL_AREA_STYLE( '', ( #384 ) );
#340 = EDGE_CURVE( '', #385, #385, #386, .T. );
#341 = FILL_AREA_STYLE( '', ( #387 ) );
#342 = FILL_AREA_STYLE( '', ( #388 ) );
#343 = FILL_AREA_STYLE( '', ( #389 ) );
#344 = FILL_AREA_STYLE( '', ( #390 ) );
#345 = FILL_AREA_STYLE_COLOUR( '', #391 );
#346 = VERTEX_POINT( '', #392 );
#347 = CIRCLE( '', #393, 14.0000000000000 );
#348 = VERTEX_POINT( '', #394 );
#349 = CIRCLE( '', #395, 14.0000000000000 );
#350 = FILL_AREA_STYLE_COLOUR( '', #396 );
#351 = VERTEX_POINT( '', #397 );
#352 = CIRCLE( '', #398, 13.8500000000000 );
#353 = VERTEX_POINT( '', #399 );
#354 = CIRCLE( '', #400, 14.0000000000000 );
#355 = FILL_AREA_STYLE_COLOUR( '', #401 );
#356 = VERTEX_POINT( '', #402 );
#357 = CIRCLE( '', #403, 11.9982400000000 );
#358 = VERTEX_POINT( '', #404 );
#359 = CIRCLE( '', #405, 10.0000000000000 );
#360 = FILL_AREA_STYLE_COLOUR( '', #406 );
#361 = VERTEX_POINT( '', #407 );
#362 = CIRCLE( '', #408, 15.0000000000000 );
#363 = VERTEX_POINT( '', #409 );
#364 = CIRCLE( '', #410, 12.9100428529000 );
#365 = FILL_AREA_STYLE_COLOUR( '', #411 );
#366 = VERTEX_POINT( '', #412 );
#367 = CIRCLE( '', #413, 14.0000000000000 );
#368 = VERTEX_POINT( '', #414 );
#369 = CIRCLE( '', #415, 13.8500000000000 );
#370 = FILL_AREA_STYLE_COLOUR( '', #416 );
#371 = FILL_AREA_STYLE_COLOUR( '', #417 );
#372 = VERTEX_POINT( '', #418 );
#373 = CIRCLE( '', #419, 15.0000000000000 );
#374 = FILL_AREA_STYLE_COLOUR( '', #420 );
#375 = VERTEX_POINT( '', #421 );
#376 = CIRCLE( '', #422, 14.0000000000000 );
#377 = FILL_AREA_STYLE_COLOUR( '', #423 );
#378 = FILL_AREA_STYLE_COLOUR( '', #424 );
#379 = VERTEX_POINT( '', #425 );
#380 = CIRCLE( '', #426, 14.0000000000000 );
#381 = FILL_AREA_STYLE_COLOUR( '', #427 );
#382 = VERTEX_POINT( '', #428 );
#383 = CIRCLE( '', #429, 13.8500000000000 );
#384 = FILL_AREA_STYLE_COLOUR( '', #430 );
#385 = VERTEX_POINT( '', #431 );
#386 = CIRCLE( '', #432, 13.8500000000000 );
#387 = FILL_AREA_STYLE_COLOUR( '', #433 );
#388 = FILL_AREA_STYLE_COLOUR( '', #434 );
#389 = FILL_AREA_STYLE_COLOUR( '', #435 );
#390 = FILL_AREA_STYLE_COLOUR( '', #436 );
#391 = COLOUR_RGB( '', 0.689999997600000, 0.689999997600000, 0.689999997600000 );
#392 = CARTESIAN_POINT( '', ( 0.000000000000000, 0.000000000000000, -14.0000000000000 ) );
#393 = AXIS2_PLACEMENT_3D( '', #437, #438, #439 );
#394 = CARTESIAN_POINT( '', ( 0.000000000000000, 2.10000000000000, -14.0000000000000 ) );
#395 = AXIS2_PLACEMENT_3D( '', #440, #441, #442 );
#396 = COLOUR_RGB( '', 0.689999997600000, 0.689999997600000, 0.689999997600000 );
#397 = CARTESIAN_POINT( '', ( 0.000000000000000, 6.70000000000000, -13.8500000000000 ) );
#398 = AXIS2_PLACEMENT_3D( '', #443, #444, #445 );
#399 = CARTESIAN_POINT( '', ( 0.000000000000000, 6.70000000000000, -14.0000000000000 ) );
#400 = AXIS2_PLACEMENT_3D( '', #446, #447, #448 );
#401 = COLOUR_RGB( '', 0.689999997600000, 0.689999997600000, 0.689999997600000 );
#402 = CARTESIAN_POINT( '', ( 0.000000000000000, 12.8813175831873, -11.9982400000000 ) );
#403 = AXIS2_PLACEMENT_3D( '', #449, #450, #451 );
#404 = CARTESIAN_POINT( '', ( 0.000000000000000, 11.8800000000000, -10.0000000000000 ) );
#405 = AXIS2_PLACEMENT_3D( '', #452, #453, #454 );
#406 = COLOUR_RGB( '', 0.689999997600000, 0.689999997600000, 0.689999997600000 );
#407 = CARTESIAN_POINT( '', ( 0.000000000000000, 12.1000000000000, -15.0000000000000 ) );
#408 = AXIS2_PLACEMENT_3D( '', #455, #456, #457 );
#409 = CARTESIAN_POINT( '', ( 0.000000000000000, 12.9222403075870, -12.9100428529323 ) );
#410 = AXIS2_PLACEMENT_3D( '', #458, #459, #460 );
#411 = COLOUR_RGB( '', 0.689999997600000, 0.689999997600000, 0.689999997600000 );
#412 = CARTESIAN_POINT( '', ( 0.000000000000000, 6.20000000000000, -14.0000000000000 ) );
#413 = AXIS2_PLACEMENT_3D( '', #461, #462, #463 );
#414 = CARTESIAN_POINT( '', ( 0.000000000000000, 6.20000000000000, -13.8500000000000 ) );
#415 = AXIS2_PLACEMENT_3D( '', #464, #465, #466 );
#416 = COLOUR_RGB( '', 0.689999997600000, 0.689999997600000, 0.689999997600000 );
#417 = COLOUR_RGB( '', 0.689999997600000, 0.689999997600000, 0.689999997600000 );
#418 = CARTESIAN_POINT( '', ( 0.000000000000000, 10.0000000000000, -15.0000000000000 ) );
#419 = AXIS2_PLACEMENT_3D( '', #467, #468, #469 );
#420 = COLOUR_RGB( '', 0.689999997600000, 0.689999997600000, 0.689999997600000 );
#421 = CARTESIAN_POINT( '', ( 0.000000000000000, 2.60000000000000, -14.0000000000000 ) );
#422 = AXIS2_PLACEMENT_3D( '', #470, #471, #472 );
#423 = COLOUR_RGB( '', 0.689999997600000, 0.689999997600000, 0.689999997600000 );
#424 = COLOUR_RGB( '', 0.689999997600000, 0.689999997600000, 0.689999997600000 );
#425 = CARTESIAN_POINT( '', ( 0.000000000000000, 10.0000000000000, -14.0000000000000 ) );
#426 = AXIS2_PLACEMENT_3D( '', #473, #474, #475 );
#427 = COLOUR_RGB( '', 0.689999997600000, 0.689999997600000, 0.689999997600000 );
#428 = CARTESIAN_POINT( '', ( 0.000000000000000, 2.60000000000000, -13.8500000000000 ) );
#429 = AXIS2_PLACEMENT_3D( '', #476, #477, #478 );
#430 = COLOUR_RGB( '', 0.689999997600000, 0.689999997600000, 0.689999997600000 );
#431 = CARTESIAN_POINT( '', ( 0.000000000000000, 2.10000000000000, -13.8500000000000 ) );
#432 = AXIS2_PLACEMENT_3D( '', #479, #480, #481 );
#433 = COLOUR_RGB( '', 0.689999997600000, 0.689999997600000, 0.689999997600000 );
#434 = COLOUR_RGB( '', 0.689999997600000, 0.689999997600000, 0.689999997600000 );
#435 = COLOUR_RGB( '', 0.689999997600000, 0.689999997600000, 0.689999997600000 );
#436 = COLOUR_RGB( '', 0.689999997600000, 0.689999997600000, 0.689999997600000 );
#437 = CARTESIAN_POINT( '', ( 0.000000000000000, 0.000000000000000, 0.000000000000000 ) );
#438 = DIRECTION( '', ( 0.000000000000000, -1.00000000000000, -0.000000000000000 ) );
#439 = DIRECTION( '', ( 0.000000000000000, 0.000000000000000, -1.00000000000000 ) );
#440 = CARTESIAN_POINT( '', ( 0.000000000000000, 2.10000000000000, 0.000000000000000 ) );
#441 = DIRECTION( '', ( 0.000000000000000, -1.00000000000000, -0.000000000000000 ) );
#442 = DIRECTION( '', ( 0.000000000000000, 0.000000000000000, -1.00000000000000 ) );
#443 = CARTESIAN_POINT( '', ( 0.000000000000000, 6.70000000000000, 0.000000000000000 ) );
#444 = DIRECTION( '', ( 0.000000000000000, -1.00000000000000, -0.000000000000000 ) );
#445 = DIRECTION( '', ( 0.000000000000000, 0.000000000000000, -1.00000000000000 ) );
#446 = CARTESIAN_POINT( '', ( 0.000000000000000, 6.70000000000000, 0.000000000000000 ) );
#447 = DIRECTION( '', ( 0.000000000000000, -1.00000000000000, -0.000000000000000 ) );
#448 = DIRECTION( '', ( 0.000000000000000, 0.000000000000000, -1.00000000000000 ) );
#449 = CARTESIAN_POINT( '', ( 0.000000000000000, 12.8813175831873, 0.000000000000000 ) );
#450 = DIRECTION( '', ( 0.000000000000000, -1.00000000000000, -0.000000000000000 ) );
#451 = DIRECTION( '', ( 0.000000000000000, 0.000000000000000, -1.00000000000000 ) );
#452 = CARTESIAN_POINT( '', ( 0.000000000000000, 11.8800000000000, 0.000000000000000 ) );
#453 = DIRECTION( '', ( 0.000000000000000, -1.00000000000000, -0.000000000000000 ) );
#454 = DIRECTION( '', ( 0.000000000000000, 0.000000000000000, -1.00000000000000 ) );
#455 = CARTESIAN_POINT( '', ( 0.000000000000000, 12.1000000000000, 0.000000000000000 ) );
#456 = DIRECTION( '', ( 0.000000000000000, -1.00000000000000, -0.000000000000000 ) );
#457 = DIRECTION( '', ( 0.000000000000000, 0.000000000000000, -1.00000000000000 ) );
#458 = CARTESIAN_POINT( '', ( 0.000000000000000, 12.9222403075870, 0.000000000000000 ) );
#459 = DIRECTION( '', ( 0.000000000000000, -1.00000000000000, -0.000000000000000 ) );
#460 = DIRECTION( '', ( 0.000000000000000, 0.000000000000000, -1.00000000000000 ) );
#461 = CARTESIAN_POINT( '', ( 0.000000000000000, 6.20000000000000, 0.000000000000000 ) );
#462 = DIRECTION( '', ( 0.000000000000000, -1.00000000000000, -0.000000000000000 ) );
#463 = DIRECTION( '', ( 0.000000000000000, 0.000000000000000, -1.00000000000000 ) );
#464 = CARTESIAN_POINT( '', ( 0.000000000000000, 6.20000000000000, 0.000000000000000 ) );
#465 = DIRECTION( '', ( 0.000000000000000, -1.00000000000000, -0.000000000000000 ) );
#466 = DIRECTION( '', ( 0.000000000000000, 0.000000000000000, -1.00000000000000 ) );
#467 = CARTESIAN_POINT( '', ( 0.000000000000000, 10.0000000000000, 0.000000000000000 ) );
#468 = DIRECTION( '', ( 0.000000000000000, -1.00000000000000, -0.000000000000000 ) );
#469 = DIRECTION( '', ( 0.000000000000000, 0.000000000000000, -1.00000000000000 ) );
#470 = CARTESIAN_POINT( '', ( 0.000000000000000, 2.60000000000000, 0.000000000000000 ) );
#471 = DIRECTION( '', ( 0.000000000000000, -1.00000000000000, -0.000000000000000 ) );
#472 = DIRECTION( '', ( 0.000000000000000, 0.000000000000000, -1.00000000000000 ) );
#473 = CARTESIAN_POINT( '', ( 0.000000000000000, 10.0000000000000, 0.000000000000000 ) );
#474 = DIRECTION( '', ( 0.000000000000000, -1.00000000000000, -0.000000000000000 ) );
#475 = DIRECTION( '', ( 0.000000000000000, 0.000000000000000, -1.00000000000000 ) );
#476 = CARTESIAN_POINT( '', ( 0.000000000000000, 2.60000000000000, 0.000000000000000 ) );
#477 = DIRECTION( '', ( 0.000000000000000, -1.00000000000000, -0.000000000000000 ) );
#478 = DIRECTION( '', ( 0.000000000000000, 0.000000000000000, -1.00000000000000 ) );
#479 = CARTESIAN_POINT( '', ( 0.000000000000000, 2.10000000000000, 0.000000000000000 ) );
#480 = DIRECTION( '', ( 0.000000000000000, -1.00000000000000, -0.000000000000000 ) );
#481 = DIRECTION( '', ( 0.000000000000000, 0.000000000000000, -1.00000000000000 ) );
ENDSEC;
END-ISO-10303-21;
