ISO-10303-21;
HEADER;
FILE_DESCRIPTION( ( 'STEP AP214' ), '1' );
FILE_NAME( '//goodhand-server/Shared Folders/GoodHand Data/Kipp CAD/K0391/K0391.10X80.stp', '2020-12-07T10:17:38', ( '' ), ( '' ), ' ', 'PARTsolutions', ' ' );
FILE_SCHEMA( ( 'AUTOMOTIVE_DESIGN { 1 0 10303 214 1 1 1 1 }' ) );
ENDSEC;
DATA;
#1 = MECHANICAL_DESIGN_GEOMETRIC_PRESENTATION_REPRESENTATION( ' ', ( #10, #11, #12, #13, #14, #15, #16, #17, #18, #19, #20, #21, #22 ), #6 );
#2 = PRODUCT_DEFINITION_CONTEXT( '', #23, 'design' );
#3 = APPLICATION_PROTOCOL_DEFINITION( 'international standard', 'automotive_design', 2001, #23 );
#4 = PRODUCT_CATEGORY_RELATIONSHIP( 'NONE', 'NONE', #24, #25 );
#5 = SHAPE_DEFINITION_REPRESENTATION( #26, #27 );
#6 =  ( GEOMETRIC_REPRESENTATION_CONTEXT( 3 )GLOBAL_UNCERTAINTY_ASSIGNED_CONTEXT( ( #30 ) )GLOBAL_UNIT_ASSIGNED_CONTEXT( ( #32, #33, #34 ) )REPRESENTATION_CONTEXT( 'NONE', 'WORKSPACE' ) );
#10 = STYLED_ITEM( '', ( #36 ), #37 );
#11 = STYLED_ITEM( '', ( #38 ), #39 );
#12 = STYLED_ITEM( '', ( #40 ), #41 );
#13 = STYLED_ITEM( '', ( #42 ), #43 );
#14 = STYLED_ITEM( '', ( #44 ), #45 );
#15 = STYLED_ITEM( '', ( #46 ), #47 );
#16 = STYLED_ITEM( '', ( #48 ), #49 );
#17 = STYLED_ITEM( '', ( #50 ), #51 );
#18 = STYLED_ITEM( '', ( #52 ), #53 );
#19 = STYLED_ITEM( '', ( #54 ), #55 );
#20 = STYLED_ITEM( '', ( #56 ), #57 );
#21 = STYLED_ITEM( '', ( #58 ), #59 );
#22 = STYLED_ITEM( '', ( #60 ), #61 );
#23 = APPLICATION_CONTEXT( 'core data for automotive mechanical design processes' );
#24 = PRODUCT_CATEGORY( 'part', 'NONE' );
#25 = PRODUCT_RELATED_PRODUCT_CATEGORY( 'detail', ' ', ( #62 ) );
#26 = PRODUCT_DEFINITION_SHAPE( 'NONE', 'NONE', #63 );
#27 = ADVANCED_BREP_SHAPE_REPRESENTATION( '_K0391.10X80', ( #64, #65 ), #6 );
#30 = UNCERTAINTY_MEASURE_WITH_UNIT( LENGTH_MEASURE( 0.00100000000000000 ), #32, '', '' );
#32 =  ( CONVERSION_BASED_UNIT( 'MILLIMETRE', #68 )LENGTH_UNIT(  )NAMED_UNIT( #71 ) );
#33 =  ( NAMED_UNIT( #73 )PLANE_ANGLE_UNIT(  )SI_UNIT( $, .RADIAN. ) );
#34 =  ( NAMED_UNIT( #73 )SI_UNIT( $, .STERADIAN. )SOLID_ANGLE_UNIT(  ) );
#36 = PRESENTATION_STYLE_ASSIGNMENT( ( #79 ) );
#37 = ADVANCED_FACE( '', ( #80, #81 ), #82, .T. );
#38 = PRESENTATION_STYLE_ASSIGNMENT( ( #83 ) );
#39 = ADVANCED_FACE( '', ( #84, #85 ), #86, .T. );
#40 = PRESENTATION_STYLE_ASSIGNMENT( ( #87 ) );
#41 = ADVANCED_FACE( '', ( #88 ), #89, .T. );
#42 = PRESENTATION_STYLE_ASSIGNMENT( ( #90 ) );
#43 = ADVANCED_FACE( '', ( #91 ), #92, .F. );
#44 = PRESENTATION_STYLE_ASSIGNMENT( ( #93 ) );
#45 = ADVANCED_FACE( '', ( #94 ), #95, .T. );
#46 = PRESENTATION_STYLE_ASSIGNMENT( ( #96 ) );
#47 = ADVANCED_FACE( '', ( #97 ), #98, .T. );
#48 = PRESENTATION_STYLE_ASSIGNMENT( ( #99 ) );
#49 = ADVANCED_FACE( '', ( #100, #101 ), #102, .F. );
#50 = PRESENTATION_STYLE_ASSIGNMENT( ( #103 ) );
#51 = ADVANCED_FACE( '', ( #104 ), #105, .T. );
#52 = PRESENTATION_STYLE_ASSIGNMENT( ( #106 ) );
#53 = ADVANCED_FACE( '', ( #107, #108 ), #109, .T. );
#54 = PRESENTATION_STYLE_ASSIGNMENT( ( #110 ) );
#55 = ADVANCED_FACE( '', ( #111 ), #112, .T. );
#56 = PRESENTATION_STYLE_ASSIGNMENT( ( #113 ) );
#57 = ADVANCED_FACE( '', ( #114, #115 ), #116, .T. );
#58 = PRESENTATION_STYLE_ASSIGNMENT( ( #117 ) );
#59 = ADVANCED_FACE( '', ( #118, #119 ), #120, .T. );
#60 = PRESENTATION_STYLE_ASSIGNMENT( ( #121 ) );
#61 = ADVANCED_FACE( '', ( #122 ), #123, .T. );
#62 = PRODUCT( '_K0391.10X80', '_K0391.10X80', 'PART-_K0391.10X80-DESC', ( #124 ) );
#63 = PRODUCT_DEFINITION( 'NONE', 'NONE', #125, #2 );
#64 = MANIFOLD_SOLID_BREP( '_K0391.10X80', #126 );
#65 = AXIS2_PLACEMENT_3D( '', #127, #128, #129 );
#68 = LENGTH_MEASURE_WITH_UNIT( LENGTH_MEASURE( 1.00000000000000 ), #130 );
#71 = DIMENSIONAL_EXPONENTS( 1.00000000000000, 0.000000000000000, 0.000000000000000, 0.000000000000000, 0.000000000000000, 0.000000000000000, 0.000000000000000 );
#73 = DIMENSIONAL_EXPONENTS( 0.000000000000000, 0.000000000000000, 0.000000000000000, 0.000000000000000, 0.000000000000000, 0.000000000000000, 0.000000000000000 );
#79 = SURFACE_STYLE_USAGE( .BOTH., #131 );
#80 = FACE_BOUND( '', #132, .T. );
#81 = FACE_OUTER_BOUND( '', #133, .T. );
#82 = CONICAL_SURFACE( '', #134, 5.00000000000000, 0.771314587600000 );
#83 = SURFACE_STYLE_USAGE( .BOTH., #135 );
#84 = FACE_BOUND( '', #136, .T. );
#85 = FACE_OUTER_BOUND( '', #137, .T. );
#86 = SPHERICAL_SURFACE( '', #138, 4.00000000000000 );
#87 = SURFACE_STYLE_USAGE( .BOTH., #139 );
#88 = FACE_OUTER_BOUND( '', #140, .T. );
#89 = PLANE( '', #141 );
#90 = SURFACE_STYLE_USAGE( .BOTH., #142 );
#91 = FACE_OUTER_BOUND( '', #143, .T. );
#92 = PLANE( '', #144 );
#93 = SURFACE_STYLE_USAGE( .BOTH., #145 );
#94 = FACE_OUTER_BOUND( '', #146, .T. );
#95 = PLANE( '', #147 );
#96 = SURFACE_STYLE_USAGE( .BOTH., #148 );
#97 = FACE_OUTER_BOUND( '', #149, .T. );
#98 = PLANE( '', #150 );
#99 = SURFACE_STYLE_USAGE( .BOTH., #151 );
#100 = FACE_OUTER_BOUND( '', #152, .T. );
#101 = FACE_BOUND( '', #153, .T. );
#102 = PLANE( '', #154 );
#103 = SURFACE_STYLE_USAGE( .BOTH., #155 );
#104 = FACE_OUTER_BOUND( '', #156, .T. );
#105 = PLANE( '', #157 );
#106 = SURFACE_STYLE_USAGE( .BOTH., #158 );
#107 = FACE_OUTER_BOUND( '', #159, .T. );
#108 = FACE_BOUND( '', #160, .T. );
#109 = CONICAL_SURFACE( '', #161, 4.08000000000000, 0.785398163400000 );
#110 = SURFACE_STYLE_USAGE( .BOTH., #162 );
#111 = FACE_OUTER_BOUND( '', #163, .T. );
#112 = PLANE( '', #164 );
#113 = SURFACE_STYLE_USAGE( .BOTH., #165 );
#114 = FACE_OUTER_BOUND( '', #166, .T. );
#115 = FACE_OUTER_BOUND( '', #167, .T. );
#116 = CYLINDRICAL_SURFACE( '', #168, 5.00000000000000 );
#117 = SURFACE_STYLE_USAGE( .BOTH., #169 );
#118 = FACE_OUTER_BOUND( '', #170, .T. );
#119 = FACE_OUTER_BOUND( '', #171, .T. );
#120 = CYLINDRICAL_SURFACE( '', #172, 3.25000000000000 );
#121 = SURFACE_STYLE_USAGE( .BOTH., #173 );
#122 = FACE_OUTER_BOUND( '', #174, .T. );
#123 = PLANE( '', #175 );
#124 = PRODUCT_CONTEXT( '', #23, 'mechanical' );
#125 = PRODUCT_DEFINITION_FORMATION_WITH_SPECIFIED_SOURCE( ' ', 'NONE', #62, .NOT_KNOWN. );
#126 = CLOSED_SHELL( '', ( #53, #49, #61, #51, #41, #39, #59, #37, #57, #47, #45, #55, #43 ) );
#127 = CARTESIAN_POINT( '', ( 0.000000000000000, 0.000000000000000, 0.000000000000000 ) );
#128 = DIRECTION( '', ( 0.000000000000000, 0.000000000000000, 1.00000000000000 ) );
#129 = DIRECTION( '', ( 1.00000000000000, 0.000000000000000, 0.000000000000000 ) );
#130 =  ( LENGTH_UNIT(  )NAMED_UNIT( #71 )SI_UNIT( .MILLI., .METRE. ) );
#131 = SURFACE_SIDE_STYLE( '', ( #177 ) );
#132 = EDGE_LOOP( '', ( #178 ) );
#133 = EDGE_LOOP( '', ( #179 ) );
#134 = AXIS2_PLACEMENT_3D( '', #180, #181, #182 );
#135 = SURFACE_SIDE_STYLE( '', ( #183 ) );
#136 = VERTEX_LOOP( '', #184 );
#137 = EDGE_LOOP( '', ( #185 ) );
#138 = AXIS2_PLACEMENT_3D( '', #186, #187, #188 );
#139 = SURFACE_SIDE_STYLE( '', ( #189 ) );
#140 = EDGE_LOOP( '', ( #190, #191, #192, #193 ) );
#141 = AXIS2_PLACEMENT_3D( '', #194, #195, #196 );
#142 = SURFACE_SIDE_STYLE( '', ( #197 ) );
#143 = EDGE_LOOP( '', ( #198, #199, #200, #201, #202, #203 ) );
#144 = AXIS2_PLACEMENT_3D( '', #204, #205, #206 );
#145 = SURFACE_SIDE_STYLE( '', ( #207 ) );
#146 = EDGE_LOOP( '', ( #208, #209, #210, #211 ) );
#147 = AXIS2_PLACEMENT_3D( '', #212, #213, #214 );
#148 = SURFACE_SIDE_STYLE( '', ( #215 ) );
#149 = EDGE_LOOP( '', ( #216, #217, #218, #219 ) );
#150 = AXIS2_PLACEMENT_3D( '', #220, #221, #222 );
#151 = SURFACE_SIDE_STYLE( '', ( #223 ) );
#152 = EDGE_LOOP( '', ( #224 ) );
#153 = EDGE_LOOP( '', ( #225, #226, #227, #228, #229, #230 ) );
#154 = AXIS2_PLACEMENT_3D( '', #231, #232, #233 );
#155 = SURFACE_SIDE_STYLE( '', ( #234 ) );
#156 = EDGE_LOOP( '', ( #235, #236, #237, #238 ) );
#157 = AXIS2_PLACEMENT_3D( '', #239, #240, #241 );
#158 = SURFACE_SIDE_STYLE( '', ( #242 ) );
#159 = EDGE_LOOP( '', ( #243 ) );
#160 = EDGE_LOOP( '', ( #244 ) );
#161 = AXIS2_PLACEMENT_3D( '', #245, #246, #247 );
#162 = SURFACE_SIDE_STYLE( '', ( #248 ) );
#163 = EDGE_LOOP( '', ( #249, #250, #251, #252 ) );
#164 = AXIS2_PLACEMENT_3D( '', #253, #254, #255 );
#165 = SURFACE_SIDE_STYLE( '', ( #256 ) );
#166 = EDGE_LOOP( '', ( #257 ) );
#167 = EDGE_LOOP( '', ( #258 ) );
#168 = AXIS2_PLACEMENT_3D( '', #259, #260, #261 );
#169 = SURFACE_SIDE_STYLE( '', ( #262 ) );
#170 = EDGE_LOOP( '', ( #263 ) );
#171 = EDGE_LOOP( '', ( #264 ) );
#172 = AXIS2_PLACEMENT_3D( '', #265, #266, #267 );
#173 = SURFACE_SIDE_STYLE( '', ( #268 ) );
#174 = EDGE_LOOP( '', ( #269, #270, #271, #272 ) );
#175 = AXIS2_PLACEMENT_3D( '', #273, #274, #275 );
#177 = SURFACE_STYLE_FILL_AREA( #276 );
#178 = ORIENTED_EDGE( '', *, *, #277, .F. );
#179 = ORIENTED_EDGE( '', *, *, #278, .T. );
#180 = CARTESIAN_POINT( '', ( 71.0000000000000, 0.000000000000000, 0.000000000000000 ) );
#181 = DIRECTION( '', ( -1.00000000000000, 0.000000000000000, -0.000000000000000 ) );
#182 = DIRECTION( '', ( 0.000000000000000, 0.000000000000000, 1.00000000000000 ) );
#183 = SURFACE_STYLE_FILL_AREA( #279 );
#184 = VERTEX_POINT( '', #280 );
#185 = ORIENTED_EDGE( '', *, *, #281, .T. );
#186 = CARTESIAN_POINT( '', ( 76.0000000000000, -9.54097911787244E-15, 0.000000000000000 ) );
#187 = DIRECTION( '', ( 1.00000000000000, 0.000000000000000, 0.000000000000000 ) );
#188 = DIRECTION( '', ( 0.000000000000000, 1.00000000000000, 0.000000000000000 ) );
#189 = SURFACE_STYLE_FILL_AREA( #282 );
#190 = ORIENTED_EDGE( '', *, *, #283, .F. );
#191 = ORIENTED_EDGE( '', *, *, #284, .F. );
#192 = ORIENTED_EDGE( '', *, *, #285, .T. );
#193 = ORIENTED_EDGE( '', *, *, #286, .T. );
#194 = CARTESIAN_POINT( '', ( 5.00000000000000, 1.44337567297406, 2.50000000000000 ) );
#195 = DIRECTION( '', ( 0.000000000000000, 0.000000000000000, -1.00000000000000 ) );
#196 = DIRECTION( '', ( -1.00000000000000, 0.000000000000000, 0.000000000000000 ) );
#197 = SURFACE_STYLE_FILL_AREA( #287 );
#198 = ORIENTED_EDGE( '', *, *, #285, .F. );
#199 = ORIENTED_EDGE( '', *, *, #288, .F. );
#200 = ORIENTED_EDGE( '', *, *, #289, .F. );
#201 = ORIENTED_EDGE( '', *, *, #290, .F. );
#202 = ORIENTED_EDGE( '', *, *, #291, .F. );
#203 = ORIENTED_EDGE( '', *, *, #292, .F. );
#204 = CARTESIAN_POINT( '', ( 5.00000000000000, 0.000000000000000, 0.000000000000000 ) );
#205 = DIRECTION( '', ( 1.00000000000000, 0.000000000000000, 0.000000000000000 ) );
#206 = DIRECTION( '', ( 0.000000000000000, 0.000000000000000, -1.00000000000000 ) );
#207 = SURFACE_STYLE_FILL_AREA( #293 );
#208 = ORIENTED_EDGE( '', *, *, #294, .F. );
#209 = ORIENTED_EDGE( '', *, *, #295, .F. );
#210 = ORIENTED_EDGE( '', *, *, #289, .T. );
#211 = ORIENTED_EDGE( '', *, *, #296, .T. );
#212 = CARTESIAN_POINT( '', ( 5.00000000000000, 1.44337567297406, -2.50000000000000 ) );
#213 = DIRECTION( '', ( 0.000000000000000, -0.866025403784439, 0.500000000000000 ) );
#214 = DIRECTION( '', ( 0.000000000000000, -0.500000000000000, -0.866025403784439 ) );
#215 = SURFACE_STYLE_FILL_AREA( #297 );
#216 = ORIENTED_EDGE( '', *, *, #298, .F. );
#217 = ORIENTED_EDGE( '', *, *, #299, .F. );
#218 = ORIENTED_EDGE( '', *, *, #290, .T. );
#219 = ORIENTED_EDGE( '', *, *, #295, .T. );
#220 = CARTESIAN_POINT( '', ( 5.00000000000000, -1.44337567297406, -2.50000000000000 ) );
#221 = DIRECTION( '', ( 0.000000000000000, 0.000000000000000, 1.00000000000000 ) );
#222 = DIRECTION( '', ( 1.00000000000000, 0.000000000000000, -0.000000000000000 ) );
#223 = SURFACE_STYLE_FILL_AREA( #300 );
#224 = ORIENTED_EDGE( '', *, *, #301, .F. );
#225 = ORIENTED_EDGE( '', *, *, #283, .T. );
#226 = ORIENTED_EDGE( '', *, *, #302, .T. );
#227 = ORIENTED_EDGE( '', *, *, #303, .T. );
#228 = ORIENTED_EDGE( '', *, *, #298, .T. );
#229 = ORIENTED_EDGE( '', *, *, #294, .T. );
#230 = ORIENTED_EDGE( '', *, *, #304, .T. );
#231 = CARTESIAN_POINT( '', ( 0.000000000000000, 0.000000000000000, 0.000000000000000 ) );
#232 = DIRECTION( '', ( 1.00000000000000, 0.000000000000000, -0.000000000000000 ) );
#233 = DIRECTION( '', ( -0.000000000000000, 0.000000000000000, -1.00000000000000 ) );
#234 = SURFACE_STYLE_FILL_AREA( #305 );
#235 = ORIENTED_EDGE( '', *, *, #303, .F. );
#236 = ORIENTED_EDGE( '', *, *, #306, .F. );
#237 = ORIENTED_EDGE( '', *, *, #291, .T. );
#238 = ORIENTED_EDGE( '', *, *, #299, .T. );
#239 = CARTESIAN_POINT( '', ( 5.00000000000000, -2.88675134594813, 0.000000000000000 ) );
#240 = DIRECTION( '', ( -0.000000000000000, 0.866025403784439, 0.500000000000000 ) );
#241 = DIRECTION( '', ( 0.000000000000000, -0.500000000000000, 0.866025403784439 ) );
#242 = SURFACE_STYLE_FILL_AREA( #307 );
#243 = ORIENTED_EDGE( '', *, *, #308, .F. );
#244 = ORIENTED_EDGE( '', *, *, #301, .T. );
#245 = CARTESIAN_POINT( '', ( 0.000000000000000, 0.000000000000000, 0.000000000000000 ) );
#246 = DIRECTION( '', ( 1.00000000000000, -0.000000000000000, -0.000000000000000 ) );
#247 = DIRECTION( '', ( -0.000000000000000, 0.000000000000000, -1.00000000000000 ) );
#248 = SURFACE_STYLE_FILL_AREA( #309 );
#249 = ORIENTED_EDGE( '', *, *, #304, .F. );
#250 = ORIENTED_EDGE( '', *, *, #296, .F. );
#251 = ORIENTED_EDGE( '', *, *, #288, .T. );
#252 = ORIENTED_EDGE( '', *, *, #284, .T. );
#253 = CARTESIAN_POINT( '', ( 5.00000000000000, 2.88675134594813, 0.000000000000000 ) );
#254 = DIRECTION( '', ( 0.000000000000000, -0.866025403784439, -0.500000000000000 ) );
#255 = DIRECTION( '', ( 0.000000000000000, 0.500000000000000, -0.866025403784439 ) );
#256 = SURFACE_STYLE_FILL_AREA( #310 );
#257 = ORIENTED_EDGE( '', *, *, #278, .F. );
#258 = ORIENTED_EDGE( '', *, *, #308, .T. );
#259 = CARTESIAN_POINT( '', ( 80.0000000000000, 0.000000000000000, 0.000000000000000 ) );
#260 = DIRECTION( '', ( -1.00000000000000, -0.000000000000000, 0.000000000000000 ) );
#261 = DIRECTION( '', ( -0.000000000000000, 0.000000000000000, -1.00000000000000 ) );
#262 = SURFACE_STYLE_FILL_AREA( #311 );
#263 = ORIENTED_EDGE( '', *, *, #281, .F. );
#264 = ORIENTED_EDGE( '', *, *, #277, .T. );
#265 = CARTESIAN_POINT( '', ( 80.0000000000000, 0.000000000000000, 0.000000000000000 ) );
#266 = DIRECTION( '', ( -1.00000000000000, -0.000000000000000, 0.000000000000000 ) );
#267 = DIRECTION( '', ( -0.000000000000000, 0.000000000000000, -1.00000000000000 ) );
#268 = SURFACE_STYLE_FILL_AREA( #312 );
#269 = ORIENTED_EDGE( '', *, *, #302, .F. );
#270 = ORIENTED_EDGE( '', *, *, #286, .F. );
#271 = ORIENTED_EDGE( '', *, *, #292, .T. );
#272 = ORIENTED_EDGE( '', *, *, #306, .T. );
#273 = CARTESIAN_POINT( '', ( 5.00000000000000, -1.44337567297406, 2.50000000000000 ) );
#274 = DIRECTION( '', ( 0.000000000000000, 0.866025403784439, -0.500000000000000 ) );
#275 = DIRECTION( '', ( 0.000000000000000, 0.500000000000000, 0.866025403784439 ) );
#276 = FILL_AREA_STYLE( '', ( #313 ) );
#277 = EDGE_CURVE( '', #314, #314, #315, .T. );
#278 = EDGE_CURVE( '', #316, #316, #317, .T. );
#279 = FILL_AREA_STYLE( '', ( #318 ) );
#280 = CARTESIAN_POINT( '', ( 80.0000000000000, -9.29604975804297E-15, 0.000000000000000 ) );
#281 = EDGE_CURVE( '', #319, #319, #320, .T. );
#282 = FILL_AREA_STYLE( '', ( #321 ) );
#283 = EDGE_CURVE( '', #322, #323, #324, .T. );
#284 = EDGE_CURVE( '', #325, #322, #326, .T. );
#285 = EDGE_CURVE( '', #325, #327, #328, .T. );
#286 = EDGE_CURVE( '', #327, #323, #329, .T. );
#287 = FILL_AREA_STYLE( '', ( #330 ) );
#288 = EDGE_CURVE( '', #331, #325, #332, .T. );
#289 = EDGE_CURVE( '', #333, #331, #334, .T. );
#290 = EDGE_CURVE( '', #335, #333, #336, .T. );
#291 = EDGE_CURVE( '', #337, #335, #338, .T. );
#292 = EDGE_CURVE( '', #327, #337, #339, .T. );
#293 = FILL_AREA_STYLE( '', ( #340 ) );
#294 = EDGE_CURVE( '', #341, #342, #343, .T. );
#295 = EDGE_CURVE( '', #333, #341, #344, .T. );
#296 = EDGE_CURVE( '', #331, #342, #345, .T. );
#297 = FILL_AREA_STYLE( '', ( #346 ) );
#298 = EDGE_CURVE( '', #347, #341, #348, .T. );
#299 = EDGE_CURVE( '', #335, #347, #349, .T. );
#300 = FILL_AREA_STYLE( '', ( #350 ) );
#301 = EDGE_CURVE( '', #351, #351, #352, .T. );
#302 = EDGE_CURVE( '', #323, #353, #354, .T. );
#303 = EDGE_CURVE( '', #353, #347, #355, .T. );
#304 = EDGE_CURVE( '', #342, #322, #356, .T. );
#305 = FILL_AREA_STYLE( '', ( #357 ) );
#306 = EDGE_CURVE( '', #337, #353, #358, .T. );
#307 = FILL_AREA_STYLE( '', ( #359 ) );
#308 = EDGE_CURVE( '', #360, #360, #361, .T. );
#309 = FILL_AREA_STYLE( '', ( #362 ) );
#310 = FILL_AREA_STYLE( '', ( #363 ) );
#311 = FILL_AREA_STYLE( '', ( #364 ) );
#312 = FILL_AREA_STYLE( '', ( #365 ) );
#313 = FILL_AREA_STYLE_COLOUR( '', #366 );
#314 = VERTEX_POINT( '', #367 );
#315 = CIRCLE( '', #368, 3.25000000000000 );
#316 = VERTEX_POINT( '', #369 );
#317 = CIRCLE( '', #370, 5.00000000000000 );
#318 = FILL_AREA_STYLE_COLOUR( '', #371 );
#319 = VERTEX_POINT( '', #372 );
#320 = CIRCLE( '', #373, 3.25000000000000 );
#321 = FILL_AREA_STYLE_COLOUR( '', #374 );
#322 = VERTEX_POINT( '', #375 );
#323 = VERTEX_POINT( '', #376 );
#324 = LINE( '', #377, #378 );
#325 = VERTEX_POINT( '', #379 );
#326 = LINE( '', #380, #381 );
#327 = VERTEX_POINT( '', #382 );
#328 = LINE( '', #383, #384 );
#329 = LINE( '', #385, #386 );
#330 = FILL_AREA_STYLE_COLOUR( '', #387 );
#331 = VERTEX_POINT( '', #388 );
#332 = LINE( '', #389, #390 );
#333 = VERTEX_POINT( '', #391 );
#334 = LINE( '', #392, #393 );
#335 = VERTEX_POINT( '', #394 );
#336 = LINE( '', #395, #396 );
#337 = VERTEX_POINT( '', #397 );
#338 = LINE( '', #398, #399 );
#339 = LINE( '', #400, #401 );
#340 = FILL_AREA_STYLE_COLOUR( '', #402 );
#341 = VERTEX_POINT( '', #403 );
#342 = VERTEX_POINT( '', #404 );
#343 = LINE( '', #405, #406 );
#344 = LINE( '', #407, #408 );
#345 = LINE( '', #409, #410 );
#346 = FILL_AREA_STYLE_COLOUR( '', #411 );
#347 = VERTEX_POINT( '', #412 );
#348 = LINE( '', #413, #414 );
#349 = LINE( '', #415, #416 );
#350 = FILL_AREA_STYLE_COLOUR( '', #417 );
#351 = VERTEX_POINT( '', #418 );
#352 = CIRCLE( '', #419, 4.08000000000000 );
#353 = VERTEX_POINT( '', #420 );
#354 = LINE( '', #421, #422 );
#355 = LINE( '', #423, #424 );
#356 = LINE( '', #425, #426 );
#357 = FILL_AREA_STYLE_COLOUR( '', #427 );
#358 = LINE( '', #428, #429 );
#359 = FILL_AREA_STYLE_COLOUR( '', #430 );
#360 = VERTEX_POINT( '', #431 );
#361 = CIRCLE( '', #432, 5.00000000000000 );
#362 = FILL_AREA_STYLE_COLOUR( '', #433 );
#363 = FILL_AREA_STYLE_COLOUR( '', #434 );
#364 = FILL_AREA_STYLE_COLOUR( '', #435 );
#365 = FILL_AREA_STYLE_COLOUR( '', #436 );
#366 = COLOUR_RGB( '', 0.689999997600000, 0.689999997600000, 0.689999997600000 );
#367 = CARTESIAN_POINT( '', ( 72.8000000000000, 0.000000000000000, -3.25000000000000 ) );
#368 = AXIS2_PLACEMENT_3D( '', #437, #438, #439 );
#369 = CARTESIAN_POINT( '', ( 71.0000000000000, 0.000000000000000, -5.00000000000001 ) );
#370 = AXIS2_PLACEMENT_3D( '', #440, #441, #442 );
#371 = COLOUR_RGB( '', 0.689999997600000, 0.689999997600000, 0.689999997600000 );
#372 = CARTESIAN_POINT( '', ( 73.6681552367278, 0.000000000000000, -3.25000000000000 ) );
#373 = AXIS2_PLACEMENT_3D( '', #443, #444, #445 );
#374 = COLOUR_RGB( '', 0.689999997600000, 0.689999997600000, 0.689999997600000 );
#375 = CARTESIAN_POINT( '', ( 0.000000000000000, 1.44337567297406, 2.50000000000000 ) );
#376 = CARTESIAN_POINT( '', ( 0.000000000000000, -1.44337567297406, 2.50000000000000 ) );
#377 = CARTESIAN_POINT( '', ( 0.000000000000000, 1.44337567297406, 2.50000000000000 ) );
#378 = VECTOR( '', #446, 1000.00000000000 );
#379 = CARTESIAN_POINT( '', ( 5.00000000000000, 1.44337567297406, 2.50000000000000 ) );
#380 = CARTESIAN_POINT( '', ( 5.00000000000000, 1.44337567297406, 2.50000000000000 ) );
#381 = VECTOR( '', #447, 1000.00000000000 );
#382 = CARTESIAN_POINT( '', ( 5.00000000000000, -1.44337567297406, 2.50000000000000 ) );
#383 = CARTESIAN_POINT( '', ( 5.00000000000000, 1.44337567297406, 2.50000000000000 ) );
#384 = VECTOR( '', #448, 1000.00000000000 );
#385 = CARTESIAN_POINT( '', ( 5.00000000000000, -1.44337567297406, 2.50000000000000 ) );
#386 = VECTOR( '', #449, 1000.00000000000 );
#387 = COLOUR_RGB( '', 0.689999997600000, 0.689999997600000, 0.689999997600000 );
#388 = CARTESIAN_POINT( '', ( 5.00000000000000, 2.88675134594813, 0.000000000000000 ) );
#389 = CARTESIAN_POINT( '', ( 5.00000000000000, 2.88675134594813, 0.000000000000000 ) );
#390 = VECTOR( '', #450, 1000.00000000000 );
#391 = CARTESIAN_POINT( '', ( 5.00000000000000, 1.44337567297406, -2.50000000000000 ) );
#392 = CARTESIAN_POINT( '', ( 5.00000000000000, 1.44337567297406, -2.50000000000000 ) );
#393 = VECTOR( '', #451, 1000.00000000000 );
#394 = CARTESIAN_POINT( '', ( 5.00000000000000, -1.44337567297406, -2.50000000000000 ) );
#395 = CARTESIAN_POINT( '', ( 5.00000000000000, -1.44337567297406, -2.50000000000000 ) );
#396 = VECTOR( '', #452, 1000.00000000000 );
#397 = CARTESIAN_POINT( '', ( 5.00000000000000, -2.88675134594813, 0.000000000000000 ) );
#398 = CARTESIAN_POINT( '', ( 5.00000000000000, -2.88675134594813, 0.000000000000000 ) );
#399 = VECTOR( '', #453, 1000.00000000000 );
#400 = CARTESIAN_POINT( '', ( 5.00000000000000, -1.44337567297406, 2.50000000000000 ) );
#401 = VECTOR( '', #454, 1000.00000000000 );
#402 = COLOUR_RGB( '', 0.689999997600000, 0.689999997600000, 0.689999997600000 );
#403 = CARTESIAN_POINT( '', ( 0.000000000000000, 1.44337567297406, -2.50000000000000 ) );
#404 = CARTESIAN_POINT( '', ( 0.000000000000000, 2.88675134594813, 0.000000000000000 ) );
#405 = CARTESIAN_POINT( '', ( 0.000000000000000, 1.44337567297406, -2.50000000000000 ) );
#406 = VECTOR( '', #455, 1000.00000000000 );
#407 = CARTESIAN_POINT( '', ( 5.00000000000000, 1.44337567297406, -2.50000000000000 ) );
#408 = VECTOR( '', #456, 1000.00000000000 );
#409 = CARTESIAN_POINT( '', ( 5.00000000000000, 2.88675134594813, 0.000000000000000 ) );
#410 = VECTOR( '', #457, 1000.00000000000 );
#411 = COLOUR_RGB( '', 0.689999997600000, 0.689999997600000, 0.689999997600000 );
#412 = CARTESIAN_POINT( '', ( 0.000000000000000, -1.44337567297406, -2.50000000000000 ) );
#413 = CARTESIAN_POINT( '', ( 0.000000000000000, -1.44337567297406, -2.50000000000000 ) );
#414 = VECTOR( '', #458, 1000.00000000000 );
#415 = CARTESIAN_POINT( '', ( 5.00000000000000, -1.44337567297406, -2.50000000000000 ) );
#416 = VECTOR( '', #459, 1000.00000000000 );
#417 = COLOUR_RGB( '', 0.689999997600000, 0.689999997600000, 0.689999997600000 );
#418 = CARTESIAN_POINT( '', ( 0.000000000000000, 0.000000000000000, -4.08000000000000 ) );
#419 = AXIS2_PLACEMENT_3D( '', #460, #461, #462 );
#420 = CARTESIAN_POINT( '', ( 0.000000000000000, -2.88675134594813, 0.000000000000000 ) );
#421 = CARTESIAN_POINT( '', ( 0.000000000000000, -1.44337567297406, 2.50000000000000 ) );
#422 = VECTOR( '', #463, 1000.00000000000 );
#423 = CARTESIAN_POINT( '', ( 0.000000000000000, -2.88675134594813, 0.000000000000000 ) );
#424 = VECTOR( '', #464, 1000.00000000000 );
#425 = CARTESIAN_POINT( '', ( 0.000000000000000, 2.88675134594813, 0.000000000000000 ) );
#426 = VECTOR( '', #465, 1000.00000000000 );
#427 = COLOUR_RGB( '', 0.689999997600000, 0.689999997600000, 0.689999997600000 );
#428 = CARTESIAN_POINT( '', ( 5.00000000000000, -2.88675134594813, 0.000000000000000 ) );
#429 = VECTOR( '', #466, 1000.00000000000 );
#430 = COLOUR_RGB( '', 0.689999997600000, 0.689999997600000, 0.689999997600000 );
#431 = CARTESIAN_POINT( '', ( 0.920000000000004, 0.000000000000000, -5.00000000000001 ) );
#432 = AXIS2_PLACEMENT_3D( '', #467, #468, #469 );
#433 = COLOUR_RGB( '', 0.689999997600000, 0.689999997600000, 0.689999997600000 );
#434 = COLOUR_RGB( '', 0.689999997600000, 0.689999997600000, 0.689999997600000 );
#435 = COLOUR_RGB( '', 0.689999997600000, 0.689999997600000, 0.689999997600000 );
#436 = COLOUR_RGB( '', 0.689999997600000, 0.689999997600000, 0.689999997600000 );
#437 = CARTESIAN_POINT( '', ( 72.8000000000000, 0.000000000000000, 0.000000000000000 ) );
#438 = DIRECTION( '', ( 1.00000000000000, 0.000000000000000, -0.000000000000000 ) );
#439 = DIRECTION( '', ( -0.000000000000000, 0.000000000000000, -1.00000000000000 ) );
#440 = CARTESIAN_POINT( '', ( 71.0000000000000, 0.000000000000000, 0.000000000000000 ) );
#441 = DIRECTION( '', ( 1.00000000000000, 0.000000000000000, -0.000000000000000 ) );
#442 = DIRECTION( '', ( -0.000000000000000, 0.000000000000000, -1.00000000000000 ) );
#443 = CARTESIAN_POINT( '', ( 73.6681552367278, 0.000000000000000, 0.000000000000000 ) );
#444 = DIRECTION( '', ( 1.00000000000000, 0.000000000000000, -0.000000000000000 ) );
#445 = DIRECTION( '', ( -0.000000000000000, 0.000000000000000, -1.00000000000000 ) );
#446 = DIRECTION( '', ( 0.000000000000000, -1.00000000000000, 0.000000000000000 ) );
#447 = DIRECTION( '', ( -1.00000000000000, -0.000000000000000, -0.000000000000000 ) );
#448 = DIRECTION( '', ( 0.000000000000000, -1.00000000000000, 0.000000000000000 ) );
#449 = DIRECTION( '', ( -1.00000000000000, -0.000000000000000, -0.000000000000000 ) );
#450 = DIRECTION( '', ( 0.000000000000000, -0.500000000000000, 0.866025403784439 ) );
#451 = DIRECTION( '', ( 0.000000000000000, 0.500000000000000, 0.866025403784439 ) );
#452 = DIRECTION( '', ( 0.000000000000000, 1.00000000000000, 0.000000000000000 ) );
#453 = DIRECTION( '', ( 0.000000000000000, 0.500000000000000, -0.866025403784439 ) );
#454 = DIRECTION( '', ( 0.000000000000000, -0.500000000000000, -0.866025403784439 ) );
#455 = DIRECTION( '', ( 0.000000000000000, 0.500000000000000, 0.866025403784439 ) );
#456 = DIRECTION( '', ( -1.00000000000000, -0.000000000000000, -0.000000000000000 ) );
#457 = DIRECTION( '', ( -1.00000000000000, -0.000000000000000, -0.000000000000000 ) );
#458 = DIRECTION( '', ( 0.000000000000000, 1.00000000000000, 0.000000000000000 ) );
#459 = DIRECTION( '', ( -1.00000000000000, -0.000000000000000, -0.000000000000000 ) );
#460 = CARTESIAN_POINT( '', ( 0.000000000000000, 0.000000000000000, 0.000000000000000 ) );
#461 = DIRECTION( '', ( 1.00000000000000, 0.000000000000000, -0.000000000000000 ) );
#462 = DIRECTION( '', ( -0.000000000000000, 0.000000000000000, -1.00000000000000 ) );
#463 = DIRECTION( '', ( 0.000000000000000, -0.500000000000000, -0.866025403784439 ) );
#464 = DIRECTION( '', ( 0.000000000000000, 0.500000000000000, -0.866025403784439 ) );
#465 = DIRECTION( '', ( 0.000000000000000, -0.500000000000000, 0.866025403784439 ) );
#466 = DIRECTION( '', ( -1.00000000000000, -0.000000000000000, -0.000000000000000 ) );
#467 = CARTESIAN_POINT( '', ( 0.920000000000004, 0.000000000000000, 0.000000000000000 ) );
#468 = DIRECTION( '', ( 1.00000000000000, 0.000000000000000, -0.000000000000000 ) );
#469 = DIRECTION( '', ( -0.000000000000000, 0.000000000000000, -1.00000000000000 ) );
ENDSEC;
END-ISO-10303-21;
