ISO-10303-21;
HEADER;
FILE_DESCRIPTION( ( 'STEP AP214' ), '1' );
FILE_NAME( '//goodhand-server/Shared Folders/GoodHand Data/Kipp CAD/K1129/K1129.10100.stp', '2020-12-10T10:17:06', ( '' ), ( '' ), ' ', 'PARTsolutions', ' ' );
FILE_SCHEMA( ( 'AUTOMOTIVE_DESIGN { 1 0 10303 214 1 1 1 1 }' ) );
ENDSEC;
DATA;
#1 = MECHANICAL_DESIGN_GEOMETRIC_PRESENTATION_REPRESENTATION( ' ', ( #10, #11, #12, #13, #14, #15, #16, #17, #18, #19, #20, #21 ), #6 );
#2 = PRODUCT_DEFINITION_CONTEXT( '', #22, 'design' );
#3 = APPLICATION_PROTOCOL_DEFINITION( 'international standard', 'automotive_design', 2001, #22 );
#4 = PRODUCT_CATEGORY_RELATIONSHIP( 'NONE', 'NONE', #23, #24 );
#5 = SHAPE_DEFINITION_REPRESENTATION( #25, #26 );
#6 =  ( GEOMETRIC_REPRESENTATION_CONTEXT( 3 )GLOBAL_UNCERTAINTY_ASSIGNED_CONTEXT( ( #29 ) )GLOBAL_UNIT_ASSIGNED_CONTEXT( ( #31, #32, #33 ) )REPRESENTATION_CONTEXT( 'NONE', 'WORKSPACE' ) );
#10 = STYLED_ITEM( '', ( #35 ), #36 );
#11 = STYLED_ITEM( '', ( #37 ), #38 );
#12 = STYLED_ITEM( '', ( #39 ), #40 );
#13 = STYLED_ITEM( '', ( #41 ), #42 );
#14 = STYLED_ITEM( '', ( #43 ), #44 );
#15 = STYLED_ITEM( '', ( #45 ), #46 );
#16 = STYLED_ITEM( '', ( #47 ), #48 );
#17 = STYLED_ITEM( '', ( #49 ), #50 );
#18 = STYLED_ITEM( '', ( #51 ), #52 );
#19 = STYLED_ITEM( '', ( #53 ), #54 );
#20 = STYLED_ITEM( '', ( #55 ), #56 );
#21 = STYLED_ITEM( '', ( #57 ), #58 );
#22 = APPLICATION_CONTEXT( 'core data for automotive mechanical design processes' );
#23 = PRODUCT_CATEGORY( 'part', 'NONE' );
#24 = PRODUCT_RELATED_PRODUCT_CATEGORY( 'detail', ' ', ( #59 ) );
#25 = PRODUCT_DEFINITION_SHAPE( 'NONE', 'NONE', #60 );
#26 = ADVANCED_BREP_SHAPE_REPRESENTATION( '_K1129.10100', ( #61, #62 ), #6 );
#29 = UNCERTAINTY_MEASURE_WITH_UNIT( LENGTH_MEASURE( 0.00100000000000000 ), #31, '', '' );
#31 =  ( CONVERSION_BASED_UNIT( 'MILLIMETRE', #65 )LENGTH_UNIT(  )NAMED_UNIT( #68 ) );
#32 =  ( NAMED_UNIT( #70 )PLANE_ANGLE_UNIT(  )SI_UNIT( $, .RADIAN. ) );
#33 =  ( NAMED_UNIT( #70 )SI_UNIT( $, .STERADIAN. )SOLID_ANGLE_UNIT(  ) );
#35 = PRESENTATION_STYLE_ASSIGNMENT( ( #76 ) );
#36 = ADVANCED_FACE( '', ( #77 ), #78, .F. );
#37 = PRESENTATION_STYLE_ASSIGNMENT( ( #79 ) );
#38 = ADVANCED_FACE( '', ( #80, #81 ), #82, .T. );
#39 = PRESENTATION_STYLE_ASSIGNMENT( ( #83 ) );
#40 = ADVANCED_FACE( '', ( #84 ), #85, .T. );
#41 = PRESENTATION_STYLE_ASSIGNMENT( ( #86 ) );
#42 = ADVANCED_FACE( '', ( #87 ), #88, .F. );
#43 = PRESENTATION_STYLE_ASSIGNMENT( ( #89 ) );
#44 = ADVANCED_FACE( '', ( #90, #91 ), #92, .T. );
#45 = PRESENTATION_STYLE_ASSIGNMENT( ( #93 ) );
#46 = ADVANCED_FACE( '', ( #94 ), #95, .T. );
#47 = PRESENTATION_STYLE_ASSIGNMENT( ( #96 ) );
#48 = ADVANCED_FACE( '', ( #97 ), #98, .T. );
#49 = PRESENTATION_STYLE_ASSIGNMENT( ( #99 ) );
#50 = ADVANCED_FACE( '', ( #100 ), #101, .T. );
#51 = PRESENTATION_STYLE_ASSIGNMENT( ( #102 ) );
#52 = ADVANCED_FACE( '', ( #103, #104 ), #105, .T. );
#53 = PRESENTATION_STYLE_ASSIGNMENT( ( #106 ) );
#54 = ADVANCED_FACE( '', ( #107, #108 ), #109, .F. );
#55 = PRESENTATION_STYLE_ASSIGNMENT( ( #110 ) );
#56 = ADVANCED_FACE( '', ( #111 ), #112, .T. );
#57 = PRESENTATION_STYLE_ASSIGNMENT( ( #113 ) );
#58 = ADVANCED_FACE( '', ( #114 ), #115, .T. );
#59 = PRODUCT( '_K1129.10100', '_K1129.10100', 'PART-_K1129.10100-DESC', ( #116 ) );
#60 = PRODUCT_DEFINITION( 'NONE', 'NONE', #117, #2 );
#61 = MANIFOLD_SOLID_BREP( '_K1129.10100', #118 );
#62 = AXIS2_PLACEMENT_3D( '', #119, #120, #121 );
#65 = LENGTH_MEASURE_WITH_UNIT( LENGTH_MEASURE( 1.00000000000000 ), #122 );
#68 = DIMENSIONAL_EXPONENTS( 1.00000000000000, 0.000000000000000, 0.000000000000000, 0.000000000000000, 0.000000000000000, 0.000000000000000, 0.000000000000000 );
#70 = DIMENSIONAL_EXPONENTS( 0.000000000000000, 0.000000000000000, 0.000000000000000, 0.000000000000000, 0.000000000000000, 0.000000000000000, 0.000000000000000 );
#76 = SURFACE_STYLE_USAGE( .BOTH., #123 );
#77 = FACE_OUTER_BOUND( '', #124, .T. );
#78 = PLANE( '', #125 );
#79 = SURFACE_STYLE_USAGE( .BOTH., #126 );
#80 = FACE_BOUND( '', #127, .T. );
#81 = FACE_OUTER_BOUND( '', #128, .T. );
#82 = CONICAL_SURFACE( '', #129, 16.7973522167000, 0.0314159265000000 );
#83 = SURFACE_STYLE_USAGE( .BOTH., #130 );
#84 = FACE_OUTER_BOUND( '', #131, .T. );
#85 = PLANE( '', #132 );
#86 = SURFACE_STYLE_USAGE( .BOTH., #133 );
#87 = FACE_OUTER_BOUND( '', #134, .T. );
#88 = PLANE( '', #135 );
#89 = SURFACE_STYLE_USAGE( .BOTH., #136 );
#90 = FACE_OUTER_BOUND( '', #137, .T. );
#91 = FACE_BOUND( '', #138, .T. );
#92 = CONICAL_SURFACE( '', #139, 16.3130575963000, 0.769690200100000 );
#93 = SURFACE_STYLE_USAGE( .BOTH., #140 );
#94 = FACE_OUTER_BOUND( '', #141, .T. );
#95 = PLANE( '', #142 );
#96 = SURFACE_STYLE_USAGE( .BOTH., #143 );
#97 = FACE_OUTER_BOUND( '', #144, .T. );
#98 = PLANE( '', #145 );
#99 = SURFACE_STYLE_USAGE( .BOTH., #146 );
#100 = FACE_OUTER_BOUND( '', #147, .T. );
#101 = PLANE( '', #148 );
#102 = SURFACE_STYLE_USAGE( .BOTH., #149 );
#103 = FACE_BOUND( '', #150, .T. );
#104 = FACE_OUTER_BOUND( '', #151, .T. );
#105 = CONICAL_SURFACE( '', #152, 16.4516477833000, 0.801106126700000 );
#106 = SURFACE_STYLE_USAGE( .BOTH., #153 );
#107 = FACE_OUTER_BOUND( '', #154, .T. );
#108 = FACE_BOUND( '', #155, .T. );
#109 = PLANE( '', #156 );
#110 = SURFACE_STYLE_USAGE( .BOTH., #157 );
#111 = FACE_OUTER_BOUND( '', #158, .T. );
#112 = PLANE( '', #159 );
#113 = SURFACE_STYLE_USAGE( .BOTH., #160 );
#114 = FACE_OUTER_BOUND( '', #161, .T. );
#115 = PLANE( '', #162 );
#116 = PRODUCT_CONTEXT( '', #22, 'mechanical' );
#117 = PRODUCT_DEFINITION_FORMATION_WITH_SPECIFIED_SOURCE( ' ', 'NONE', #59, .NOT_KNOWN. );
#118 = CLOSED_SHELL( '', ( #44, #54, #40, #48, #50, #36, #52, #38, #56, #58, #46, #42 ) );
#119 = CARTESIAN_POINT( '', ( 0.000000000000000, 0.000000000000000, 0.000000000000000 ) );
#120 = DIRECTION( '', ( 0.000000000000000, 0.000000000000000, 1.00000000000000 ) );
#121 = DIRECTION( '', ( 1.00000000000000, 0.000000000000000, 0.000000000000000 ) );
#122 =  ( LENGTH_UNIT(  )NAMED_UNIT( #68 )SI_UNIT( .MILLI., .METRE. ) );
#123 = SURFACE_SIDE_STYLE( '', ( #164 ) );
#124 = EDGE_LOOP( '', ( #165 ) );
#125 = AXIS2_PLACEMENT_3D( '', #166, #167, #168 );
#126 = SURFACE_SIDE_STYLE( '', ( #169 ) );
#127 = EDGE_LOOP( '', ( #170 ) );
#128 = EDGE_LOOP( '', ( #171 ) );
#129 = AXIS2_PLACEMENT_3D( '', #172, #173, #174 );
#130 = SURFACE_SIDE_STYLE( '', ( #175 ) );
#131 = EDGE_LOOP( '', ( #176, #177, #178, #179 ) );
#132 = AXIS2_PLACEMENT_3D( '', #180, #181, #182 );
#133 = SURFACE_SIDE_STYLE( '', ( #183 ) );
#134 = EDGE_LOOP( '', ( #184, #185, #186, #187, #188, #189 ) );
#135 = AXIS2_PLACEMENT_3D( '', #190, #191, #192 );
#136 = SURFACE_SIDE_STYLE( '', ( #193 ) );
#137 = EDGE_LOOP( '', ( #194 ) );
#138 = EDGE_LOOP( '', ( #195 ) );
#139 = AXIS2_PLACEMENT_3D( '', #196, #197, #198 );
#140 = SURFACE_SIDE_STYLE( '', ( #199 ) );
#141 = EDGE_LOOP( '', ( #200, #201, #202, #203 ) );
#142 = AXIS2_PLACEMENT_3D( '', #204, #205, #206 );
#143 = SURFACE_SIDE_STYLE( '', ( #207 ) );
#144 = EDGE_LOOP( '', ( #208, #209, #210, #211 ) );
#145 = AXIS2_PLACEMENT_3D( '', #212, #213, #214 );
#146 = SURFACE_SIDE_STYLE( '', ( #215 ) );
#147 = EDGE_LOOP( '', ( #216, #217, #218, #219 ) );
#148 = AXIS2_PLACEMENT_3D( '', #220, #221, #222 );
#149 = SURFACE_SIDE_STYLE( '', ( #223 ) );
#150 = EDGE_LOOP( '', ( #224 ) );
#151 = EDGE_LOOP( '', ( #225 ) );
#152 = AXIS2_PLACEMENT_3D( '', #226, #227, #228 );
#153 = SURFACE_SIDE_STYLE( '', ( #229 ) );
#154 = EDGE_LOOP( '', ( #230 ) );
#155 = EDGE_LOOP( '', ( #231, #232, #233, #234, #235, #236 ) );
#156 = AXIS2_PLACEMENT_3D( '', #237, #238, #239 );
#157 = SURFACE_SIDE_STYLE( '', ( #240 ) );
#158 = EDGE_LOOP( '', ( #241, #242, #243, #244 ) );
#159 = AXIS2_PLACEMENT_3D( '', #245, #246, #247 );
#160 = SURFACE_SIDE_STYLE( '', ( #248 ) );
#161 = EDGE_LOOP( '', ( #249, #250, #251, #252 ) );
#162 = AXIS2_PLACEMENT_3D( '', #253, #254, #255 );
#164 = SURFACE_STYLE_FILL_AREA( #256 );
#165 = ORIENTED_EDGE( '', *, *, #257, .T. );
#166 = CARTESIAN_POINT( '', ( 12.0000000000000, 15.9359424037399, 0.000000000000000 ) );
#167 = DIRECTION( '', ( -1.00000000000000, 0.000000000000000, 0.000000000000000 ) );
#168 = DIRECTION( '', ( 0.000000000000000, 0.000000000000000, 1.00000000000000 ) );
#169 = SURFACE_STYLE_FILL_AREA( #258 );
#170 = ORIENTED_EDGE( '', *, *, #259, .F. );
#171 = ORIENTED_EDGE( '', *, *, #260, .T. );
#172 = CARTESIAN_POINT( '', ( 0.499753280182867, 0.000000000000000, 0.000000000000000 ) );
#173 = DIRECTION( '', ( -1.00000000000000, 0.000000000000000, -0.000000000000000 ) );
#174 = DIRECTION( '', ( 0.000000000000000, 0.000000000000000, 1.00000000000000 ) );
#175 = SURFACE_STYLE_FILL_AREA( #261 );
#176 = ORIENTED_EDGE( '', *, *, #262, .F. );
#177 = ORIENTED_EDGE( '', *, *, #263, .F. );
#178 = ORIENTED_EDGE( '', *, *, #264, .T. );
#179 = ORIENTED_EDGE( '', *, *, #265, .T. );
#180 = CARTESIAN_POINT( '', ( 6.00000000000000, -4.90747728811182, 8.50000000000000 ) );
#181 = DIRECTION( '', ( 0.000000000000000, 0.866025403784439, -0.500000000000000 ) );
#182 = DIRECTION( '', ( 0.000000000000000, 0.500000000000000, 0.866025403784439 ) );
#183 = SURFACE_STYLE_FILL_AREA( #266 );
#184 = ORIENTED_EDGE( '', *, *, #267, .F. );
#185 = ORIENTED_EDGE( '', *, *, #268, .F. );
#186 = ORIENTED_EDGE( '', *, *, #269, .F. );
#187 = ORIENTED_EDGE( '', *, *, #270, .F. );
#188 = ORIENTED_EDGE( '', *, *, #271, .F. );
#189 = ORIENTED_EDGE( '', *, *, #264, .F. );
#190 = CARTESIAN_POINT( '', ( 6.00000000000000, 0.000000000000000, 0.000000000000000 ) );
#191 = DIRECTION( '', ( 1.00000000000000, 0.000000000000000, 0.000000000000000 ) );
#192 = DIRECTION( '', ( 0.000000000000000, 0.000000000000000, -1.00000000000000 ) );
#193 = SURFACE_STYLE_FILL_AREA( #272 );
#194 = ORIENTED_EDGE( '', *, *, #260, .F. );
#195 = ORIENTED_EDGE( '', *, *, #273, .T. );
#196 = CARTESIAN_POINT( '', ( 1.73472347597681E-15, 0.000000000000000, 0.000000000000000 ) );
#197 = DIRECTION( '', ( 1.00000000000000, -0.000000000000000, -0.000000000000000 ) );
#198 = DIRECTION( '', ( -0.000000000000000, 0.000000000000000, -1.00000000000000 ) );
#199 = SURFACE_STYLE_FILL_AREA( #274 );
#200 = ORIENTED_EDGE( '', *, *, #275, .F. );
#201 = ORIENTED_EDGE( '', *, *, #276, .F. );
#202 = ORIENTED_EDGE( '', *, *, #268, .T. );
#203 = ORIENTED_EDGE( '', *, *, #277, .T. );
#204 = CARTESIAN_POINT( '', ( 6.00000000000000, 9.81495457622364, 0.000000000000000 ) );
#205 = DIRECTION( '', ( 0.000000000000000, -0.866025403784439, -0.500000000000000 ) );
#206 = DIRECTION( '', ( 0.000000000000000, 0.500000000000000, -0.866025403784439 ) );
#207 = SURFACE_STYLE_FILL_AREA( #278 );
#208 = ORIENTED_EDGE( '', *, *, #279, .F. );
#209 = ORIENTED_EDGE( '', *, *, #265, .F. );
#210 = ORIENTED_EDGE( '', *, *, #271, .T. );
#211 = ORIENTED_EDGE( '', *, *, #280, .T. );
#212 = CARTESIAN_POINT( '', ( 6.00000000000000, -9.81495457622364, 0.000000000000000 ) );
#213 = DIRECTION( '', ( -0.000000000000000, 0.866025403784439, 0.500000000000000 ) );
#214 = DIRECTION( '', ( 0.000000000000000, -0.500000000000000, 0.866025403784439 ) );
#215 = SURFACE_STYLE_FILL_AREA( #281 );
#216 = ORIENTED_EDGE( '', *, *, #282, .F. );
#217 = ORIENTED_EDGE( '', *, *, #277, .F. );
#218 = ORIENTED_EDGE( '', *, *, #267, .T. );
#219 = ORIENTED_EDGE( '', *, *, #263, .T. );
#220 = CARTESIAN_POINT( '', ( 6.00000000000000, 4.90747728811182, 8.50000000000000 ) );
#221 = DIRECTION( '', ( 0.000000000000000, 0.000000000000000, -1.00000000000000 ) );
#222 = DIRECTION( '', ( -1.00000000000000, 0.000000000000000, 0.000000000000000 ) );
#223 = SURFACE_STYLE_FILL_AREA( #283 );
#224 = ORIENTED_EDGE( '', *, *, #257, .F. );
#225 = ORIENTED_EDGE( '', *, *, #259, .T. );
#226 = CARTESIAN_POINT( '', ( 11.5002467198171, 0.000000000000000, 0.000000000000000 ) );
#227 = DIRECTION( '', ( -1.00000000000000, 0.000000000000000, -0.000000000000000 ) );
#228 = DIRECTION( '', ( 0.000000000000000, 0.000000000000000, 1.00000000000000 ) );
#229 = SURFACE_STYLE_FILL_AREA( #284 );
#230 = ORIENTED_EDGE( '', *, *, #273, .F. );
#231 = ORIENTED_EDGE( '', *, *, #282, .T. );
#232 = ORIENTED_EDGE( '', *, *, #262, .T. );
#233 = ORIENTED_EDGE( '', *, *, #279, .T. );
#234 = ORIENTED_EDGE( '', *, *, #285, .T. );
#235 = ORIENTED_EDGE( '', *, *, #286, .T. );
#236 = ORIENTED_EDGE( '', *, *, #275, .T. );
#237 = CARTESIAN_POINT( '', ( 8.61765067619012E-16, 0.000000000000000, 0.000000000000000 ) );
#238 = DIRECTION( '', ( 1.00000000000000, 0.000000000000000, -0.000000000000000 ) );
#239 = DIRECTION( '', ( -0.000000000000000, 0.000000000000000, -1.00000000000000 ) );
#240 = SURFACE_STYLE_FILL_AREA( #287 );
#241 = ORIENTED_EDGE( '', *, *, #285, .F. );
#242 = ORIENTED_EDGE( '', *, *, #280, .F. );
#243 = ORIENTED_EDGE( '', *, *, #270, .T. );
#244 = ORIENTED_EDGE( '', *, *, #288, .T. );
#245 = CARTESIAN_POINT( '', ( 6.00000000000000, -4.90747728811182, -8.50000000000000 ) );
#246 = DIRECTION( '', ( 0.000000000000000, 0.000000000000000, 1.00000000000000 ) );
#247 = DIRECTION( '', ( 1.00000000000000, 0.000000000000000, -0.000000000000000 ) );
#248 = SURFACE_STYLE_FILL_AREA( #289 );
#249 = ORIENTED_EDGE( '', *, *, #286, .F. );
#250 = ORIENTED_EDGE( '', *, *, #288, .F. );
#251 = ORIENTED_EDGE( '', *, *, #269, .T. );
#252 = ORIENTED_EDGE( '', *, *, #276, .T. );
#253 = CARTESIAN_POINT( '', ( 6.00000000000000, 4.90747728811182, -8.50000000000000 ) );
#254 = DIRECTION( '', ( 0.000000000000000, -0.866025403784439, 0.500000000000000 ) );
#255 = DIRECTION( '', ( 0.000000000000000, -0.500000000000000, -0.866025403784439 ) );
#256 = FILL_AREA_STYLE( '', ( #290 ) );
#257 = EDGE_CURVE( '', #291, #291, #292, .T. );
#258 = FILL_AREA_STYLE( '', ( #293 ) );
#259 = EDGE_CURVE( '', #294, #294, #295, .T. );
#260 = EDGE_CURVE( '', #296, #296, #297, .T. );
#261 = FILL_AREA_STYLE( '', ( #298 ) );
#262 = EDGE_CURVE( '', #299, #300, #301, .T. );
#263 = EDGE_CURVE( '', #302, #299, #303, .T. );
#264 = EDGE_CURVE( '', #302, #304, #305, .T. );
#265 = EDGE_CURVE( '', #304, #300, #306, .T. );
#266 = FILL_AREA_STYLE( '', ( #307 ) );
#267 = EDGE_CURVE( '', #308, #302, #309, .T. );
#268 = EDGE_CURVE( '', #310, #308, #311, .T. );
#269 = EDGE_CURVE( '', #312, #310, #313, .T. );
#270 = EDGE_CURVE( '', #314, #312, #315, .T. );
#271 = EDGE_CURVE( '', #304, #314, #316, .T. );
#272 = FILL_AREA_STYLE( '', ( #317 ) );
#273 = EDGE_CURVE( '', #318, #318, #319, .T. );
#274 = FILL_AREA_STYLE( '', ( #320 ) );
#275 = EDGE_CURVE( '', #321, #322, #323, .T. );
#276 = EDGE_CURVE( '', #310, #321, #324, .T. );
#277 = EDGE_CURVE( '', #308, #322, #325, .T. );
#278 = FILL_AREA_STYLE( '', ( #326 ) );
#279 = EDGE_CURVE( '', #300, #327, #328, .T. );
#280 = EDGE_CURVE( '', #314, #327, #329, .T. );
#281 = FILL_AREA_STYLE( '', ( #330 ) );
#282 = EDGE_CURVE( '', #322, #299, #331, .T. );
#283 = FILL_AREA_STYLE( '', ( #332 ) );
#284 = FILL_AREA_STYLE( '', ( #333 ) );
#285 = EDGE_CURVE( '', #327, #334, #335, .T. );
#286 = EDGE_CURVE( '', #334, #321, #336, .T. );
#287 = FILL_AREA_STYLE( '', ( #337 ) );
#288 = EDGE_CURVE( '', #312, #334, #338, .T. );
#289 = FILL_AREA_STYLE( '', ( #339 ) );
#290 = FILL_AREA_STYLE_COLOUR( '', #340 );
#291 = VERTEX_POINT( '', #341 );
#292 = CIRCLE( '', #342, 15.9359424037000 );
#293 = FILL_AREA_STYLE_COLOUR( '', #343 );
#294 = VERTEX_POINT( '', #344 );
#295 = CIRCLE( '', #345, 16.4516477833000 );
#296 = VERTEX_POINT( '', #346 );
#297 = CIRCLE( '', #347, 16.7973522167000 );
#298 = FILL_AREA_STYLE_COLOUR( '', #348 );
#299 = VERTEX_POINT( '', #349 );
#300 = VERTEX_POINT( '', #350 );
#301 = LINE( '', #351, #352 );
#302 = VERTEX_POINT( '', #353 );
#303 = LINE( '', #354, #355 );
#304 = VERTEX_POINT( '', #356 );
#305 = LINE( '', #357, #358 );
#306 = LINE( '', #359, #360 );
#307 = FILL_AREA_STYLE_COLOUR( '', #361 );
#308 = VERTEX_POINT( '', #362 );
#309 = LINE( '', #363, #364 );
#310 = VERTEX_POINT( '', #365 );
#311 = LINE( '', #366, #367 );
#312 = VERTEX_POINT( '', #368 );
#313 = LINE( '', #369, #370 );
#314 = VERTEX_POINT( '', #371 );
#315 = LINE( '', #372, #373 );
#316 = LINE( '', #374, #375 );
#317 = FILL_AREA_STYLE_COLOUR( '', #376 );
#318 = VERTEX_POINT( '', #377 );
#319 = CIRCLE( '', #378, 16.3130575963000 );
#320 = FILL_AREA_STYLE_COLOUR( '', #379 );
#321 = VERTEX_POINT( '', #380 );
#322 = VERTEX_POINT( '', #381 );
#323 = LINE( '', #382, #383 );
#324 = LINE( '', #384, #385 );
#325 = LINE( '', #386, #387 );
#326 = FILL_AREA_STYLE_COLOUR( '', #388 );
#327 = VERTEX_POINT( '', #389 );
#328 = LINE( '', #390, #391 );
#329 = LINE( '', #392, #393 );
#330 = FILL_AREA_STYLE_COLOUR( '', #394 );
#331 = LINE( '', #395, #396 );
#332 = FILL_AREA_STYLE_COLOUR( '', #397 );
#333 = FILL_AREA_STYLE_COLOUR( '', #398 );
#334 = VERTEX_POINT( '', #399 );
#335 = LINE( '', #400, #401 );
#336 = LINE( '', #402, #403 );
#337 = FILL_AREA_STYLE_COLOUR( '', #404 );
#338 = LINE( '', #405, #406 );
#339 = FILL_AREA_STYLE_COLOUR( '', #407 );
#340 = COLOUR_RGB( '', 0.689999997600000, 0.689999997600000, 0.689999997600000 );
#341 = CARTESIAN_POINT( '', ( 12.0000000000000, 0.000000000000000, -15.9359424037399 ) );
#342 = AXIS2_PLACEMENT_3D( '', #408, #409, #410 );
#343 = COLOUR_RGB( '', 0.689999997600000, 0.689999997600000, 0.689999997600000 );
#344 = CARTESIAN_POINT( '', ( 11.5002467198171, 0.000000000000000, -16.4516477832790 ) );
#345 = AXIS2_PLACEMENT_3D( '', #411, #412, #413 );
#346 = CARTESIAN_POINT( '', ( 0.499753280182867, 0.000000000000000, -16.7973522167210 ) );
#347 = AXIS2_PLACEMENT_3D( '', #414, #415, #416 );
#348 = COLOUR_RGB( '', 0.689999997600000, 0.689999997600000, 0.689999997600000 );
#349 = CARTESIAN_POINT( '', ( 0.000000000000000, -4.90747728811182, 8.50000000000000 ) );
#350 = CARTESIAN_POINT( '', ( 0.000000000000000, -9.81495457622364, 0.000000000000000 ) );
#351 = CARTESIAN_POINT( '', ( 0.000000000000000, -4.90747728811182, 8.50000000000000 ) );
#352 = VECTOR( '', #417, 1000.00000000000 );
#353 = CARTESIAN_POINT( '', ( 6.00000000000000, -4.90747728811182, 8.50000000000000 ) );
#354 = CARTESIAN_POINT( '', ( 6.00000000000000, -4.90747728811182, 8.50000000000000 ) );
#355 = VECTOR( '', #418, 1000.00000000000 );
#356 = CARTESIAN_POINT( '', ( 6.00000000000000, -9.81495457622364, 0.000000000000000 ) );
#357 = CARTESIAN_POINT( '', ( 6.00000000000000, -4.90747728811182, 8.50000000000000 ) );
#358 = VECTOR( '', #419, 1000.00000000000 );
#359 = CARTESIAN_POINT( '', ( 6.00000000000000, -9.81495457622364, 0.000000000000000 ) );
#360 = VECTOR( '', #420, 1000.00000000000 );
#361 = COLOUR_RGB( '', 0.689999997600000, 0.689999997600000, 0.689999997600000 );
#362 = CARTESIAN_POINT( '', ( 6.00000000000000, 4.90747728811182, 8.50000000000000 ) );
#363 = CARTESIAN_POINT( '', ( 6.00000000000000, 4.90747728811182, 8.50000000000000 ) );
#364 = VECTOR( '', #421, 1000.00000000000 );
#365 = CARTESIAN_POINT( '', ( 6.00000000000000, 9.81495457622364, 0.000000000000000 ) );
#366 = CARTESIAN_POINT( '', ( 6.00000000000000, 9.81495457622364, 0.000000000000000 ) );
#367 = VECTOR( '', #422, 1000.00000000000 );
#368 = CARTESIAN_POINT( '', ( 6.00000000000000, 4.90747728811182, -8.50000000000000 ) );
#369 = CARTESIAN_POINT( '', ( 6.00000000000000, 4.90747728811182, -8.50000000000000 ) );
#370 = VECTOR( '', #423, 1000.00000000000 );
#371 = CARTESIAN_POINT( '', ( 6.00000000000000, -4.90747728811182, -8.50000000000000 ) );
#372 = CARTESIAN_POINT( '', ( 6.00000000000000, -4.90747728811182, -8.50000000000000 ) );
#373 = VECTOR( '', #424, 1000.00000000000 );
#374 = CARTESIAN_POINT( '', ( 6.00000000000000, -9.81495457622364, 0.000000000000000 ) );
#375 = VECTOR( '', #425, 1000.00000000000 );
#376 = COLOUR_RGB( '', 0.689999997600000, 0.689999997600000, 0.689999997600000 );
#377 = CARTESIAN_POINT( '', ( 1.73472347597681E-15, 0.000000000000000, -16.3130575962601 ) );
#378 = AXIS2_PLACEMENT_3D( '', #426, #427, #428 );
#379 = COLOUR_RGB( '', 0.689999997600000, 0.689999997600000, 0.689999997600000 );
#380 = CARTESIAN_POINT( '', ( 0.000000000000000, 9.81495457622364, 0.000000000000000 ) );
#381 = CARTESIAN_POINT( '', ( 8.61765067619012E-16, 4.90747728811182, 8.50000000000000 ) );
#382 = CARTESIAN_POINT( '', ( 0.000000000000000, 9.81495457622364, 0.000000000000000 ) );
#383 = VECTOR( '', #429, 1000.00000000000 );
#384 = CARTESIAN_POINT( '', ( 6.00000000000000, 9.81495457622364, 0.000000000000000 ) );
#385 = VECTOR( '', #430, 1000.00000000000 );
#386 = CARTESIAN_POINT( '', ( 6.00000000000000, 4.90747728811182, 8.50000000000000 ) );
#387 = VECTOR( '', #431, 1000.00000000000 );
#388 = COLOUR_RGB( '', 0.689999997600000, 0.689999997600000, 0.689999997600000 );
#389 = CARTESIAN_POINT( '', ( 0.000000000000000, -4.90747728811182, -8.50000000000000 ) );
#390 = CARTESIAN_POINT( '', ( 0.000000000000000, -9.81495457622364, 0.000000000000000 ) );
#391 = VECTOR( '', #432, 1000.00000000000 );
#392 = CARTESIAN_POINT( '', ( 6.00000000000000, -4.90747728811182, -8.50000000000000 ) );
#393 = VECTOR( '', #433, 1000.00000000000 );
#394 = COLOUR_RGB( '', 0.689999997600000, 0.689999997600000, 0.689999997600000 );
#395 = CARTESIAN_POINT( '', ( 0.000000000000000, 4.90747728811182, 8.50000000000000 ) );
#396 = VECTOR( '', #434, 1000.00000000000 );
#397 = COLOUR_RGB( '', 0.689999997600000, 0.689999997600000, 0.689999997600000 );
#398 = COLOUR_RGB( '', 0.689999997600000, 0.689999997600000, 0.689999997600000 );
#399 = CARTESIAN_POINT( '', ( 0.000000000000000, 4.90747728811182, -8.50000000000000 ) );
#400 = CARTESIAN_POINT( '', ( 0.000000000000000, -4.90747728811182, -8.50000000000000 ) );
#401 = VECTOR( '', #435, 1000.00000000000 );
#402 = CARTESIAN_POINT( '', ( 0.000000000000000, 4.90747728811182, -8.50000000000000 ) );
#403 = VECTOR( '', #436, 1000.00000000000 );
#404 = COLOUR_RGB( '', 0.689999997600000, 0.689999997600000, 0.689999997600000 );
#405 = CARTESIAN_POINT( '', ( 6.00000000000000, 4.90747728811182, -8.50000000000000 ) );
#406 = VECTOR( '', #437, 1000.00000000000 );
#407 = COLOUR_RGB( '', 0.689999997600000, 0.689999997600000, 0.689999997600000 );
#408 = CARTESIAN_POINT( '', ( 12.0000000000000, 0.000000000000000, 0.000000000000000 ) );
#409 = DIRECTION( '', ( 1.00000000000000, 0.000000000000000, -0.000000000000000 ) );
#410 = DIRECTION( '', ( -0.000000000000000, 0.000000000000000, -1.00000000000000 ) );
#411 = CARTESIAN_POINT( '', ( 11.5002467198171, 0.000000000000000, 0.000000000000000 ) );
#412 = DIRECTION( '', ( 1.00000000000000, 0.000000000000000, -0.000000000000000 ) );
#413 = DIRECTION( '', ( -0.000000000000000, 0.000000000000000, -1.00000000000000 ) );
#414 = CARTESIAN_POINT( '', ( 0.499753280182867, 0.000000000000000, 0.000000000000000 ) );
#415 = DIRECTION( '', ( 1.00000000000000, 0.000000000000000, -0.000000000000000 ) );
#416 = DIRECTION( '', ( -0.000000000000000, 0.000000000000000, -1.00000000000000 ) );
#417 = DIRECTION( '', ( 0.000000000000000, -0.500000000000000, -0.866025403784439 ) );
#418 = DIRECTION( '', ( -1.00000000000000, -0.000000000000000, -0.000000000000000 ) );
#419 = DIRECTION( '', ( 0.000000000000000, -0.500000000000000, -0.866025403784439 ) );
#420 = DIRECTION( '', ( -1.00000000000000, -0.000000000000000, -0.000000000000000 ) );
#421 = DIRECTION( '', ( 0.000000000000000, -1.00000000000000, 0.000000000000000 ) );
#422 = DIRECTION( '', ( 0.000000000000000, -0.500000000000000, 0.866025403784439 ) );
#423 = DIRECTION( '', ( 0.000000000000000, 0.500000000000000, 0.866025403784439 ) );
#424 = DIRECTION( '', ( 0.000000000000000, 1.00000000000000, 0.000000000000000 ) );
#425 = DIRECTION( '', ( 0.000000000000000, 0.500000000000000, -0.866025403784439 ) );
#426 = CARTESIAN_POINT( '', ( 1.73472347597681E-15, 0.000000000000000, 0.000000000000000 ) );
#427 = DIRECTION( '', ( 1.00000000000000, 0.000000000000000, -0.000000000000000 ) );
#428 = DIRECTION( '', ( -0.000000000000000, 0.000000000000000, -1.00000000000000 ) );
#429 = DIRECTION( '', ( 0.000000000000000, -0.500000000000000, 0.866025403784439 ) );
#430 = DIRECTION( '', ( -1.00000000000000, -0.000000000000000, -0.000000000000000 ) );
#431 = DIRECTION( '', ( -1.00000000000000, -0.000000000000000, -0.000000000000000 ) );
#432 = DIRECTION( '', ( 0.000000000000000, 0.500000000000000, -0.866025403784439 ) );
#433 = DIRECTION( '', ( -1.00000000000000, -0.000000000000000, -0.000000000000000 ) );
#434 = DIRECTION( '', ( 0.000000000000000, -1.00000000000000, 0.000000000000000 ) );
#435 = DIRECTION( '', ( 0.000000000000000, 1.00000000000000, 0.000000000000000 ) );
#436 = DIRECTION( '', ( 0.000000000000000, 0.500000000000000, 0.866025403784439 ) );
#437 = DIRECTION( '', ( -1.00000000000000, -0.000000000000000, -0.000000000000000 ) );
ENDSEC;
END-ISO-10303-21;
