ISO-10303-21;
HEADER;
/****************************************************************
 * Generated by software with PDE/Lib inside                    *
 * PDElib Version v51a, created Tue 01/15/2008                  *
 * International Technegroup Inc. (www.iti-oh.com)              *
 ****************************************************************/
FILE_DESCRIPTION((''),'2;1');
FILE_NAME('S:\\Drawings\\Web Drawings Completed with mm\\E-Vac\\800013-800017.stp','2008-07-28T15:17:23',('Dan Preston'),(''),'Autodesk Inventor 2009','Autodesk Inventor 2009','');
FILE_SCHEMA(('AUTOMOTIVE_DESIGN { 1 0 10303 214 1 1 1 1 }'));
ENDSEC;
DATA;
#5=APPLICATION_CONTEXT('automotive design');
#6=APPLICATION_PROTOCOL_DEFINITION('International Standard','automotive_design',2001,#5);
#7=PRODUCT_CONTEXT('',#5,'mechanical');
#8=PRODUCT('900711 for web','900711 for web',$,(#7));
#9=PRODUCT_RELATED_PRODUCT_CATEGORY('part',$,(#8));
#10=PRODUCT_DEFINITION_FORMATION('',$,#8);
#11=PRODUCT_DEFINITION_CONTEXT('part definition',#5,'design');
#12=PRODUCT_DEFINITION('',$,#10,#11);
#18=(NAMED_UNIT(*)PLANE_ANGLE_UNIT()SI_UNIT($,.RADIAN.));
#19=DIMENSIONAL_EXPONENTS(0.0,0.0,0.0,0.0,0.0,0.0,0.0);
#20=PLANE_ANGLE_MEASURE_WITH_UNIT(PLANE_ANGLE_MEASURE(0.017453292500000),#18);
#24=(CONVERSION_BASED_UNIT('DEGREE',#20)NAMED_UNIT(#19)PLANE_ANGLE_UNIT());
#28=(NAMED_UNIT(*)SI_UNIT($,.STERADIAN.)SOLID_ANGLE_UNIT());
#32=(LENGTH_UNIT()NAMED_UNIT(*)SI_UNIT(.CENTI.,.METRE.));
#33=DIMENSIONAL_EXPONENTS(1.0,0.0,0.0,0.0,0.0,0.0,0.0);
#34=LENGTH_MEASURE_WITH_UNIT(LENGTH_MEASURE(2.540000000000000),#32);
#38=(CONVERSION_BASED_UNIT('INCH',#34)LENGTH_UNIT()NAMED_UNIT(#33));
#40=UNCERTAINTY_MEASURE_WITH_UNIT(LENGTH_MEASURE(0.000393700787402),#38,'DISTANCE_ACCURACY_VALUE','');
#42=(GEOMETRIC_REPRESENTATION_CONTEXT(3)GLOBAL_UNCERTAINTY_ASSIGNED_CONTEXT((#40))GLOBAL_UNIT_ASSIGNED_CONTEXT((#24,#28,#38))REPRESENTATION_CONTEXT('None','None'));
#43=AXIS2_PLACEMENT_3D('',#44,#45,#46);
#44=CARTESIAN_POINT('',(0.0,0.0,0.0));
#45=DIRECTION('',(0.0,0.0,1.0));
#46=DIRECTION('',(1.0,0.0,0.0));
#47=SHAPE_REPRESENTATION('',(#43),#42);
#48=PRODUCT_DEFINITION_SHAPE('','',#12);
#49=SHAPE_DEFINITION_REPRESENTATION(#48,#47);
#55=(NAMED_UNIT(*)PLANE_ANGLE_UNIT()SI_UNIT($,.RADIAN.));
#56=DIMENSIONAL_EXPONENTS(0.0,0.0,0.0,0.0,0.0,0.0,0.0);
#57=PLANE_ANGLE_MEASURE_WITH_UNIT(PLANE_ANGLE_MEASURE(0.017453292500000),#55);
#61=(CONVERSION_BASED_UNIT('DEGREE',#57)NAMED_UNIT(#56)PLANE_ANGLE_UNIT());
#65=(NAMED_UNIT(*)SI_UNIT($,.STERADIAN.)SOLID_ANGLE_UNIT());
#69=(LENGTH_UNIT()NAMED_UNIT(*)SI_UNIT(.MILLI.,.METRE.));
#71=UNCERTAINTY_MEASURE_WITH_UNIT(LENGTH_MEASURE(0.000001000000000),#69,'DISTANCE_ACCURACY_VALUE','');
#73=(GEOMETRIC_REPRESENTATION_CONTEXT(3)GLOBAL_UNCERTAINTY_ASSIGNED_CONTEXT((#71))GLOBAL_UNIT_ASSIGNED_CONTEXT((#61,#65,#69))REPRESENTATION_CONTEXT('','3D'));
#74=CARTESIAN_POINT('',(-0.000179227015962,0.134603613628686,0.0));
#75=DIRECTION('',(0.0,-1.0,0.0));
#76=DIRECTION('',(0.0,0.0,-1.0));
#77=AXIS2_PLACEMENT_3D('',#74,#75,#76);
#78=PLANE('',#77);
#79=CARTESIAN_POINT('',(0.521310636411307,0.134603613628695,-0.248486431519165));
#80=VERTEX_POINT('',#79);
#81=CARTESIAN_POINT('',(-0.117134216530933,0.134603613628684,-0.248486431519165));
#82=VERTEX_POINT('',#81);
#83=CARTESIAN_POINT('',(0.521310636411307,0.134603613628695,-0.248486431519165));
#84=DIRECTION('',(-1.0,0.0,0.0));
#85=VECTOR('',#84,0.638444852942240);
#86=LINE('',#83,#85);
#87=EDGE_CURVE('',#80,#82,#86,.T.);
#88=ORIENTED_EDGE('',*,*,#87,.F.);
#89=CARTESIAN_POINT('',(0.202088209940187,0.134603613628689,0.0));
#90=DIRECTION('',(0.0,-1.0,0.0));
#91=DIRECTION('',(-1.0,0.0,0.0));
#92=AXIS2_PLACEMENT_3D('',#89,#90,#91);
#93=CIRCLE('',#92,0.404534873912297);
#94=EDGE_CURVE('',#82,#80,#93,.T.);
#95=ORIENTED_EDGE('',*,*,#94,.F.);
#96=EDGE_LOOP('',(#88,#95));
#97=FACE_OUTER_BOUND('',#96,.T.);
#98=ADVANCED_FACE('',(#97),#78,.F.);
#99=CARTESIAN_POINT('',(-0.000179227015962,0.134603613628686,0.0));
#100=DIRECTION('',(0.0,-1.0,0.0));
#101=DIRECTION('',(0.0,0.0,-1.0));
#102=AXIS2_PLACEMENT_3D('',#99,#100,#101);
#103=PLANE('',#102);
#104=CARTESIAN_POINT('',(-0.117134216530933,0.134603613628684,0.248486431519165));
#105=VERTEX_POINT('',#104);
#106=CARTESIAN_POINT('',(0.521310636411307,0.134603613628695,0.248486431519165));
#107=VERTEX_POINT('',#106);
#108=CARTESIAN_POINT('',(-0.117134216530933,0.134603613628684,0.248486431519165));
#109=DIRECTION('',(1.0,0.0,0.0));
#110=VECTOR('',#109,0.638444852942240);
#111=LINE('',#108,#110);
#112=EDGE_CURVE('',#105,#107,#111,.T.);
#113=ORIENTED_EDGE('',*,*,#112,.F.);
#114=CARTESIAN_POINT('',(0.202088209940187,0.134603613628689,0.0));
#115=DIRECTION('',(0.0,-1.0,0.0));
#116=DIRECTION('',(-1.0,0.0,0.0));
#117=AXIS2_PLACEMENT_3D('',#114,#115,#116);
#118=CIRCLE('',#117,0.404534873912297);
#119=EDGE_CURVE('',#107,#105,#118,.T.);
#120=ORIENTED_EDGE('',*,*,#119,.F.);
#121=EDGE_LOOP('',(#113,#120));
#122=FACE_OUTER_BOUND('',#121,.T.);
#123=ADVANCED_FACE('',(#122),#103,.F.);
#124=CARTESIAN_POINT('',(0.202088209940183,0.387692441250658,0.0));
#125=DIRECTION('',(-1.698440E-014,1.0,0.0));
#126=DIRECTION('',(-1.0,0.0,0.0));
#127=AXIS2_PLACEMENT_3D('',#124,#125,#126);
#128=CONICAL_SURFACE('',#127,0.412267436956148,1.749999999999974);
#129=CARTESIAN_POINT('',(0.622088209940178,0.640781268872634,0.0));
#130=VERTEX_POINT('',#129);
#131=CARTESIAN_POINT('',(-0.217911790059821,0.640781268872620,0.0));
#132=VERTEX_POINT('',#131);
#133=CARTESIAN_POINT('',(0.622088209940178,0.640781268872634,-4.857226E-017));
#134=CARTESIAN_POINT('',(0.622088209940178,0.640781268872634,0.027194064942697));
#135=CARTESIAN_POINT('',(0.619349684172906,0.638967166460169,0.055023379806665));
#136=CARTESIAN_POINT('',(0.608158401545840,0.631681769069488,0.109794394798208));
#137=CARTESIAN_POINT('',(0.599710215995444,0.626214771212166,0.136737600368792));
#138=CARTESIAN_POINT('',(0.566822907268728,0.605583953709676,0.213454235082076));
#139=CARTESIAN_POINT('',(0.534468960435549,0.585999216565836,0.259062831305689));
#140=CARTESIAN_POINT('',(0.461526670236562,0.547706158029624,0.330666975622629));
#141=CARTESIAN_POINT('',(0.415562738643439,0.526060237899330,0.361876811798158));
#142=CARTESIAN_POINT('',(0.338898778278632,0.501490013742752,0.393561507957151));
#143=CARTESIAN_POINT('',(0.312041960217518,0.494653264276118,0.401693124649603));
#144=CARTESIAN_POINT('',(0.257330513991526,0.485372418948512,0.412504432253739));
#145=CARTESIAN_POINT('',(0.229469985611469,0.482955997207284,0.415178001832273));
#146=CARTESIAN_POINT('',(0.174706434268893,0.482955997207284,0.415178001832273));
#147=CARTESIAN_POINT('',(0.146845905888836,0.485372418948510,0.412504432253740));
#148=CARTESIAN_POINT('',(0.092134459662844,0.494653264276115,0.401693124649603));
#149=CARTESIAN_POINT('',(0.065277641601729,0.501490013742748,0.393561507957151));
#150=CARTESIAN_POINT('',(-0.011386318763078,0.526060237899323,0.361876811798158));
#151=CARTESIAN_POINT('',(-0.057350250356202,0.547706158029615,0.330666975622629));
#152=CARTESIAN_POINT('',(-0.130292540555191,0.585999216565825,0.259062831305689));
#153=CARTESIAN_POINT('',(-0.162646487388370,0.605583953709664,0.213454235082075));
#154=CARTESIAN_POINT('',(-0.195533796115087,0.626214771212152,0.136737600368792));
#155=CARTESIAN_POINT('',(-0.203981981665483,0.631681769069475,0.109794394798208));
#156=CARTESIAN_POINT('',(-0.215173264292549,0.638967166460155,0.055023379806665));
#157=CARTESIAN_POINT('',(-0.217911790059821,0.640781268872620,0.027194064942697));
#158=CARTESIAN_POINT('',(-0.217911790059821,0.640781268872620,1.179612E-016));
#159=B_SPLINE_CURVE_WITH_KNOTS('',3,(#133,#134,#135,#136,#137,#138,#139,#140,#141,#142,#143,#144,#145,#146,#147,#148,#149,#150,#151,#152,#153,#154,#155,#156,#157,#158),.UNSPECIFIED.,.F.,.U.,(4,2,2,2,2,2,2,2,2,2,2,2,4),(1.663471621914255,1.870690396777603,2.077909171640951,2.492346721367647,2.909644982598079,3.118294113213294,3.326943243828510,3.535592374443726,3.744241505058942,4.161539766289375,4.575977316016070,4.783196090879418,4.990414865742765),.UNSPECIFIED.);
#160=EDGE_CURVE('',#130,#132,#159,.T.);
#161=ORIENTED_EDGE('',*,*,#160,.F.);
#162=CARTESIAN_POINT('',(-0.217911790059821,0.640781268872620,1.110223E-016));
#163=CARTESIAN_POINT('',(-0.217911790059821,0.640781268872620,-0.027194064942696));
#164=CARTESIAN_POINT('',(-0.215173264292549,0.638967166460155,-0.055023379806665));
#165=CARTESIAN_POINT('',(-0.203981981665483,0.631681769069475,-0.109794394798208));
#166=CARTESIAN_POINT('',(-0.195533796115087,0.626214771212152,-0.136737600368792));
#167=CARTESIAN_POINT('',(-0.162646487388370,0.605583953709664,-0.213454235082076));
#168=CARTESIAN_POINT('',(-0.130292540555191,0.585999216565825,-0.259062831305689));
#169=CARTESIAN_POINT('',(-0.057350250356202,0.547706158029615,-0.330666975622629));
#170=CARTESIAN_POINT('',(-0.011386318763078,0.526060237899323,-0.361876811798158));
#171=CARTESIAN_POINT('',(0.065277641601730,0.501490013742747,-0.393561507957151));
#172=CARTESIAN_POINT('',(0.092134459662844,0.494653264276115,-0.401693124649603));
#173=CARTESIAN_POINT('',(0.146845905888836,0.485372418948510,-0.412504432253740));
#174=CARTESIAN_POINT('',(0.174706434268893,0.482955997207284,-0.415178001832273));
#175=CARTESIAN_POINT('',(0.202088209940181,0.482955997207284,-0.415178001832273));
#176=CARTESIAN_POINT('',(0.229469985611469,0.482955997207284,-0.415178001832273));
#177=CARTESIAN_POINT('',(0.257330513991526,0.485372418948512,-0.412504432253739));
#178=CARTESIAN_POINT('',(0.312041960217518,0.494653264276118,-0.401693124649603));
#179=CARTESIAN_POINT('',(0.338898778278632,0.501490013742752,-0.393561507957151));
#180=CARTESIAN_POINT('',(0.415562738643439,0.526060237899330,-0.361876811798158));
#181=CARTESIAN_POINT('',(0.461526670236562,0.547706158029624,-0.330666975622629));
#182=CARTESIAN_POINT('',(0.534468960435549,0.585999216565836,-0.259062831305690));
#183=CARTESIAN_POINT('',(0.566822907268728,0.605583953709676,-0.213454235082076));
#184=CARTESIAN_POINT('',(0.599710215995444,0.626214771212166,-0.136737600368792));
#185=CARTESIAN_POINT('',(0.608158401545840,0.631681769069489,-0.109794394798208));
#186=CARTESIAN_POINT('',(0.619349684172906,0.638967166460169,-0.055023379806665));
#187=CARTESIAN_POINT('',(0.622088209940178,0.640781268872634,-0.027194064942697));
#188=CARTESIAN_POINT('',(0.622088209940178,0.640781268872634,-5.551115E-017));
#189=B_SPLINE_CURVE_WITH_KNOTS('',3,(#162,#163,#164,#165,#166,#167,#168,#169,#170,#171,#172,#173,#174,#175,#176,#177,#178,#179,#180,#181,#182,#183,#184,#185,#186,#187,#188),.UNSPECIFIED.,.F.,.U.,(4,2,2,2,2,2,3,2,2,2,2,2,4),(4.990414865742765,5.197633640606113,5.404852415469461,5.819289965196156,6.236588226426589,6.445237357041805,6.653886487657021,6.862535618272236,7.071184748887452,7.488483010117885,7.902920559844580,8.110139334707927,8.317358109571275),.UNSPECIFIED.);
#190=EDGE_CURVE('',#132,#130,#189,.T.);
#191=ORIENTED_EDGE('',*,*,#190,.F.);
#192=EDGE_LOOP('',(#161,#191));
#193=FACE_OUTER_BOUND('',#192,.T.);
#194=CARTESIAN_POINT('',(-0.117134216530933,0.134603613628684,-0.248486431519165));
#195=CARTESIAN_POINT('',(-0.128631613512911,0.162581742324861,-0.235107725755465));
#196=CARTESIAN_POINT('',(-0.141981467340232,0.187744453530750,-0.217107853276357));
#197=CARTESIAN_POINT('',(-0.167839215664426,0.232621757937324,-0.173162875141680));
#198=CARTESIAN_POINT('',(-0.181941956628857,0.254198535286395,-0.142835992443600));
#199=CARTESIAN_POINT('',(-0.201713047517365,0.283525171357365,-0.074552820859018));
#200=CARTESIAN_POINT('',(-0.207231603209733,0.291215936738626,-0.036527892163961));
#201=CARTESIAN_POINT('',(-0.207231603209733,0.291215936738626,0.036527892163961));
#202=CARTESIAN_POINT('',(-0.201713047517365,0.283525171357365,0.074552820859018));
#203=CARTESIAN_POINT('',(-0.181941956628858,0.254198535286396,0.142835992443599));
#204=CARTESIAN_POINT('',(-0.167839215664426,0.232621757937324,0.173162875141680));
#205=CARTESIAN_POINT('',(-0.141981467340232,0.187744453530750,0.217107853276357));
#206=CARTESIAN_POINT('',(-0.128631613512911,0.162581742324861,0.235107725755465));
#207=CARTESIAN_POINT('',(-0.117134216530933,0.134603613628684,0.248486431519165));
#208=B_SPLINE_CURVE_WITH_KNOTS('',3,(#194,#195,#196,#197,#198,#199,#200,#201,#202,#203,#204,#205,#206,#207),.UNSPECIFIED.,.F.,.U.,(4,2,2,2,2,2,4),(2.490128384886341,2.729371602461644,3.007714140751026,3.286056679040409,3.564399217329792,3.842741755619175,4.081984973194477),.UNSPECIFIED.);
#209=EDGE_CURVE('',#82,#105,#208,.T.);
#210=ORIENTED_EDGE('',*,*,#209,.F.);
#211=ORIENTED_EDGE('',*,*,#94,.T.);
#212=CARTESIAN_POINT('',(0.521310636411307,0.134603613628695,0.248486431519165));
#213=CARTESIAN_POINT('',(0.532808033393284,0.162581742324872,0.235107725755465));
#214=CARTESIAN_POINT('',(0.546157887220605,0.187744453530762,0.217107853276357));
#215=CARTESIAN_POINT('',(0.572015635544796,0.232621757937337,0.173162875141680));
#216=CARTESIAN_POINT('',(0.586118376509227,0.254198535286408,0.142835992443599));
#217=CARTESIAN_POINT('',(0.605889467397734,0.283525171357378,0.074552820859018));
#218=CARTESIAN_POINT('',(0.611408023090102,0.291215936738640,0.036527892163961));
#219=CARTESIAN_POINT('',(0.611408023090102,0.291215936738640,-0.036527892163961));
#220=CARTESIAN_POINT('',(0.605889467397734,0.283525171357378,-0.074552820859018));
#221=CARTESIAN_POINT('',(0.586118376509227,0.254198535286408,-0.142835992443599));
#222=CARTESIAN_POINT('',(0.572015635544796,0.232621757937337,-0.173162875141680));
#223=CARTESIAN_POINT('',(0.546157887220605,0.187744453530762,-0.217107853276357));
#224=CARTESIAN_POINT('',(0.532808033393284,0.162581742324872,-0.235107725755465));
#225=CARTESIAN_POINT('',(0.521310636411307,0.134603613628695,-0.248486431519165));
#226=B_SPLINE_CURVE_WITH_KNOTS('',3,(#212,#213,#214,#215,#216,#217,#218,#219,#220,#221,#222,#223,#224,#225),.UNSPECIFIED.,.F.,.U.,(4,2,2,2,2,2,4),(0.326157916581100,0.565401134156403,0.843743672445786,1.122086210735168,1.400428749024551,1.678771287313934,1.918014504889236),.UNSPECIFIED.);
#227=EDGE_CURVE('',#107,#80,#226,.T.);
#228=ORIENTED_EDGE('',*,*,#227,.F.);
#229=ORIENTED_EDGE('',*,*,#119,.T.);
#230=EDGE_LOOP('',(#210,#211,#228,#229));
#231=FACE_BOUND('',#230,.T.);
#232=ADVANCED_FACE('',(#193,#231),#128,.F.);
#233=CARTESIAN_POINT('',(1.327088209940189,0.015781268872645,0.0));
#234=DIRECTION('',(1.0,1.660062E-014,0.0));
#235=DIRECTION('',(0.0,1.0,0.0));
#236=AXIS2_PLACEMENT_3D('',#233,#234,#235);
#237=CYLINDRICAL_SURFACE('',#236,0.625000000000000);
#238=CARTESIAN_POINT('',(4.327088209940179,0.640781268872695,0.0));
#239=VERTEX_POINT('',#238);
#240=CARTESIAN_POINT('',(4.327088209940190,0.015781268872695,0.0));
#241=DIRECTION('',(1.0,0.0,0.0));
#242=DIRECTION('',(0.0,1.0,0.0));
#243=AXIS2_PLACEMENT_3D('',#240,#241,#242);
#244=CIRCLE('',#243,0.625000000000000);
#245=EDGE_CURVE('',#239,#239,#244,.T.);
#246=ORIENTED_EDGE('',*,*,#245,.F.);
#247=EDGE_LOOP('',(#246));
#248=FACE_OUTER_BOUND('',#247,.T.);
#249=ORIENTED_EDGE('',*,*,#160,.T.);
#250=ORIENTED_EDGE('',*,*,#190,.T.);
#251=EDGE_LOOP('',(#249,#250));
#252=FACE_BOUND('',#251,.T.);
#253=CARTESIAN_POINT('',(-1.672911790059822,0.640781268872596,0.0));
#254=VERTEX_POINT('',#253);
#255=CARTESIAN_POINT('',(-1.672911790059811,0.015781268872595,0.0));
#256=DIRECTION('',(1.0,0.0,0.0));
#257=DIRECTION('',(0.0,1.0,0.0));
#258=AXIS2_PLACEMENT_3D('',#255,#256,#257);
#259=CIRCLE('',#258,0.625000000000000);
#260=EDGE_CURVE('',#254,#254,#259,.T.);
#261=ORIENTED_EDGE('',*,*,#260,.T.);
#262=EDGE_LOOP('',(#261));
#263=FACE_BOUND('',#262,.T.);
#264=ADVANCED_FACE('',(#248,#252,#263),#237,.T.);
#265=CARTESIAN_POINT('',(4.327088209940179,0.538281268872695,0.0));
#266=DIRECTION('',(1.0,0.0,0.0));
#267=DIRECTION('',(0.0,0.0,-1.0));
#268=AXIS2_PLACEMENT_3D('',#265,#266,#267);
#269=PLANE('',#268);
#270=ORIENTED_EDGE('',*,*,#245,.T.);
#271=EDGE_LOOP('',(#270));
#272=FACE_OUTER_BOUND('',#271,.T.);
#273=CARTESIAN_POINT('',(4.327088209940179,0.435781268872695,0.0));
#274=VERTEX_POINT('',#273);
#275=CARTESIAN_POINT('',(4.327088209940186,0.015781268872695,0.0));
#276=DIRECTION('',(1.0,0.0,0.0));
#277=DIRECTION('',(0.0,1.0,0.0));
#278=AXIS2_PLACEMENT_3D('',#275,#276,#277);
#279=CIRCLE('',#278,0.420000000000000);
#280=EDGE_CURVE('',#274,#274,#279,.T.);
#281=ORIENTED_EDGE('',*,*,#280,.F.);
#282=EDGE_LOOP('',(#281));
#283=FACE_BOUND('',#282,.T.);
#284=ADVANCED_FACE('',(#272,#283),#269,.T.);
#285=CARTESIAN_POINT('',(4.079088209940186,0.015781268872691,0.0));
#286=DIRECTION('',(1.0,1.660062E-014,0.0));
#287=DIRECTION('',(0.0,1.0,0.0));
#288=AXIS2_PLACEMENT_3D('',#285,#286,#287);
#289=CONICAL_SURFACE('',#288,0.412422914701950,1.749999999999994);
#290=CARTESIAN_POINT('',(3.831088209940179,0.420627098276587,0.0));
#291=VERTEX_POINT('',#290);
#292=CARTESIAN_POINT('',(3.831088209940186,0.015781268872687,0.0));
#293=DIRECTION('',(1.0,0.0,0.0));
#294=DIRECTION('',(0.0,1.0,0.0));
#295=AXIS2_PLACEMENT_3D('',#292,#293,#294);
#296=CIRCLE('',#295,0.404845829403900);
#297=EDGE_CURVE('',#291,#291,#296,.T.);
#298=ORIENTED_EDGE('',*,*,#297,.F.);
#299=EDGE_LOOP('',(#298));
#300=FACE_OUTER_BOUND('',#299,.T.);
#301=ORIENTED_EDGE('',*,*,#280,.T.);
#302=EDGE_LOOP('',(#301));
#303=FACE_BOUND('',#302,.T.);
#304=ADVANCED_FACE('',(#300,#303),#289,.F.);
#305=CARTESIAN_POINT('',(3.831088209940179,0.355921517507640,0.0));
#306=DIRECTION('',(1.0,0.0,0.0));
#307=DIRECTION('',(0.0,0.0,-1.0));
#308=AXIS2_PLACEMENT_3D('',#305,#306,#307);
#309=PLANE('',#308);
#310=ORIENTED_EDGE('',*,*,#297,.T.);
#311=EDGE_LOOP('',(#310));
#312=FACE_OUTER_BOUND('',#311,.T.);
#313=CARTESIAN_POINT('',(3.831088209940179,0.291215936738693,0.0));
#314=VERTEX_POINT('',#313);
#315=CARTESIAN_POINT('',(3.831088209940184,0.015781268872687,0.0));
#316=DIRECTION('',(1.0,0.0,0.0));
#317=DIRECTION('',(0.0,1.0,0.0));
#318=AXIS2_PLACEMENT_3D('',#315,#316,#317);
#319=CIRCLE('',#318,0.275434667866006);
#320=EDGE_CURVE('',#314,#314,#319,.T.);
#321=ORIENTED_EDGE('',*,*,#320,.F.);
#322=EDGE_LOOP('',(#321));
#323=FACE_BOUND('',#322,.T.);
#324=ADVANCED_FACE('',(#312,#323),#309,.T.);
#325=CARTESIAN_POINT('',(1.367930529351014,0.015781268872646,0.0));
#326=DIRECTION('',(1.0,1.660062E-014,0.0));
#327=DIRECTION('',(0.0,1.0,0.0));
#328=AXIS2_PLACEMENT_3D('',#325,#326,#327);
#329=CYLINDRICAL_SURFACE('',#328,0.275434667866006);
#330=CARTESIAN_POINT('',(-1.095227151238159,0.291215936738611,0.0));
#331=VERTEX_POINT('',#330);
#332=CARTESIAN_POINT('',(-1.095227151238155,0.015781268872605,0.0));
#333=DIRECTION('',(1.0,0.0,0.0));
#334=DIRECTION('',(0.0,1.0,0.0));
#335=AXIS2_PLACEMENT_3D('',#332,#333,#334);
#336=CIRCLE('',#335,0.275434667866006);
#337=EDGE_CURVE('',#331,#331,#336,.T.);
#338=ORIENTED_EDGE('',*,*,#337,.F.);
#339=EDGE_LOOP('',(#338));
#340=FACE_OUTER_BOUND('',#339,.T.);
#341=ORIENTED_EDGE('',*,*,#87,.T.);
#342=ORIENTED_EDGE('',*,*,#209,.T.);
#343=ORIENTED_EDGE('',*,*,#112,.T.);
#344=ORIENTED_EDGE('',*,*,#227,.T.);
#345=EDGE_LOOP('',(#341,#342,#343,#344));
#346=FACE_BOUND('',#345,.T.);
#347=ORIENTED_EDGE('',*,*,#320,.T.);
#348=EDGE_LOOP('',(#347));
#349=FACE_BOUND('',#348,.T.);
#350=ADVANCED_FACE('',(#340,#346,#349),#329,.F.);
#351=CARTESIAN_POINT('',(-1.134069470648985,0.015781268872604,0.0));
#352=DIRECTION('',(-1.0,-1.660062E-014,0.0));
#353=DIRECTION('',(0.0,1.0,0.0));
#354=AXIS2_PLACEMENT_3D('',#351,#352,#353);
#355=CONICAL_SURFACE('',#354,0.340079143108356,58.999999999999964);
#356=CARTESIAN_POINT('',(-1.172911790059822,0.420504887223309,0.0));
#357=VERTEX_POINT('',#356);
#358=CARTESIAN_POINT('',(-1.172911790059815,0.015781268872604,0.0));
#359=DIRECTION('',(1.0,0.0,0.0));
#360=DIRECTION('',(0.0,1.0,0.0));
#361=AXIS2_PLACEMENT_3D('',#358,#359,#360);
#362=CIRCLE('',#361,0.404723618350705);
#363=EDGE_CURVE('',#357,#357,#362,.T.);
#364=ORIENTED_EDGE('',*,*,#363,.F.);
#365=EDGE_LOOP('',(#364));
#366=FACE_OUTER_BOUND('',#365,.T.);
#367=ORIENTED_EDGE('',*,*,#337,.T.);
#368=EDGE_LOOP('',(#367));
#369=FACE_BOUND('',#368,.T.);
#370=ADVANCED_FACE('',(#366,#369),#355,.F.);
#371=CARTESIAN_POINT('',(-1.422911790059815,0.015781268872600,0.0));
#372=DIRECTION('',(-1.0,-1.660062E-014,0.0));
#373=DIRECTION('',(0.0,1.0,0.0));
#374=AXIS2_PLACEMENT_3D('',#371,#372,#373);
#375=CONICAL_SURFACE('',#374,0.412361809175353,1.750000000000011);
#376=CARTESIAN_POINT('',(-1.672911790059822,0.435781268872595,0.0));
#377=VERTEX_POINT('',#376);
#378=CARTESIAN_POINT('',(-1.672911790059815,0.015781268872595,0.0));
#379=DIRECTION('',(1.0,0.0,0.0));
#380=DIRECTION('',(0.0,1.0,0.0));
#381=AXIS2_PLACEMENT_3D('',#378,#379,#380);
#382=CIRCLE('',#381,0.420000000000000);
#383=EDGE_CURVE('',#377,#377,#382,.T.);
#384=ORIENTED_EDGE('',*,*,#383,.F.);
#385=EDGE_LOOP('',(#384));
#386=FACE_OUTER_BOUND('',#385,.T.);
#387=ORIENTED_EDGE('',*,*,#363,.T.);
#388=EDGE_LOOP('',(#387));
#389=FACE_BOUND('',#388,.T.);
#390=ADVANCED_FACE('',(#386,#389),#375,.F.);
#391=CARTESIAN_POINT('',(-1.672911790059822,0.538281268872596,0.0));
#392=DIRECTION('',(-1.0,0.0,0.0));
#393=DIRECTION('',(0.0,0.0,1.0));
#394=AXIS2_PLACEMENT_3D('',#391,#392,#393);
#395=PLANE('',#394);
#396=ORIENTED_EDGE('',*,*,#260,.F.);
#397=EDGE_LOOP('',(#396));
#398=FACE_OUTER_BOUND('',#397,.T.);
#399=ORIENTED_EDGE('',*,*,#383,.T.);
#400=EDGE_LOOP('',(#399));
#401=FACE_BOUND('',#400,.T.);
#402=ADVANCED_FACE('',(#398,#401),#395,.T.);
#403=CLOSED_SHELL('',(#98,#123,#232,#264,#284,#304,#324,#350,#370,#390,#402));
#404=MANIFOLD_SOLID_BREP('',#403);
#405=COLOUR_RGB('Metal-Gold',0.752941012382507,0.607842981815338,0.227450996637344);
#406=FILL_AREA_STYLE_COLOUR('Metal-Gold',#405);
#407=FILL_AREA_STYLE('Metal-Gold',(#406));
#408=SURFACE_STYLE_FILL_AREA(#407);
#409=SURFACE_SIDE_STYLE('Metal-Gold',(#408));
#410=SURFACE_STYLE_USAGE(.BOTH.,#409);
#411=PRESENTATION_STYLE_ASSIGNMENT((#410));
#412=STYLED_ITEM('',(#411),#404);
#413=MECHANICAL_DESIGN_GEOMETRIC_PRESENTATION_REPRESENTATION('',(#412),#42);
#414=ADVANCED_BREP_SHAPE_REPRESENTATION('ABSR',(#404),#42);
#415=SHAPE_REPRESENTATION_RELATIONSHIP('SRR','None',#414,#47);
ENDSEC;
END-ISO-10303-21;
