ISO-10303-21;
HEADER;
FILE_DESCRIPTION( ( 'STEP AP214' ), '1' );
FILE_NAME( '//goodhand-server/Shared Folders/GoodHand Data/Kipp CAD/K0353/K0353.12.stp', '2020-12-03T14:10:05', ( '' ), ( '' ), ' ', 'PARTsolutions', ' ' );
FILE_SCHEMA( ( 'AUTOMOTIVE_DESIGN { 1 0 10303 214 1 1 1 1 }' ) );
ENDSEC;
DATA;
#1 = MECHANICAL_DESIGN_GEOMETRIC_PRESENTATION_REPRESENTATION( ' ', ( #10, #11, #12, #13, #14, #15, #16, #17, #18 ), #6 );
#2 = PRODUCT_DEFINITION_CONTEXT( '', #19, 'design' );
#3 = APPLICATION_PROTOCOL_DEFINITION( 'international standard', 'automotive_design', 2001, #19 );
#4 = PRODUCT_CATEGORY_RELATIONSHIP( 'NONE', 'NONE', #20, #21 );
#5 = SHAPE_DEFINITION_REPRESENTATION( #22, #23 );
#6 =  ( GEOMETRIC_REPRESENTATION_CONTEXT( 3 )GLOBAL_UNCERTAINTY_ASSIGNED_CONTEXT( ( #26 ) )GLOBAL_UNIT_ASSIGNED_CONTEXT( ( #28, #29, #30 ) )REPRESENTATION_CONTEXT( 'NONE', 'WORKSPACE' ) );
#10 = STYLED_ITEM( '', ( #32 ), #33 );
#11 = STYLED_ITEM( '', ( #34 ), #35 );
#12 = STYLED_ITEM( '', ( #36 ), #37 );
#13 = STYLED_ITEM( '', ( #38 ), #39 );
#14 = STYLED_ITEM( '', ( #40 ), #41 );
#15 = STYLED_ITEM( '', ( #42 ), #43 );
#16 = STYLED_ITEM( '', ( #44 ), #45 );
#17 = STYLED_ITEM( '', ( #46 ), #47 );
#18 = STYLED_ITEM( '', ( #48 ), #49 );
#19 = APPLICATION_CONTEXT( 'core data for automotive mechanical design processes' );
#20 = PRODUCT_CATEGORY( 'part', 'NONE' );
#21 = PRODUCT_RELATED_PRODUCT_CATEGORY( 'detail', ' ', ( #50 ) );
#22 = PRODUCT_DEFINITION_SHAPE( 'NONE', 'NONE', #51 );
#23 = ADVANCED_BREP_SHAPE_REPRESENTATION( '_K0353.12', ( #52, #53 ), #6 );
#26 = UNCERTAINTY_MEASURE_WITH_UNIT( LENGTH_MEASURE( 0.00100000000000000 ), #28, '', '' );
#28 =  ( CONVERSION_BASED_UNIT( 'MILLIMETRE', #56 )LENGTH_UNIT(  )NAMED_UNIT( #59 ) );
#29 =  ( NAMED_UNIT( #61 )PLANE_ANGLE_UNIT(  )SI_UNIT( $, .RADIAN. ) );
#30 =  ( NAMED_UNIT( #61 )SI_UNIT( $, .STERADIAN. )SOLID_ANGLE_UNIT(  ) );
#32 = PRESENTATION_STYLE_ASSIGNMENT( ( #67 ) );
#33 = ADVANCED_FACE( '', ( #68 ), #69, .F. );
#34 = PRESENTATION_STYLE_ASSIGNMENT( ( #70 ) );
#35 = ADVANCED_FACE( '', ( #71, #72 ), #73, .F. );
#36 = PRESENTATION_STYLE_ASSIGNMENT( ( #74 ) );
#37 = ADVANCED_FACE( '', ( #75, #76 ), #77, .T. );
#38 = PRESENTATION_STYLE_ASSIGNMENT( ( #78 ) );
#39 = ADVANCED_FACE( '', ( #79, #80 ), #81, .T. );
#40 = PRESENTATION_STYLE_ASSIGNMENT( ( #82 ) );
#41 = ADVANCED_FACE( '', ( #83, #84 ), #85, .F. );
#42 = PRESENTATION_STYLE_ASSIGNMENT( ( #86 ) );
#43 = ADVANCED_FACE( '', ( #87, #88 ), #89, .T. );
#44 = PRESENTATION_STYLE_ASSIGNMENT( ( #90 ) );
#45 = ADVANCED_FACE( '', ( #91 ), #92, .F. );
#46 = PRESENTATION_STYLE_ASSIGNMENT( ( #93 ) );
#47 = ADVANCED_FACE( '', ( #94, #95 ), #96, .T. );
#48 = PRESENTATION_STYLE_ASSIGNMENT( ( #97 ) );
#49 = ADVANCED_FACE( '', ( #98, #99 ), #100, .T. );
#50 = PRODUCT( '_K0353.12', '_K0353.12', 'PART-_K0353.12-DESC', ( #101 ) );
#51 = PRODUCT_DEFINITION( 'NONE', 'NONE', #102, #2 );
#52 = MANIFOLD_SOLID_BREP( '_K0353.12', #103 );
#53 = AXIS2_PLACEMENT_3D( '', #104, #105, #106 );
#56 = LENGTH_MEASURE_WITH_UNIT( LENGTH_MEASURE( 1.00000000000000 ), #107 );
#59 = DIMENSIONAL_EXPONENTS( 1.00000000000000, 0.000000000000000, 0.000000000000000, 0.000000000000000, 0.000000000000000, 0.000000000000000, 0.000000000000000 );
#61 = DIMENSIONAL_EXPONENTS( 0.000000000000000, 0.000000000000000, 0.000000000000000, 0.000000000000000, 0.000000000000000, 0.000000000000000, 0.000000000000000 );
#67 = SURFACE_STYLE_USAGE( .BOTH., #108 );
#68 = FACE_OUTER_BOUND( '', #109, .T. );
#69 = PLANE( '', #110 );
#70 = SURFACE_STYLE_USAGE( .BOTH., #111 );
#71 = FACE_OUTER_BOUND( '', #112, .T. );
#72 = FACE_BOUND( '', #113, .T. );
#73 = PLANE( '', #114 );
#74 = SURFACE_STYLE_USAGE( .BOTH., #115 );
#75 = FACE_OUTER_BOUND( '', #116, .T. );
#76 = FACE_BOUND( '', #117, .T. );
#77 = CONICAL_SURFACE( '', #118, 8.44615242270000, 0.261799387800000 );
#78 = SURFACE_STYLE_USAGE( .BOTH., #119 );
#79 = FACE_BOUND( '', #120, .T. );
#80 = FACE_OUTER_BOUND( '', #121, .T. );
#81 = CONICAL_SURFACE( '', #122, 6.00000000000000, 0.785398163400000 );
#82 = SURFACE_STYLE_USAGE( .BOTH., #123 );
#83 = FACE_BOUND( '', #124, .T. );
#84 = FACE_OUTER_BOUND( '', #125, .T. );
#85 = PLANE( '', #126 );
#86 = SURFACE_STYLE_USAGE( .BOTH., #127 );
#87 = FACE_OUTER_BOUND( '', #128, .T. );
#88 = FACE_OUTER_BOUND( '', #129, .T. );
#89 = CYLINDRICAL_SURFACE( '', #130, 6.00000000000000 );
#90 = SURFACE_STYLE_USAGE( .BOTH., #131 );
#91 = FACE_OUTER_BOUND( '', #132, .T. );
#92 = PLANE( '', #133 );
#93 = SURFACE_STYLE_USAGE( .BOTH., #134 );
#94 = FACE_OUTER_BOUND( '', #135, .T. );
#95 = FACE_OUTER_BOUND( '', #136, .T. );
#96 = CYLINDRICAL_SURFACE( '', #137, 5.85000000000000 );
#97 = SURFACE_STYLE_USAGE( .BOTH., #138 );
#98 = FACE_OUTER_BOUND( '', #139, .T. );
#99 = FACE_OUTER_BOUND( '', #140, .T. );
#100 = CYLINDRICAL_SURFACE( '', #141, 9.25000000000000 );
#101 = PRODUCT_CONTEXT( '', #19, 'mechanical' );
#102 = PRODUCT_DEFINITION_FORMATION_WITH_SPECIFIED_SOURCE( ' ', 'NONE', #50, .NOT_KNOWN. );
#103 = CLOSED_SHELL( '', ( #39, #43, #35, #47, #41, #49, #37, #45, #33 ) );
#104 = CARTESIAN_POINT( '', ( 0.000000000000000, 0.000000000000000, 0.000000000000000 ) );
#105 = DIRECTION( '', ( 0.000000000000000, 0.000000000000000, 1.00000000000000 ) );
#106 = DIRECTION( '', ( 1.00000000000000, 0.000000000000000, 0.000000000000000 ) );
#107 =  ( LENGTH_UNIT(  )NAMED_UNIT( #59 )SI_UNIT( .MILLI., .METRE. ) );
#108 = SURFACE_SIDE_STYLE( '', ( #143 ) );
#109 = EDGE_LOOP( '', ( #144 ) );
#110 = AXIS2_PLACEMENT_3D( '', #145, #146, #147 );
#111 = SURFACE_SIDE_STYLE( '', ( #148 ) );
#112 = EDGE_LOOP( '', ( #149 ) );
#113 = EDGE_LOOP( '', ( #150 ) );
#114 = AXIS2_PLACEMENT_3D( '', #151, #152, #153 );
#115 = SURFACE_SIDE_STYLE( '', ( #154 ) );
#116 = EDGE_LOOP( '', ( #155 ) );
#117 = EDGE_LOOP( '', ( #156 ) );
#118 = AXIS2_PLACEMENT_3D( '', #157, #158, #159 );
#119 = SURFACE_SIDE_STYLE( '', ( #160 ) );
#120 = EDGE_LOOP( '', ( #161 ) );
#121 = EDGE_LOOP( '', ( #162 ) );
#122 = AXIS2_PLACEMENT_3D( '', #163, #164, #165 );
#123 = SURFACE_SIDE_STYLE( '', ( #166 ) );
#124 = EDGE_LOOP( '', ( #167 ) );
#125 = EDGE_LOOP( '', ( #168 ) );
#126 = AXIS2_PLACEMENT_3D( '', #169, #170, #171 );
#127 = SURFACE_SIDE_STYLE( '', ( #172 ) );
#128 = EDGE_LOOP( '', ( #173 ) );
#129 = EDGE_LOOP( '', ( #174 ) );
#130 = AXIS2_PLACEMENT_3D( '', #175, #176, #177 );
#131 = SURFACE_SIDE_STYLE( '', ( #178 ) );
#132 = EDGE_LOOP( '', ( #179 ) );
#133 = AXIS2_PLACEMENT_3D( '', #180, #181, #182 );
#134 = SURFACE_SIDE_STYLE( '', ( #183 ) );
#135 = EDGE_LOOP( '', ( #184 ) );
#136 = EDGE_LOOP( '', ( #185 ) );
#137 = AXIS2_PLACEMENT_3D( '', #186, #187, #188 );
#138 = SURFACE_SIDE_STYLE( '', ( #189 ) );
#139 = EDGE_LOOP( '', ( #190 ) );
#140 = EDGE_LOOP( '', ( #191 ) );
#141 = AXIS2_PLACEMENT_3D( '', #192, #193, #194 );
#143 = SURFACE_STYLE_FILL_AREA( #195 );
#144 = ORIENTED_EDGE( '', *, *, #196, .T. );
#145 = CARTESIAN_POINT( '', ( 0.000000000000000, -12.0000000000000, -4.00000000000000 ) );
#146 = DIRECTION( '', ( 0.000000000000000, 1.00000000000000, 0.000000000000000 ) );
#147 = DIRECTION( '', ( 0.000000000000000, -0.000000000000000, 1.00000000000000 ) );
#148 = SURFACE_STYLE_FILL_AREA( #197 );
#149 = ORIENTED_EDGE( '', *, *, #198, .F. );
#150 = ORIENTED_EDGE( '', *, *, #199, .T. );
#151 = CARTESIAN_POINT( '', ( 0.000000000000000, -1.00000000000000, -5.85000000000000 ) );
#152 = DIRECTION( '', ( 0.000000000000000, -1.00000000000000, -0.000000000000000 ) );
#153 = DIRECTION( '', ( 0.000000000000000, 0.000000000000000, -1.00000000000000 ) );
#154 = SURFACE_STYLE_FILL_AREA( #200 );
#155 = ORIENTED_EDGE( '', *, *, #201, .F. );
#156 = ORIENTED_EDGE( '', *, *, #202, .T. );
#157 = CARTESIAN_POINT( '', ( 0.000000000000000, 8.00000000000000, 0.000000000000000 ) );
#158 = DIRECTION( '', ( -0.000000000000000, -1.00000000000000, -0.000000000000000 ) );
#159 = DIRECTION( '', ( 0.000000000000000, 0.000000000000000, -1.00000000000000 ) );
#160 = SURFACE_STYLE_FILL_AREA( #203 );
#161 = ORIENTED_EDGE( '', *, *, #196, .F. );
#162 = ORIENTED_EDGE( '', *, *, #204, .T. );
#163 = CARTESIAN_POINT( '', ( 0.000000000000000, -10.0000000000000, 0.000000000000000 ) );
#164 = DIRECTION( '', ( -0.000000000000000, 1.00000000000000, 0.000000000000000 ) );
#165 = DIRECTION( '', ( 0.000000000000000, -0.000000000000000, 1.00000000000000 ) );
#166 = SURFACE_STYLE_FILL_AREA( #205 );
#167 = ORIENTED_EDGE( '', *, *, #206, .F. );
#168 = ORIENTED_EDGE( '', *, *, #207, .T. );
#169 = CARTESIAN_POINT( '', ( 0.000000000000000, 0.000000000000000, -9.25000000000000 ) );
#170 = DIRECTION( '', ( 0.000000000000000, 1.00000000000000, 0.000000000000000 ) );
#171 = DIRECTION( '', ( 0.000000000000000, -0.000000000000000, 1.00000000000000 ) );
#172 = SURFACE_STYLE_FILL_AREA( #208 );
#173 = ORIENTED_EDGE( '', *, *, #204, .F. );
#174 = ORIENTED_EDGE( '', *, *, #198, .T. );
#175 = CARTESIAN_POINT( '', ( 0.000000000000000, -12.0000000000000, 0.000000000000000 ) );
#176 = DIRECTION( '', ( -0.000000000000000, 1.00000000000000, 0.000000000000000 ) );
#177 = DIRECTION( '', ( 0.000000000000000, 0.000000000000000, -1.00000000000000 ) );
#178 = SURFACE_STYLE_FILL_AREA( #209 );
#179 = ORIENTED_EDGE( '', *, *, #202, .F. );
#180 = CARTESIAN_POINT( '', ( 0.000000000000000, 8.00000000000000, 0.000000000000000 ) );
#181 = DIRECTION( '', ( 0.000000000000000, -1.00000000000000, -0.000000000000000 ) );
#182 = DIRECTION( '', ( 0.000000000000000, 0.000000000000000, -1.00000000000000 ) );
#183 = SURFACE_STYLE_FILL_AREA( #210 );
#184 = ORIENTED_EDGE( '', *, *, #199, .F. );
#185 = ORIENTED_EDGE( '', *, *, #206, .T. );
#186 = CARTESIAN_POINT( '', ( 0.000000000000000, -12.0000000000000, 0.000000000000000 ) );
#187 = DIRECTION( '', ( -0.000000000000000, 1.00000000000000, 0.000000000000000 ) );
#188 = DIRECTION( '', ( 0.000000000000000, 0.000000000000000, -1.00000000000000 ) );
#189 = SURFACE_STYLE_FILL_AREA( #211 );
#190 = ORIENTED_EDGE( '', *, *, #207, .F. );
#191 = ORIENTED_EDGE( '', *, *, #201, .T. );
#192 = CARTESIAN_POINT( '', ( 0.000000000000000, -12.0000000000000, 0.000000000000000 ) );
#193 = DIRECTION( '', ( -0.000000000000000, 1.00000000000000, 0.000000000000000 ) );
#194 = DIRECTION( '', ( 0.000000000000000, 0.000000000000000, -1.00000000000000 ) );
#195 = FILL_AREA_STYLE( '', ( #212 ) );
#196 = EDGE_CURVE( '', #213, #213, #214, .T. );
#197 = FILL_AREA_STYLE( '', ( #215 ) );
#198 = EDGE_CURVE( '', #216, #216, #217, .T. );
#199 = EDGE_CURVE( '', #218, #218, #219, .T. );
#200 = FILL_AREA_STYLE( '', ( #220 ) );
#201 = EDGE_CURVE( '', #221, #221, #222, .T. );
#202 = EDGE_CURVE( '', #223, #223, #224, .T. );
#203 = FILL_AREA_STYLE( '', ( #225 ) );
#204 = EDGE_CURVE( '', #226, #226, #227, .T. );
#205 = FILL_AREA_STYLE( '', ( #228 ) );
#206 = EDGE_CURVE( '', #229, #229, #230, .T. );
#207 = EDGE_CURVE( '', #231, #231, #232, .T. );
#208 = FILL_AREA_STYLE( '', ( #233 ) );
#209 = FILL_AREA_STYLE( '', ( #234 ) );
#210 = FILL_AREA_STYLE( '', ( #235 ) );
#211 = FILL_AREA_STYLE( '', ( #236 ) );
#212 = FILL_AREA_STYLE_COLOUR( '', #237 );
#213 = VERTEX_POINT( '', #238 );
#214 = CIRCLE( '', #239, 4.00000000000000 );
#215 = FILL_AREA_STYLE_COLOUR( '', #240 );
#216 = VERTEX_POINT( '', #241 );
#217 = CIRCLE( '', #242, 6.00000000000000 );
#218 = VERTEX_POINT( '', #243 );
#219 = CIRCLE( '', #244, 5.85000000000000 );
#220 = FILL_AREA_STYLE_COLOUR( '', #245 );
#221 = VERTEX_POINT( '', #246 );
#222 = CIRCLE( '', #247, 9.25000000000000 );
#223 = VERTEX_POINT( '', #248 );
#224 = CIRCLE( '', #249, 8.44615242270000 );
#225 = FILL_AREA_STYLE_COLOUR( '', #250 );
#226 = VERTEX_POINT( '', #251 );
#227 = CIRCLE( '', #252, 6.00000000000000 );
#228 = FILL_AREA_STYLE_COLOUR( '', #253 );
#229 = VERTEX_POINT( '', #254 );
#230 = CIRCLE( '', #255, 5.85000000000000 );
#231 = VERTEX_POINT( '', #256 );
#232 = CIRCLE( '', #257, 9.25000000000000 );
#233 = FILL_AREA_STYLE_COLOUR( '', #258 );
#234 = FILL_AREA_STYLE_COLOUR( '', #259 );
#235 = FILL_AREA_STYLE_COLOUR( '', #260 );
#236 = FILL_AREA_STYLE_COLOUR( '', #261 );
#237 = COLOUR_RGB( '', 0.689999997600000, 0.689999997600000, 0.689999997600000 );
#238 = CARTESIAN_POINT( '', ( 0.000000000000000, -12.0000000000000, -4.00000000000000 ) );
#239 = AXIS2_PLACEMENT_3D( '', #262, #263, #264 );
#240 = COLOUR_RGB( '', 0.689999997600000, 0.689999997600000, 0.689999997600000 );
#241 = CARTESIAN_POINT( '', ( 0.000000000000000, -1.00000000000000, -6.00000000000000 ) );
#242 = AXIS2_PLACEMENT_3D( '', #265, #266, #267 );
#243 = CARTESIAN_POINT( '', ( 0.000000000000000, -1.00000000000000, -5.85000000000000 ) );
#244 = AXIS2_PLACEMENT_3D( '', #268, #269, #270 );
#245 = COLOUR_RGB( '', 0.689999997600000, 0.689999997600000, 0.689999997600000 );
#246 = CARTESIAN_POINT( '', ( 0.000000000000000, 5.00000000000000, -9.25000000000000 ) );
#247 = AXIS2_PLACEMENT_3D( '', #271, #272, #273 );
#248 = CARTESIAN_POINT( '', ( 0.000000000000000, 8.00000000000000, -8.44615242270663 ) );
#249 = AXIS2_PLACEMENT_3D( '', #274, #275, #276 );
#250 = COLOUR_RGB( '', 0.689999997600000, 0.689999997600000, 0.689999997600000 );
#251 = CARTESIAN_POINT( '', ( 0.000000000000000, -10.0000000000000, -6.00000000000000 ) );
#252 = AXIS2_PLACEMENT_3D( '', #277, #278, #279 );
#253 = COLOUR_RGB( '', 0.689999997600000, 0.689999997600000, 0.689999997600000 );
#254 = CARTESIAN_POINT( '', ( 0.000000000000000, 0.000000000000000, -5.85000000000000 ) );
#255 = AXIS2_PLACEMENT_3D( '', #280, #281, #282 );
#256 = CARTESIAN_POINT( '', ( 0.000000000000000, 0.000000000000000, -9.25000000000000 ) );
#257 = AXIS2_PLACEMENT_3D( '', #283, #284, #285 );
#258 = COLOUR_RGB( '', 0.689999997600000, 0.689999997600000, 0.689999997600000 );
#259 = COLOUR_RGB( '', 0.689999997600000, 0.689999997600000, 0.689999997600000 );
#260 = COLOUR_RGB( '', 0.689999997600000, 0.689999997600000, 0.689999997600000 );
#261 = COLOUR_RGB( '', 0.689999997600000, 0.689999997600000, 0.689999997600000 );
#262 = CARTESIAN_POINT( '', ( 0.000000000000000, -12.0000000000000, 0.000000000000000 ) );
#263 = DIRECTION( '', ( 0.000000000000000, -1.00000000000000, -0.000000000000000 ) );
#264 = DIRECTION( '', ( 0.000000000000000, 0.000000000000000, -1.00000000000000 ) );
#265 = CARTESIAN_POINT( '', ( 0.000000000000000, -1.00000000000000, 0.000000000000000 ) );
#266 = DIRECTION( '', ( 0.000000000000000, -1.00000000000000, -0.000000000000000 ) );
#267 = DIRECTION( '', ( 0.000000000000000, 0.000000000000000, -1.00000000000000 ) );
#268 = CARTESIAN_POINT( '', ( 0.000000000000000, -1.00000000000000, 0.000000000000000 ) );
#269 = DIRECTION( '', ( 0.000000000000000, -1.00000000000000, -0.000000000000000 ) );
#270 = DIRECTION( '', ( 0.000000000000000, 0.000000000000000, -1.00000000000000 ) );
#271 = CARTESIAN_POINT( '', ( 0.000000000000000, 5.00000000000000, 0.000000000000000 ) );
#272 = DIRECTION( '', ( 0.000000000000000, -1.00000000000000, -0.000000000000000 ) );
#273 = DIRECTION( '', ( 0.000000000000000, 0.000000000000000, -1.00000000000000 ) );
#274 = CARTESIAN_POINT( '', ( 0.000000000000000, 8.00000000000000, 0.000000000000000 ) );
#275 = DIRECTION( '', ( 0.000000000000000, -1.00000000000000, -0.000000000000000 ) );
#276 = DIRECTION( '', ( 0.000000000000000, 0.000000000000000, -1.00000000000000 ) );
#277 = CARTESIAN_POINT( '', ( 0.000000000000000, -10.0000000000000, 0.000000000000000 ) );
#278 = DIRECTION( '', ( 0.000000000000000, -1.00000000000000, -0.000000000000000 ) );
#279 = DIRECTION( '', ( 0.000000000000000, 0.000000000000000, -1.00000000000000 ) );
#280 = CARTESIAN_POINT( '', ( 0.000000000000000, 0.000000000000000, 0.000000000000000 ) );
#281 = DIRECTION( '', ( 0.000000000000000, -1.00000000000000, -0.000000000000000 ) );
#282 = DIRECTION( '', ( 0.000000000000000, 0.000000000000000, -1.00000000000000 ) );
#283 = CARTESIAN_POINT( '', ( 0.000000000000000, 0.000000000000000, 0.000000000000000 ) );
#284 = DIRECTION( '', ( 0.000000000000000, -1.00000000000000, -0.000000000000000 ) );
#285 = DIRECTION( '', ( 0.000000000000000, 0.000000000000000, -1.00000000000000 ) );
ENDSEC;
END-ISO-10303-21;
