ISO-10303-21;
HEADER;
FILE_DESCRIPTION( ( 'STEP AP214' ), '1' );
FILE_NAME( '//goodhand-server/Shared Folders/GoodHand Data/Kipp CAD/K0676/K0676.2008X040.stp', '2020-12-09T11:09:36', ( '' ), ( '' ), ' ', 'PARTsolutions', ' ' );
FILE_SCHEMA( ( 'AUTOMOTIVE_DESIGN { 1 0 10303 214 1 1 1 1 }' ) );
ENDSEC;
DATA;
#1 = MECHANICAL_DESIGN_GEOMETRIC_PRESENTATION_REPRESENTATION( ' ', ( #10, #11, #12, #13, #14, #15, #16, #17, #18, #19, #20 ), #6 );
#2 = PRODUCT_DEFINITION_CONTEXT( '', #21, 'design' );
#3 = APPLICATION_PROTOCOL_DEFINITION( 'international standard', 'automotive_design', 2001, #21 );
#4 = PRODUCT_CATEGORY_RELATIONSHIP( 'NONE', 'NONE', #22, #23 );
#5 = SHAPE_DEFINITION_REPRESENTATION( #24, #25 );
#6 =  ( GEOMETRIC_REPRESENTATION_CONTEXT( 3 )GLOBAL_UNCERTAINTY_ASSIGNED_CONTEXT( ( #28 ) )GLOBAL_UNIT_ASSIGNED_CONTEXT( ( #30, #31, #32 ) )REPRESENTATION_CONTEXT( 'NONE', 'WORKSPACE' ) );
#10 = STYLED_ITEM( '', ( #34 ), #35 );
#11 = STYLED_ITEM( '', ( #36 ), #37 );
#12 = STYLED_ITEM( '', ( #38 ), #39 );
#13 = STYLED_ITEM( '', ( #40 ), #41 );
#14 = STYLED_ITEM( '', ( #42 ), #43 );
#15 = STYLED_ITEM( '', ( #44 ), #45 );
#16 = STYLED_ITEM( '', ( #46 ), #47 );
#17 = STYLED_ITEM( '', ( #48 ), #49 );
#18 = STYLED_ITEM( '', ( #50 ), #51 );
#19 = STYLED_ITEM( '', ( #52 ), #53 );
#20 = STYLED_ITEM( '', ( #54 ), #55 );
#21 = APPLICATION_CONTEXT( 'core data for automotive mechanical design processes' );
#22 = PRODUCT_CATEGORY( 'part', 'NONE' );
#23 = PRODUCT_RELATED_PRODUCT_CATEGORY( 'detail', ' ', ( #56 ) );
#24 = PRODUCT_DEFINITION_SHAPE( 'NONE', 'NONE', #57 );
#25 = ADVANCED_BREP_SHAPE_REPRESENTATION( '_K0676.2008X040', ( #58, #59 ), #6 );
#28 = UNCERTAINTY_MEASURE_WITH_UNIT( LENGTH_MEASURE( 0.00100000000000000 ), #30, '', '' );
#30 =  ( CONVERSION_BASED_UNIT( 'MILLIMETRE', #62 )LENGTH_UNIT(  )NAMED_UNIT( #65 ) );
#31 =  ( NAMED_UNIT( #67 )PLANE_ANGLE_UNIT(  )SI_UNIT( $, .RADIAN. ) );
#32 =  ( NAMED_UNIT( #67 )SI_UNIT( $, .STERADIAN. )SOLID_ANGLE_UNIT(  ) );
#34 = PRESENTATION_STYLE_ASSIGNMENT( ( #73 ) );
#35 = ADVANCED_FACE( '', ( #74 ), #75, .F. );
#36 = PRESENTATION_STYLE_ASSIGNMENT( ( #76 ) );
#37 = ADVANCED_FACE( '', ( #77 ), #78, .F. );
#38 = PRESENTATION_STYLE_ASSIGNMENT( ( #79 ) );
#39 = ADVANCED_FACE( '', ( #80 ), #81, .T. );
#40 = PRESENTATION_STYLE_ASSIGNMENT( ( #82 ) );
#41 = ADVANCED_FACE( '', ( #83 ), #84, .T. );
#42 = PRESENTATION_STYLE_ASSIGNMENT( ( #85 ) );
#43 = ADVANCED_FACE( '', ( #86, #87 ), #88, .T. );
#44 = PRESENTATION_STYLE_ASSIGNMENT( ( #89 ) );
#45 = ADVANCED_FACE( '', ( #90 ), #91, .T. );
#46 = PRESENTATION_STYLE_ASSIGNMENT( ( #92 ) );
#47 = ADVANCED_FACE( '', ( #93, #94 ), #95, .T. );
#48 = PRESENTATION_STYLE_ASSIGNMENT( ( #96 ) );
#49 = ADVANCED_FACE( '', ( #97 ), #98, .T. );
#50 = PRESENTATION_STYLE_ASSIGNMENT( ( #99 ) );
#51 = ADVANCED_FACE( '', ( #100 ), #101, .T. );
#52 = PRESENTATION_STYLE_ASSIGNMENT( ( #102 ) );
#53 = ADVANCED_FACE( '', ( #103 ), #104, .T. );
#54 = PRESENTATION_STYLE_ASSIGNMENT( ( #105 ) );
#55 = ADVANCED_FACE( '', ( #106, #107 ), #108, .T. );
#56 = PRODUCT( '_K0676.2008X040', '_K0676.2008X040', 'PART-_K0676.2008X040-DESC', ( #109 ) );
#57 = PRODUCT_DEFINITION( 'NONE', 'NONE', #110, #2 );
#58 = MANIFOLD_SOLID_BREP( '_K0676.2008X040', #111 );
#59 = AXIS2_PLACEMENT_3D( '', #112, #113, #114 );
#62 = LENGTH_MEASURE_WITH_UNIT( LENGTH_MEASURE( 1.00000000000000 ), #115 );
#65 = DIMENSIONAL_EXPONENTS( 1.00000000000000, 0.000000000000000, 0.000000000000000, 0.000000000000000, 0.000000000000000, 0.000000000000000, 0.000000000000000 );
#67 = DIMENSIONAL_EXPONENTS( 0.000000000000000, 0.000000000000000, 0.000000000000000, 0.000000000000000, 0.000000000000000, 0.000000000000000, 0.000000000000000 );
#73 = SURFACE_STYLE_USAGE( .BOTH., #116 );
#74 = FACE_OUTER_BOUND( '', #117, .T. );
#75 = PLANE( '', #118 );
#76 = SURFACE_STYLE_USAGE( .BOTH., #119 );
#77 = FACE_OUTER_BOUND( '', #120, .T. );
#78 = PLANE( '', #121 );
#79 = SURFACE_STYLE_USAGE( .BOTH., #122 );
#80 = FACE_OUTER_BOUND( '', #123, .T. );
#81 = PLANE( '', #124 );
#82 = SURFACE_STYLE_USAGE( .BOTH., #125 );
#83 = FACE_OUTER_BOUND( '', #126, .T. );
#84 = PLANE( '', #127 );
#85 = SURFACE_STYLE_USAGE( .BOTH., #128 );
#86 = FACE_BOUND( '', #129, .T. );
#87 = FACE_OUTER_BOUND( '', #130, .T. );
#88 = PLANE( '', #131 );
#89 = SURFACE_STYLE_USAGE( .BOTH., #132 );
#90 = FACE_OUTER_BOUND( '', #133, .T. );
#91 = PLANE( '', #134 );
#92 = SURFACE_STYLE_USAGE( .BOTH., #135 );
#93 = FACE_OUTER_BOUND( '', #136, .T. );
#94 = FACE_BOUND( '', #137, .T. );
#95 = CONICAL_SURFACE( '', #138, 3.23300000000000, 0.785398163400000 );
#96 = SURFACE_STYLE_USAGE( .BOTH., #139 );
#97 = FACE_OUTER_BOUND( '', #140, .T. );
#98 = PLANE( '', #141 );
#99 = SURFACE_STYLE_USAGE( .BOTH., #142 );
#100 = FACE_OUTER_BOUND( '', #143, .T. );
#101 = PLANE( '', #144 );
#102 = SURFACE_STYLE_USAGE( .BOTH., #145 );
#103 = FACE_OUTER_BOUND( '', #146, .T. );
#104 = PLANE( '', #147 );
#105 = SURFACE_STYLE_USAGE( .BOTH., #148 );
#106 = FACE_OUTER_BOUND( '', #149, .T. );
#107 = FACE_OUTER_BOUND( '', #150, .T. );
#108 = CYLINDRICAL_SURFACE( '', #151, 4.00000000000000 );
#109 = PRODUCT_CONTEXT( '', #21, 'mechanical' );
#110 = PRODUCT_DEFINITION_FORMATION_WITH_SPECIFIED_SOURCE( ' ', 'NONE', #56, .NOT_KNOWN. );
#111 = CLOSED_SHELL( '', ( #51, #35, #41, #49, #53, #39, #45, #43, #37, #47, #55 ) );
#112 = CARTESIAN_POINT( '', ( 0.000000000000000, 0.000000000000000, 0.000000000000000 ) );
#113 = DIRECTION( '', ( 0.000000000000000, 0.000000000000000, 1.00000000000000 ) );
#114 = DIRECTION( '', ( 1.00000000000000, 0.000000000000000, 0.000000000000000 ) );
#115 =  ( LENGTH_UNIT(  )NAMED_UNIT( #65 )SI_UNIT( .MILLI., .METRE. ) );
#116 = SURFACE_SIDE_STYLE( '', ( #153 ) );
#117 = EDGE_LOOP( '', ( #154, #155, #156, #157, #158, #159 ) );
#118 = AXIS2_PLACEMENT_3D( '', #160, #161, #162 );
#119 = SURFACE_SIDE_STYLE( '', ( #163 ) );
#120 = EDGE_LOOP( '', ( #164 ) );
#121 = AXIS2_PLACEMENT_3D( '', #165, #166, #167 );
#122 = SURFACE_SIDE_STYLE( '', ( #168 ) );
#123 = EDGE_LOOP( '', ( #169, #170, #171, #172 ) );
#124 = AXIS2_PLACEMENT_3D( '', #173, #174, #175 );
#125 = SURFACE_SIDE_STYLE( '', ( #176 ) );
#126 = EDGE_LOOP( '', ( #177, #178, #179, #180 ) );
#127 = AXIS2_PLACEMENT_3D( '', #181, #182, #183 );
#128 = SURFACE_SIDE_STYLE( '', ( #184 ) );
#129 = EDGE_LOOP( '', ( #185 ) );
#130 = EDGE_LOOP( '', ( #186, #187, #188, #189, #190, #191 ) );
#131 = AXIS2_PLACEMENT_3D( '', #192, #193, #194 );
#132 = SURFACE_SIDE_STYLE( '', ( #195 ) );
#133 = EDGE_LOOP( '', ( #196, #197, #198, #199 ) );
#134 = AXIS2_PLACEMENT_3D( '', #200, #201, #202 );
#135 = SURFACE_SIDE_STYLE( '', ( #203 ) );
#136 = EDGE_LOOP( '', ( #204 ) );
#137 = EDGE_LOOP( '', ( #205 ) );
#138 = AXIS2_PLACEMENT_3D( '', #206, #207, #208 );
#139 = SURFACE_SIDE_STYLE( '', ( #209 ) );
#140 = EDGE_LOOP( '', ( #210, #211, #212, #213 ) );
#141 = AXIS2_PLACEMENT_3D( '', #214, #215, #216 );
#142 = SURFACE_SIDE_STYLE( '', ( #217 ) );
#143 = EDGE_LOOP( '', ( #218, #219, #220, #221 ) );
#144 = AXIS2_PLACEMENT_3D( '', #222, #223, #224 );
#145 = SURFACE_SIDE_STYLE( '', ( #225 ) );
#146 = EDGE_LOOP( '', ( #226, #227, #228, #229 ) );
#147 = AXIS2_PLACEMENT_3D( '', #230, #231, #232 );
#148 = SURFACE_SIDE_STYLE( '', ( #233 ) );
#149 = EDGE_LOOP( '', ( #234 ) );
#150 = EDGE_LOOP( '', ( #235 ) );
#151 = AXIS2_PLACEMENT_3D( '', #236, #237, #238 );
#153 = SURFACE_STYLE_FILL_AREA( #239 );
#154 = ORIENTED_EDGE( '', *, *, #240, .F. );
#155 = ORIENTED_EDGE( '', *, *, #241, .F. );
#156 = ORIENTED_EDGE( '', *, *, #242, .F. );
#157 = ORIENTED_EDGE( '', *, *, #243, .F. );
#158 = ORIENTED_EDGE( '', *, *, #244, .F. );
#159 = ORIENTED_EDGE( '', *, *, #245, .F. );
#160 = CARTESIAN_POINT( '', ( 0.000000000000000, 0.000000000000000, 0.000000000000000 ) );
#161 = DIRECTION( '', ( 0.000000000000000, 1.00000000000000, 0.000000000000000 ) );
#162 = DIRECTION( '', ( 0.000000000000000, -0.000000000000000, 1.00000000000000 ) );
#163 = SURFACE_STYLE_FILL_AREA( #246 );
#164 = ORIENTED_EDGE( '', *, *, #247, .F. );
#165 = CARTESIAN_POINT( '', ( 0.000000000000000, 47.0000000000000, 0.000000000000000 ) );
#166 = DIRECTION( '', ( 0.000000000000000, -1.00000000000000, -0.000000000000000 ) );
#167 = DIRECTION( '', ( 0.000000000000000, 0.000000000000000, -1.00000000000000 ) );
#168 = SURFACE_STYLE_FILL_AREA( #248 );
#169 = ORIENTED_EDGE( '', *, *, #249, .F. );
#170 = ORIENTED_EDGE( '', *, *, #250, .F. );
#171 = ORIENTED_EDGE( '', *, *, #244, .T. );
#172 = ORIENTED_EDGE( '', *, *, #251, .T. );
#173 = CARTESIAN_POINT( '', ( 0.000000000000000, 7.00000000000000, 11.5470053837925 ) );
#174 = DIRECTION( '', ( 0.499524110790929, -0.0436193873653360, 0.865201139495554 ) );
#175 = DIRECTION( '', ( 0.866025403784439, 0.000000000000000, -0.500000000000000 ) );
#176 = SURFACE_STYLE_FILL_AREA( #252 );
#177 = ORIENTED_EDGE( '', *, *, #253, .F. );
#178 = ORIENTED_EDGE( '', *, *, #254, .F. );
#179 = ORIENTED_EDGE( '', *, *, #242, .T. );
#180 = ORIENTED_EDGE( '', *, *, #255, .T. );
#181 = CARTESIAN_POINT( '', ( 10.0000000000000, 7.00000000000000, -5.77350269189626 ) );
#182 = DIRECTION( '', ( 0.499524110790929, -0.0436193873653360, -0.865201139495554 ) );
#183 = DIRECTION( '', ( -0.866025403784439, 0.000000000000000, -0.500000000000000 ) );
#184 = SURFACE_STYLE_FILL_AREA( #256 );
#185 = ORIENTED_EDGE( '', *, *, #257, .T. );
#186 = ORIENTED_EDGE( '', *, *, #258, .T. );
#187 = ORIENTED_EDGE( '', *, *, #259, .T. );
#188 = ORIENTED_EDGE( '', *, *, #249, .T. );
#189 = ORIENTED_EDGE( '', *, *, #260, .T. );
#190 = ORIENTED_EDGE( '', *, *, #253, .T. );
#191 = ORIENTED_EDGE( '', *, *, #261, .T. );
#192 = CARTESIAN_POINT( '', ( 0.000000000000000, 7.00000000000000, 0.000000000000000 ) );
#193 = DIRECTION( '', ( 0.000000000000000, 1.00000000000000, 0.000000000000000 ) );
#194 = DIRECTION( '', ( 0.000000000000000, -0.000000000000000, 1.00000000000000 ) );
#195 = SURFACE_STYLE_FILL_AREA( #262 );
#196 = ORIENTED_EDGE( '', *, *, #260, .F. );
#197 = ORIENTED_EDGE( '', *, *, #251, .F. );
#198 = ORIENTED_EDGE( '', *, *, #243, .T. );
#199 = ORIENTED_EDGE( '', *, *, #254, .T. );
#200 = CARTESIAN_POINT( '', ( 10.0000000000000, 7.00000000000000, 5.77350269189626 ) );
#201 = DIRECTION( '', ( 0.999048221581858, -0.0436193873653360, 0.000000000000000 ) );
#202 = DIRECTION( '', ( 0.0436193873653360, 0.999048221581858, 0.000000000000000 ) );
#203 = SURFACE_STYLE_FILL_AREA( #263 );
#204 = ORIENTED_EDGE( '', *, *, #264, .F. );
#205 = ORIENTED_EDGE( '', *, *, #247, .T. );
#206 = CARTESIAN_POINT( '', ( 0.000000000000000, 47.0000000000000, 0.000000000000000 ) );
#207 = DIRECTION( '', ( -0.000000000000000, -1.00000000000000, -0.000000000000000 ) );
#208 = DIRECTION( '', ( 0.000000000000000, 0.000000000000000, -1.00000000000000 ) );
#209 = SURFACE_STYLE_FILL_AREA( #265 );
#210 = ORIENTED_EDGE( '', *, *, #258, .F. );
#211 = ORIENTED_EDGE( '', *, *, #266, .F. );
#212 = ORIENTED_EDGE( '', *, *, #240, .T. );
#213 = ORIENTED_EDGE( '', *, *, #267, .T. );
#214 = CARTESIAN_POINT( '', ( -10.0000000000000, 7.00000000000000, -5.77350269189626 ) );
#215 = DIRECTION( '', ( -0.999048221581858, -0.0436193873653360, 0.000000000000000 ) );
#216 = DIRECTION( '', ( 0.0436193873653360, -0.999048221581858, 0.000000000000000 ) );
#217 = SURFACE_STYLE_FILL_AREA( #268 );
#218 = ORIENTED_EDGE( '', *, *, #261, .F. );
#219 = ORIENTED_EDGE( '', *, *, #255, .F. );
#220 = ORIENTED_EDGE( '', *, *, #241, .T. );
#221 = ORIENTED_EDGE( '', *, *, #266, .T. );
#222 = CARTESIAN_POINT( '', ( 0.000000000000000, 7.00000000000000, -11.5470053837925 ) );
#223 = DIRECTION( '', ( -0.499524110790929, -0.0436193873653360, -0.865201139495554 ) );
#224 = DIRECTION( '', ( -0.866025403784439, 0.000000000000000, 0.500000000000000 ) );
#225 = SURFACE_STYLE_FILL_AREA( #269 );
#226 = ORIENTED_EDGE( '', *, *, #259, .F. );
#227 = ORIENTED_EDGE( '', *, *, #267, .F. );
#228 = ORIENTED_EDGE( '', *, *, #245, .T. );
#229 = ORIENTED_EDGE( '', *, *, #250, .T. );
#230 = CARTESIAN_POINT( '', ( -10.0000000000000, 7.00000000000000, 5.77350269189626 ) );
#231 = DIRECTION( '', ( -0.499524110790929, -0.0436193873653360, 0.865201139495554 ) );
#232 = DIRECTION( '', ( 0.866025403784439, 0.000000000000000, 0.500000000000000 ) );
#233 = SURFACE_STYLE_FILL_AREA( #270 );
#234 = ORIENTED_EDGE( '', *, *, #257, .F. );
#235 = ORIENTED_EDGE( '', *, *, #264, .T. );
#236 = CARTESIAN_POINT( '', ( 0.000000000000000, 7.00000000000000, 0.000000000000000 ) );
#237 = DIRECTION( '', ( -0.000000000000000, 1.00000000000000, 0.000000000000000 ) );
#238 = DIRECTION( '', ( 0.000000000000000, 0.000000000000000, -1.00000000000000 ) );
#239 = FILL_AREA_STYLE( '', ( #271 ) );
#240 = EDGE_CURVE( '', #272, #273, #274, .T. );
#241 = EDGE_CURVE( '', #275, #272, #276, .T. );
#242 = EDGE_CURVE( '', #277, #275, #278, .T. );
#243 = EDGE_CURVE( '', #279, #277, #280, .T. );
#244 = EDGE_CURVE( '', #281, #279, #282, .T. );
#245 = EDGE_CURVE( '', #273, #281, #283, .T. );
#246 = FILL_AREA_STYLE( '', ( #284 ) );
#247 = EDGE_CURVE( '', #285, #285, #286, .T. );
#248 = FILL_AREA_STYLE( '', ( #287 ) );
#249 = EDGE_CURVE( '', #288, #289, #290, .T. );
#250 = EDGE_CURVE( '', #281, #288, #291, .T. );
#251 = EDGE_CURVE( '', #279, #289, #292, .T. );
#252 = FILL_AREA_STYLE( '', ( #293 ) );
#253 = EDGE_CURVE( '', #294, #295, #296, .T. );
#254 = EDGE_CURVE( '', #277, #294, #297, .T. );
#255 = EDGE_CURVE( '', #275, #295, #298, .T. );
#256 = FILL_AREA_STYLE( '', ( #299 ) );
#257 = EDGE_CURVE( '', #300, #300, #301, .T. );
#258 = EDGE_CURVE( '', #302, #303, #304, .T. );
#259 = EDGE_CURVE( '', #303, #288, #305, .T. );
#260 = EDGE_CURVE( '', #289, #294, #306, .T. );
#261 = EDGE_CURVE( '', #295, #302, #307, .T. );
#262 = FILL_AREA_STYLE( '', ( #308 ) );
#263 = FILL_AREA_STYLE( '', ( #309 ) );
#264 = EDGE_CURVE( '', #310, #310, #311, .T. );
#265 = FILL_AREA_STYLE( '', ( #312 ) );
#266 = EDGE_CURVE( '', #272, #302, #313, .T. );
#267 = EDGE_CURVE( '', #273, #303, #314, .T. );
#268 = FILL_AREA_STYLE( '', ( #315 ) );
#269 = FILL_AREA_STYLE( '', ( #316 ) );
#270 = FILL_AREA_STYLE( '', ( #317 ) );
#271 = FILL_AREA_STYLE_COLOUR( '', #318 );
#272 = VERTEX_POINT( '', #319 );
#273 = VERTEX_POINT( '', #320 );
#274 = LINE( '', #321, #322 );
#275 = VERTEX_POINT( '', #323 );
#276 = LINE( '', #324, #325 );
#277 = VERTEX_POINT( '', #326 );
#278 = LINE( '', #327, #328 );
#279 = VERTEX_POINT( '', #329 );
#280 = LINE( '', #330, #331 );
#281 = VERTEX_POINT( '', #332 );
#282 = LINE( '', #333, #334 );
#283 = LINE( '', #335, #336 );
#284 = FILL_AREA_STYLE_COLOUR( '', #337 );
#285 = VERTEX_POINT( '', #338 );
#286 = CIRCLE( '', #339, 3.23300000000000 );
#287 = FILL_AREA_STYLE_COLOUR( '', #340 );
#288 = VERTEX_POINT( '', #341 );
#289 = VERTEX_POINT( '', #342 );
#290 = LINE( '', #343, #344 );
#291 = LINE( '', #345, #346 );
#292 = LINE( '', #347, #348 );
#293 = FILL_AREA_STYLE_COLOUR( '', #349 );
#294 = VERTEX_POINT( '', #350 );
#295 = VERTEX_POINT( '', #351 );
#296 = LINE( '', #352, #353 );
#297 = LINE( '', #354, #355 );
#298 = LINE( '', #356, #357 );
#299 = FILL_AREA_STYLE_COLOUR( '', #358 );
#300 = VERTEX_POINT( '', #359 );
#301 = CIRCLE( '', #360, 4.00000000000000 );
#302 = VERTEX_POINT( '', #361 );
#303 = VERTEX_POINT( '', #362 );
#304 = LINE( '', #363, #364 );
#305 = LINE( '', #365, #366 );
#306 = LINE( '', #367, #368 );
#307 = LINE( '', #369, #370 );
#308 = FILL_AREA_STYLE_COLOUR( '', #371 );
#309 = FILL_AREA_STYLE_COLOUR( '', #372 );
#310 = VERTEX_POINT( '', #373 );
#311 = CIRCLE( '', #374, 4.00000000000000 );
#312 = FILL_AREA_STYLE_COLOUR( '', #375 );
#313 = LINE( '', #376, #377 );
#314 = LINE( '', #378, #379 );
#315 = FILL_AREA_STYLE_COLOUR( '', #380 );
#316 = FILL_AREA_STYLE_COLOUR( '', #381 );
#317 = FILL_AREA_STYLE_COLOUR( '', #382 );
#318 = COLOUR_RGB( '', 0.689999997600000, 0.689999997600000, 0.689999997600000 );
#319 = CARTESIAN_POINT( '', ( -9.69437339964042, 0.000000000000000, -5.59704909190714 ) );
#320 = CARTESIAN_POINT( '', ( -9.69437339964042, 0.000000000000000, 5.59704909190714 ) );
#321 = CARTESIAN_POINT( '', ( -9.69437339964042, 0.000000000000000, 0.000000000000000 ) );
#322 = VECTOR( '', #383, 1000.00000000000 );
#323 = CARTESIAN_POINT( '', ( 4.39010374806836E-16, 0.000000000000000, -11.1940981838143 ) );
#324 = CARTESIAN_POINT( '', ( -4.84718669982021, 0.000000000000000, -8.39557363786071 ) );
#325 = VECTOR( '', #384, 1000.00000000000 );
#326 = CARTESIAN_POINT( '', ( 9.69437339964042, 0.000000000000000, -5.59704909190714 ) );
#327 = CARTESIAN_POINT( '', ( 4.84718669982021, 0.000000000000000, -8.39557363786071 ) );
#328 = VECTOR( '', #385, 1000.00000000000 );
#329 = CARTESIAN_POINT( '', ( 9.69437339964042, 0.000000000000000, 5.59704909190714 ) );
#330 = CARTESIAN_POINT( '', ( 9.69437339964042, 0.000000000000000, 0.000000000000000 ) );
#331 = VECTOR( '', #386, 1000.00000000000 );
#332 = CARTESIAN_POINT( '', ( -4.39010374806836E-16, 0.000000000000000, 11.1940981838143 ) );
#333 = CARTESIAN_POINT( '', ( 4.84718669982021, 0.000000000000000, 8.39557363786071 ) );
#334 = VECTOR( '', #387, 1000.00000000000 );
#335 = CARTESIAN_POINT( '', ( -4.84718669982021, 0.000000000000000, 8.39557363786071 ) );
#336 = VECTOR( '', #388, 1000.00000000000 );
#337 = COLOUR_RGB( '', 0.689999997600000, 0.689999997600000, 0.689999997600000 );
#338 = CARTESIAN_POINT( '', ( 0.000000000000000, 47.0000000000000, -3.23300000000000 ) );
#339 = AXIS2_PLACEMENT_3D( '', #389, #390, #391 );
#340 = COLOUR_RGB( '', 0.689999997600000, 0.689999997600000, 0.689999997600000 );
#341 = CARTESIAN_POINT( '', ( 0.000000000000000, 7.00000000000000, 11.5470053837925 ) );
#342 = CARTESIAN_POINT( '', ( 10.0000000000000, 7.00000000000000, 5.77350269189626 ) );
#343 = CARTESIAN_POINT( '', ( 0.000000000000000, 7.00000000000000, 11.5470053837925 ) );
#344 = VECTOR( '', #392, 1000.00000000000 );
#345 = CARTESIAN_POINT( '', ( 0.000000000000000, 6.70966499290056, 11.5323680531624 ) );
#346 = VECTOR( '', #393, 1000.00000000000 );
#347 = CARTESIAN_POINT( '', ( 9.98732369983069, 6.70966499290056, 5.76618402658118 ) );
#348 = VECTOR( '', #394, 1000.00000000000 );
#349 = COLOUR_RGB( '', 0.689999997600000, 0.689999997600000, 0.689999997600000 );
#350 = CARTESIAN_POINT( '', ( 10.0000000000000, 7.00000000000000, -5.77350269189626 ) );
#351 = CARTESIAN_POINT( '', ( 0.000000000000000, 7.00000000000000, -11.5470053837925 ) );
#352 = CARTESIAN_POINT( '', ( 10.0000000000000, 7.00000000000000, -5.77350269189626 ) );
#353 = VECTOR( '', #395, 1000.00000000000 );
#354 = CARTESIAN_POINT( '', ( 9.98732369983069, 6.70966499290056, -5.76618402658118 ) );
#355 = VECTOR( '', #396, 1000.00000000000 );
#356 = CARTESIAN_POINT( '', ( 0.000000000000000, 6.70966499290056, -11.5323680531624 ) );
#357 = VECTOR( '', #397, 1000.00000000000 );
#358 = COLOUR_RGB( '', 0.689999997600000, 0.689999997600000, 0.689999997600000 );
#359 = CARTESIAN_POINT( '', ( 0.000000000000000, 7.00000000000000, -4.00000000000000 ) );
#360 = AXIS2_PLACEMENT_3D( '', #398, #399, #400 );
#361 = CARTESIAN_POINT( '', ( -10.0000000000000, 7.00000000000000, -5.77350269189626 ) );
#362 = CARTESIAN_POINT( '', ( -10.0000000000000, 7.00000000000000, 5.77350269189626 ) );
#363 = CARTESIAN_POINT( '', ( -10.0000000000000, 7.00000000000000, -5.77350269189626 ) );
#364 = VECTOR( '', #401, 1000.00000000000 );
#365 = CARTESIAN_POINT( '', ( -10.0000000000000, 7.00000000000000, 5.77350269189626 ) );
#366 = VECTOR( '', #402, 1000.00000000000 );
#367 = CARTESIAN_POINT( '', ( 10.0000000000000, 7.00000000000000, 5.77350269189626 ) );
#368 = VECTOR( '', #403, 1000.00000000000 );
#369 = CARTESIAN_POINT( '', ( 0.000000000000000, 7.00000000000000, -11.5470053837925 ) );
#370 = VECTOR( '', #404, 1000.00000000000 );
#371 = COLOUR_RGB( '', 0.689999997600000, 0.689999997600000, 0.689999997600000 );
#372 = COLOUR_RGB( '', 0.689999997600000, 0.689999997600000, 0.689999997600000 );
#373 = CARTESIAN_POINT( '', ( 0.000000000000000, 46.2330000000000, -4.00000000000000 ) );
#374 = AXIS2_PLACEMENT_3D( '', #405, #406, #407 );
#375 = COLOUR_RGB( '', 0.689999997600000, 0.689999997600000, 0.689999997600000 );
#376 = CARTESIAN_POINT( '', ( -9.98732369983069, 6.70966499290056, -5.76618402658118 ) );
#377 = VECTOR( '', #408, 1000.00000000000 );
#378 = CARTESIAN_POINT( '', ( -9.98732369983069, 6.70966499290056, 5.76618402658118 ) );
#379 = VECTOR( '', #409, 1000.00000000000 );
#380 = COLOUR_RGB( '', 0.689999997600000, 0.689999997600000, 0.689999997600000 );
#381 = COLOUR_RGB( '', 0.689999997600000, 0.689999997600000, 0.689999997600000 );
#382 = COLOUR_RGB( '', 0.689999997600000, 0.689999997600000, 0.689999997600000 );
#383 = DIRECTION( '', ( 0.000000000000000, 0.000000000000000, 1.00000000000000 ) );
#384 = DIRECTION( '', ( -0.866025403784439, 0.000000000000000, 0.500000000000000 ) );
#385 = DIRECTION( '', ( -0.866025403784439, 0.000000000000000, -0.500000000000000 ) );
#386 = DIRECTION( '', ( 0.000000000000000, 0.000000000000000, -1.00000000000000 ) );
#387 = DIRECTION( '', ( 0.866025403784439, 0.000000000000000, -0.500000000000000 ) );
#388 = DIRECTION( '', ( 0.866025403784439, 0.000000000000000, 0.500000000000000 ) );
#389 = CARTESIAN_POINT( '', ( 0.000000000000000, 47.0000000000000, 0.000000000000000 ) );
#390 = DIRECTION( '', ( 0.000000000000000, -1.00000000000000, -0.000000000000000 ) );
#391 = DIRECTION( '', ( 0.000000000000000, 0.000000000000000, -1.00000000000000 ) );
#392 = DIRECTION( '', ( 0.866025403784439, 0.000000000000000, -0.500000000000000 ) );
#393 = DIRECTION( '', ( 0.000000000000000, 0.998731565520054, 0.0503513657596513 ) );
#394 = DIRECTION( '', ( 0.0436055618630999, 0.998731565520054, 0.0251756828798256 ) );
#395 = DIRECTION( '', ( -0.866025403784439, 0.000000000000000, -0.500000000000000 ) );
#396 = DIRECTION( '', ( 0.0436055618630999, 0.998731565520054, -0.0251756828798256 ) );
#397 = DIRECTION( '', ( 0.000000000000000, 0.998731565520054, -0.0503513657596513 ) );
#398 = CARTESIAN_POINT( '', ( 0.000000000000000, 7.00000000000000, 0.000000000000000 ) );
#399 = DIRECTION( '', ( 0.000000000000000, -1.00000000000000, -0.000000000000000 ) );
#400 = DIRECTION( '', ( 0.000000000000000, 0.000000000000000, -1.00000000000000 ) );
#401 = DIRECTION( '', ( 0.000000000000000, 0.000000000000000, 1.00000000000000 ) );
#402 = DIRECTION( '', ( 0.866025403784439, 0.000000000000000, 0.500000000000000 ) );
#403 = DIRECTION( '', ( 0.000000000000000, 0.000000000000000, -1.00000000000000 ) );
#404 = DIRECTION( '', ( -0.866025403784439, 0.000000000000000, 0.500000000000000 ) );
#405 = CARTESIAN_POINT( '', ( 0.000000000000000, 46.2330000000000, 0.000000000000000 ) );
#406 = DIRECTION( '', ( 0.000000000000000, -1.00000000000000, -0.000000000000000 ) );
#407 = DIRECTION( '', ( 0.000000000000000, 0.000000000000000, -1.00000000000000 ) );
#408 = DIRECTION( '', ( -0.0436055618630999, 0.998731565520054, -0.0251756828798256 ) );
#409 = DIRECTION( '', ( -0.0436055618630999, 0.998731565520054, 0.0251756828798256 ) );
ENDSEC;
END-ISO-10303-21;
