ISO-10303-21;
HEADER;
FILE_DESCRIPTION( ( 'STEP AP214' ), '1' );
FILE_NAME( '//goodhand-server/Shared Folders/GoodHand Data/Kipp CAD/K1154/K1154.2171030.stp', '2020-12-10T10:26:58', ( '' ), ( '' ), ' ', 'PARTsolutions', ' ' );
FILE_SCHEMA( ( 'AUTOMOTIVE_DESIGN { 1 0 10303 214 1 1 1 1 }' ) );
ENDSEC;
DATA;
#1 = MECHANICAL_DESIGN_GEOMETRIC_PRESENTATION_REPRESENTATION( ' ', ( #10, #11, #12, #13, #14, #15, #16, #17, #18, #19, #20, #21, #22, #23 ), #6 );
#2 = PRODUCT_DEFINITION_CONTEXT( '', #24, 'design' );
#3 = APPLICATION_PROTOCOL_DEFINITION( 'international standard', 'automotive_design', 2001, #24 );
#4 = PRODUCT_CATEGORY_RELATIONSHIP( 'NONE', 'NONE', #25, #26 );
#5 = SHAPE_DEFINITION_REPRESENTATION( #27, #28 );
#6 =  ( GEOMETRIC_REPRESENTATION_CONTEXT( 3 )GLOBAL_UNCERTAINTY_ASSIGNED_CONTEXT( ( #31 ) )GLOBAL_UNIT_ASSIGNED_CONTEXT( ( #33, #34, #35 ) )REPRESENTATION_CONTEXT( 'NONE', 'WORKSPACE' ) );
#10 = STYLED_ITEM( '', ( #37 ), #38 );
#11 = STYLED_ITEM( '', ( #39 ), #40 );
#12 = STYLED_ITEM( '', ( #41 ), #42 );
#13 = STYLED_ITEM( '', ( #43 ), #44 );
#14 = STYLED_ITEM( '', ( #45 ), #46 );
#15 = STYLED_ITEM( '', ( #47 ), #48 );
#16 = STYLED_ITEM( '', ( #49 ), #50 );
#17 = STYLED_ITEM( '', ( #51 ), #52 );
#18 = STYLED_ITEM( '', ( #53 ), #54 );
#19 = STYLED_ITEM( '', ( #55 ), #56 );
#20 = STYLED_ITEM( '', ( #57 ), #58 );
#21 = STYLED_ITEM( '', ( #59 ), #60 );
#22 = STYLED_ITEM( '', ( #61 ), #62 );
#23 = STYLED_ITEM( '', ( #63 ), #64 );
#24 = APPLICATION_CONTEXT( 'core data for automotive mechanical design processes' );
#25 = PRODUCT_CATEGORY( 'part', 'NONE' );
#26 = PRODUCT_RELATED_PRODUCT_CATEGORY( 'detail', ' ', ( #65 ) );
#27 = PRODUCT_DEFINITION_SHAPE( 'NONE', 'NONE', #66 );
#28 = ADVANCED_BREP_SHAPE_REPRESENTATION( '_K1154.2171030', ( #67, #68 ), #6 );
#31 = UNCERTAINTY_MEASURE_WITH_UNIT( LENGTH_MEASURE( 0.00100000000000000 ), #33, '', '' );
#33 =  ( CONVERSION_BASED_UNIT( 'MILLIMETRE', #71 )LENGTH_UNIT(  )NAMED_UNIT( #74 ) );
#34 =  ( NAMED_UNIT( #76 )PLANE_ANGLE_UNIT(  )SI_UNIT( $, .RADIAN. ) );
#35 =  ( NAMED_UNIT( #76 )SI_UNIT( $, .STERADIAN. )SOLID_ANGLE_UNIT(  ) );
#37 = PRESENTATION_STYLE_ASSIGNMENT( ( #82 ) );
#38 = ADVANCED_FACE( '', ( #83, #84, #85, #86, #87 ), #88, .F. );
#39 = PRESENTATION_STYLE_ASSIGNMENT( ( #89 ) );
#40 = ADVANCED_FACE( '', ( #90, #91, #92, #93, #94 ), #95, .F. );
#41 = PRESENTATION_STYLE_ASSIGNMENT( ( #96 ) );
#42 = ADVANCED_FACE( '', ( #97, #98 ), #99, .T. );
#43 = PRESENTATION_STYLE_ASSIGNMENT( ( #100 ) );
#44 = ADVANCED_FACE( '', ( #101, #102 ), #103, .F. );
#45 = PRESENTATION_STYLE_ASSIGNMENT( ( #104 ) );
#46 = ADVANCED_FACE( '', ( #105, #106 ), #107, .F. );
#47 = PRESENTATION_STYLE_ASSIGNMENT( ( #108 ) );
#48 = ADVANCED_FACE( '', ( #109, #110 ), #111, .T. );
#49 = PRESENTATION_STYLE_ASSIGNMENT( ( #112 ) );
#50 = ADVANCED_FACE( '', ( #113, #114 ), #115, .F. );
#51 = PRESENTATION_STYLE_ASSIGNMENT( ( #116 ) );
#52 = ADVANCED_FACE( '', ( #117 ), #118, .F. );
#53 = PRESENTATION_STYLE_ASSIGNMENT( ( #119 ) );
#54 = ADVANCED_FACE( '', ( #120, #121 ), #122, .T. );
#55 = PRESENTATION_STYLE_ASSIGNMENT( ( #123 ) );
#56 = ADVANCED_FACE( '', ( #124 ), #125, .T. );
#57 = PRESENTATION_STYLE_ASSIGNMENT( ( #126 ) );
#58 = ADVANCED_FACE( '', ( #127, #128 ), #129, .F. );
#59 = PRESENTATION_STYLE_ASSIGNMENT( ( #130 ) );
#60 = ADVANCED_FACE( '', ( #131, #132 ), #133, .F. );
#61 = PRESENTATION_STYLE_ASSIGNMENT( ( #134 ) );
#62 = ADVANCED_FACE( '', ( #135, #136 ), #137, .F. );
#63 = PRESENTATION_STYLE_ASSIGNMENT( ( #138 ) );
#64 = ADVANCED_FACE( '', ( #139, #140 ), #141, .T. );
#65 = PRODUCT( '_K1154.2171030', '_K1154.2171030', 'PART-_K1154.2171030-DESC', ( #142 ) );
#66 = PRODUCT_DEFINITION( 'NONE', 'NONE', #143, #2 );
#67 = MANIFOLD_SOLID_BREP( '_K1154.2171030', #144 );
#68 = AXIS2_PLACEMENT_3D( '', #145, #146, #147 );
#71 = LENGTH_MEASURE_WITH_UNIT( LENGTH_MEASURE( 1.00000000000000 ), #148 );
#74 = DIMENSIONAL_EXPONENTS( 1.00000000000000, 0.000000000000000, 0.000000000000000, 0.000000000000000, 0.000000000000000, 0.000000000000000, 0.000000000000000 );
#76 = DIMENSIONAL_EXPONENTS( 0.000000000000000, 0.000000000000000, 0.000000000000000, 0.000000000000000, 0.000000000000000, 0.000000000000000, 0.000000000000000 );
#82 = SURFACE_STYLE_USAGE( .BOTH., #149 );
#83 = FACE_BOUND( '', #150, .T. );
#84 = FACE_OUTER_BOUND( '', #151, .T. );
#85 = FACE_BOUND( '', #152, .T. );
#86 = FACE_BOUND( '', #153, .T. );
#87 = FACE_BOUND( '', #154, .T. );
#88 = PLANE( '', #155 );
#89 = SURFACE_STYLE_USAGE( .BOTH., #156 );
#90 = FACE_OUTER_BOUND( '', #157, .T. );
#91 = FACE_BOUND( '', #158, .T. );
#92 = FACE_BOUND( '', #159, .T. );
#93 = FACE_BOUND( '', #160, .T. );
#94 = FACE_BOUND( '', #161, .T. );
#95 = PLANE( '', #162 );
#96 = SURFACE_STYLE_USAGE( .BOTH., #163 );
#97 = FACE_OUTER_BOUND( '', #164, .T. );
#98 = FACE_OUTER_BOUND( '', #165, .T. );
#99 = CYLINDRICAL_SURFACE( '', #166, 8.50000000000000 );
#100 = SURFACE_STYLE_USAGE( .BOTH., #167 );
#101 = FACE_OUTER_BOUND( '', #168, .T. );
#102 = FACE_BOUND( '', #169, .T. );
#103 = CONICAL_SURFACE( '', #170, 7.30000000000000, 1.35212738090000 );
#104 = SURFACE_STYLE_USAGE( .BOTH., #171 );
#105 = FACE_OUTER_BOUND( '', #172, .T. );
#106 = FACE_OUTER_BOUND( '', #173, .T. );
#107 = CYLINDRICAL_SURFACE( '', #174, 1.00000000000000 );
#108 = SURFACE_STYLE_USAGE( .BOTH., #175 );
#109 = FACE_OUTER_BOUND( '', #176, .T. );
#110 = FACE_OUTER_BOUND( '', #177, .T. );
#111 = TOROIDAL_SURFACE( '', #178, 6.65000000000000, 0.300000000000000 );
#112 = SURFACE_STYLE_USAGE( .BOTH., #179 );
#113 = FACE_OUTER_BOUND( '', #180, .T. );
#114 = FACE_OUTER_BOUND( '', #181, .T. );
#115 = CYLINDRICAL_SURFACE( '', #182, 1.00000000000000 );
#116 = SURFACE_STYLE_USAGE( .BOTH., #183 );
#117 = FACE_OUTER_BOUND( '', #184, .T. );
#118 = PLANE( '', #185 );
#119 = SURFACE_STYLE_USAGE( .BOTH., #186 );
#120 = FACE_OUTER_BOUND( '', #187, .T. );
#121 = FACE_OUTER_BOUND( '', #188, .T. );
#122 = CYLINDRICAL_SURFACE( '', #189, 12.5000000000000 );
#123 = SURFACE_STYLE_USAGE( .BOTH., #190 );
#124 = FACE_OUTER_BOUND( '', #191, .T. );
#125 = PLANE( '', #192 );
#126 = SURFACE_STYLE_USAGE( .BOTH., #193 );
#127 = FACE_OUTER_BOUND( '', #194, .T. );
#128 = FACE_OUTER_BOUND( '', #195, .T. );
#129 = CYLINDRICAL_SURFACE( '', #196, 6.00000000000000 );
#130 = SURFACE_STYLE_USAGE( .BOTH., #197 );
#131 = FACE_OUTER_BOUND( '', #198, .T. );
#132 = FACE_BOUND( '', #199, .T. );
#133 = CONICAL_SURFACE( '', #200, 6.00000000000000, 1.09106768910000 );
#134 = SURFACE_STYLE_USAGE( .BOTH., #201 );
#135 = FACE_OUTER_BOUND( '', #202, .T. );
#136 = FACE_OUTER_BOUND( '', #203, .T. );
#137 = CYLINDRICAL_SURFACE( '', #204, 1.00000000000000 );
#138 = SURFACE_STYLE_USAGE( .BOTH., #205 );
#139 = FACE_OUTER_BOUND( '', #206, .T. );
#140 = FACE_BOUND( '', #207, .T. );
#141 = CONICAL_SURFACE( '', #208, 6.78846153850000, 1.09106768910000 );
#142 = PRODUCT_CONTEXT( '', #24, 'mechanical' );
#143 = PRODUCT_DEFINITION_FORMATION_WITH_SPECIFIED_SOURCE( ' ', 'NONE', #65, .NOT_KNOWN. );
#144 = CLOSED_SHELL( '', ( #38, #50, #62, #52, #42, #40, #54, #46, #48, #56, #58, #60, #64, #44 ) );
#145 = CARTESIAN_POINT( '', ( 0.000000000000000, 0.000000000000000, 0.000000000000000 ) );
#146 = DIRECTION( '', ( 0.000000000000000, 0.000000000000000, 1.00000000000000 ) );
#147 = DIRECTION( '', ( 1.00000000000000, 0.000000000000000, 0.000000000000000 ) );
#148 =  ( LENGTH_UNIT(  )NAMED_UNIT( #74 )SI_UNIT( .MILLI., .METRE. ) );
#149 = SURFACE_SIDE_STYLE( '', ( #210 ) );
#150 = EDGE_LOOP( '', ( #211 ) );
#151 = EDGE_LOOP( '', ( #212 ) );
#152 = EDGE_LOOP( '', ( #213 ) );
#153 = EDGE_LOOP( '', ( #214 ) );
#154 = EDGE_LOOP( '', ( #215 ) );
#155 = AXIS2_PLACEMENT_3D( '', #216, #217, #218 );
#156 = SURFACE_SIDE_STYLE( '', ( #219 ) );
#157 = EDGE_LOOP( '', ( #220 ) );
#158 = EDGE_LOOP( '', ( #221 ) );
#159 = EDGE_LOOP( '', ( #222 ) );
#160 = EDGE_LOOP( '', ( #223 ) );
#161 = EDGE_LOOP( '', ( #224 ) );
#162 = AXIS2_PLACEMENT_3D( '', #225, #226, #227 );
#163 = SURFACE_SIDE_STYLE( '', ( #228 ) );
#164 = EDGE_LOOP( '', ( #229 ) );
#165 = EDGE_LOOP( '', ( #230 ) );
#166 = AXIS2_PLACEMENT_3D( '', #231, #232, #233 );
#167 = SURFACE_SIDE_STYLE( '', ( #234 ) );
#168 = EDGE_LOOP( '', ( #235 ) );
#169 = EDGE_LOOP( '', ( #236 ) );
#170 = AXIS2_PLACEMENT_3D( '', #237, #238, #239 );
#171 = SURFACE_SIDE_STYLE( '', ( #240 ) );
#172 = EDGE_LOOP( '', ( #241 ) );
#173 = EDGE_LOOP( '', ( #242 ) );
#174 = AXIS2_PLACEMENT_3D( '', #243, #244, #245 );
#175 = SURFACE_SIDE_STYLE( '', ( #246 ) );
#176 = EDGE_LOOP( '', ( #247 ) );
#177 = EDGE_LOOP( '', ( #248 ) );
#178 = AXIS2_PLACEMENT_3D( '', #249, #250, #251 );
#179 = SURFACE_SIDE_STYLE( '', ( #252 ) );
#180 = EDGE_LOOP( '', ( #253 ) );
#181 = EDGE_LOOP( '', ( #254 ) );
#182 = AXIS2_PLACEMENT_3D( '', #255, #256, #257 );
#183 = SURFACE_SIDE_STYLE( '', ( #258 ) );
#184 = EDGE_LOOP( '', ( #259 ) );
#185 = AXIS2_PLACEMENT_3D( '', #260, #261, #262 );
#186 = SURFACE_SIDE_STYLE( '', ( #263 ) );
#187 = EDGE_LOOP( '', ( #264 ) );
#188 = EDGE_LOOP( '', ( #265 ) );
#189 = AXIS2_PLACEMENT_3D( '', #266, #267, #268 );
#190 = SURFACE_SIDE_STYLE( '', ( #269 ) );
#191 = EDGE_LOOP( '', ( #270 ) );
#192 = AXIS2_PLACEMENT_3D( '', #271, #272, #273 );
#193 = SURFACE_SIDE_STYLE( '', ( #274 ) );
#194 = EDGE_LOOP( '', ( #275 ) );
#195 = EDGE_LOOP( '', ( #276 ) );
#196 = AXIS2_PLACEMENT_3D( '', #277, #278, #279 );
#197 = SURFACE_SIDE_STYLE( '', ( #280 ) );
#198 = EDGE_LOOP( '', ( #281 ) );
#199 = EDGE_LOOP( '', ( #282 ) );
#200 = AXIS2_PLACEMENT_3D( '', #283, #284, #285 );
#201 = SURFACE_SIDE_STYLE( '', ( #286 ) );
#202 = EDGE_LOOP( '', ( #287 ) );
#203 = EDGE_LOOP( '', ( #288 ) );
#204 = AXIS2_PLACEMENT_3D( '', #289, #290, #291 );
#205 = SURFACE_SIDE_STYLE( '', ( #292 ) );
#206 = EDGE_LOOP( '', ( #293 ) );
#207 = EDGE_LOOP( '', ( #294 ) );
#208 = AXIS2_PLACEMENT_3D( '', #295, #296, #297 );
#210 = SURFACE_STYLE_FILL_AREA( #298 );
#211 = ORIENTED_EDGE( '', *, *, #299, .F. );
#212 = ORIENTED_EDGE( '', *, *, #300, .T. );
#213 = ORIENTED_EDGE( '', *, *, #301, .T. );
#214 = ORIENTED_EDGE( '', *, *, #302, .T. );
#215 = ORIENTED_EDGE( '', *, *, #303, .T. );
#216 = CARTESIAN_POINT( '', ( 12.5000000000000, 0.000000000000000, 0.000000000000000 ) );
#217 = DIRECTION( '', ( 0.000000000000000, 1.00000000000000, 0.000000000000000 ) );
#218 = DIRECTION( '', ( 0.000000000000000, -0.000000000000000, 1.00000000000000 ) );
#219 = SURFACE_STYLE_FILL_AREA( #304 );
#220 = ORIENTED_EDGE( '', *, *, #305, .F. );
#221 = ORIENTED_EDGE( '', *, *, #306, .F. );
#222 = ORIENTED_EDGE( '', *, *, #307, .F. );
#223 = ORIENTED_EDGE( '', *, *, #308, .F. );
#224 = ORIENTED_EDGE( '', *, *, #309, .T. );
#225 = CARTESIAN_POINT( '', ( 8.50000000000000, 2.00000000000000, 0.000000000000000 ) );
#226 = DIRECTION( '', ( 0.000000000000000, -1.00000000000000, -0.000000000000000 ) );
#227 = DIRECTION( '', ( 0.000000000000000, 0.000000000000000, -1.00000000000000 ) );
#228 = SURFACE_STYLE_FILL_AREA( #310 );
#229 = ORIENTED_EDGE( '', *, *, #309, .F. );
#230 = ORIENTED_EDGE( '', *, *, #311, .T. );
#231 = CARTESIAN_POINT( '', ( 0.000000000000000, 0.000000000000000, 0.000000000000000 ) );
#232 = DIRECTION( '', ( -0.000000000000000, 1.00000000000000, 0.000000000000000 ) );
#233 = DIRECTION( '', ( 0.000000000000000, 0.000000000000000, -1.00000000000000 ) );
#234 = SURFACE_STYLE_FILL_AREA( #312 );
#235 = ORIENTED_EDGE( '', *, *, #299, .T. );
#236 = ORIENTED_EDGE( '', *, *, #313, .F. );
#237 = CARTESIAN_POINT( '', ( 0.000000000000000, 0.300000000000004, 0.000000000000000 ) );
#238 = DIRECTION( '', ( -0.000000000000000, -1.00000000000000, -0.000000000000000 ) );
#239 = DIRECTION( '', ( 0.000000000000000, 0.000000000000000, -1.00000000000000 ) );
#240 = SURFACE_STYLE_FILL_AREA( #314 );
#241 = ORIENTED_EDGE( '', *, *, #306, .T. );
#242 = ORIENTED_EDGE( '', *, *, #301, .F. );
#243 = CARTESIAN_POINT( '', ( 5.25000000000000, 2.00000000000000, -9.09326673973661 ) );
#244 = DIRECTION( '', ( -0.000000000000000, 1.00000000000000, -0.000000000000000 ) );
#245 = DIRECTION( '', ( 0.866025403784439, 0.000000000000000, 0.500000000000000 ) );
#246 = SURFACE_STYLE_FILL_AREA( #315 );
#247 = ORIENTED_EDGE( '', *, *, #316, .T. );
#248 = ORIENTED_EDGE( '', *, *, #317, .F. );
#249 = CARTESIAN_POINT( '', ( 0.000000000000000, 0.300000000000000, 0.000000000000000 ) );
#250 = DIRECTION( '', ( 0.000000000000000, -1.00000000000000, -0.000000000000000 ) );
#251 = DIRECTION( '', ( 0.000000000000000, 0.000000000000000, -1.00000000000000 ) );
#252 = SURFACE_STYLE_FILL_AREA( #318 );
#253 = ORIENTED_EDGE( '', *, *, #308, .T. );
#254 = ORIENTED_EDGE( '', *, *, #303, .F. );
#255 = CARTESIAN_POINT( '', ( -10.5000000000000, 2.00000000000000, 0.000000000000000 ) );
#256 = DIRECTION( '', ( -0.000000000000000, 1.00000000000000, 0.000000000000000 ) );
#257 = DIRECTION( '', ( 0.000000000000000, 0.000000000000000, -1.00000000000000 ) );
#258 = SURFACE_STYLE_FILL_AREA( #319 );
#259 = ORIENTED_EDGE( '', *, *, #311, .F. );
#260 = CARTESIAN_POINT( '', ( 0.000000000000000, 10.0000000000000, 0.000000000000000 ) );
#261 = DIRECTION( '', ( 0.000000000000000, -1.00000000000000, -0.000000000000000 ) );
#262 = DIRECTION( '', ( 0.000000000000000, 0.000000000000000, -1.00000000000000 ) );
#263 = SURFACE_STYLE_FILL_AREA( #320 );
#264 = ORIENTED_EDGE( '', *, *, #300, .F. );
#265 = ORIENTED_EDGE( '', *, *, #305, .T. );
#266 = CARTESIAN_POINT( '', ( 0.000000000000000, 0.000000000000000, 0.000000000000000 ) );
#267 = DIRECTION( '', ( -0.000000000000000, 1.00000000000000, 0.000000000000000 ) );
#268 = DIRECTION( '', ( 0.000000000000000, 0.000000000000000, -1.00000000000000 ) );
#269 = SURFACE_STYLE_FILL_AREA( #321 );
#270 = ORIENTED_EDGE( '', *, *, #322, .T. );
#271 = CARTESIAN_POINT( '', ( 0.000000000000000, 1.10000000000000, 0.000000000000000 ) );
#272 = DIRECTION( '', ( 0.000000000000000, -1.00000000000000, -0.000000000000000 ) );
#273 = DIRECTION( '', ( 0.000000000000000, 0.000000000000000, -1.00000000000000 ) );
#274 = SURFACE_STYLE_FILL_AREA( #323 );
#275 = ORIENTED_EDGE( '', *, *, #324, .T. );
#276 = ORIENTED_EDGE( '', *, *, #322, .F. );
#277 = CARTESIAN_POINT( '', ( 0.000000000000000, -2.00000000000000, 0.000000000000000 ) );
#278 = DIRECTION( '', ( -0.000000000000000, 1.00000000000000, 0.000000000000000 ) );
#279 = DIRECTION( '', ( 0.000000000000000, 0.000000000000000, -1.00000000000000 ) );
#280 = SURFACE_STYLE_FILL_AREA( #325 );
#281 = ORIENTED_EDGE( '', *, *, #317, .T. );
#282 = ORIENTED_EDGE( '', *, *, #324, .F. );
#283 = CARTESIAN_POINT( '', ( 0.000000000000000, 0.300000000000001, 0.000000000000000 ) );
#284 = DIRECTION( '', ( -0.000000000000000, -1.00000000000000, -0.000000000000000 ) );
#285 = DIRECTION( '', ( 0.000000000000000, 0.000000000000000, -1.00000000000000 ) );
#286 = SURFACE_STYLE_FILL_AREA( #326 );
#287 = ORIENTED_EDGE( '', *, *, #307, .T. );
#288 = ORIENTED_EDGE( '', *, *, #302, .F. );
#289 = CARTESIAN_POINT( '', ( 5.25000000000000, 2.00000000000000, 9.09326673973661 ) );
#290 = DIRECTION( '', ( -0.000000000000000, 1.00000000000000, -0.000000000000000 ) );
#291 = DIRECTION( '', ( -0.866025403784439, 0.000000000000000, 0.500000000000000 ) );
#292 = SURFACE_STYLE_FILL_AREA( #327 );
#293 = ORIENTED_EDGE( '', *, *, #313, .T. );
#294 = ORIENTED_EDGE( '', *, *, #316, .F. );
#295 = CARTESIAN_POINT( '', ( 0.000000000000000, 0.0338639401229824, 0.000000000000000 ) );
#296 = DIRECTION( '', ( -0.000000000000000, 1.00000000000000, 0.000000000000000 ) );
#297 = DIRECTION( '', ( 0.000000000000000, -0.000000000000000, 1.00000000000000 ) );
#298 = FILL_AREA_STYLE( '', ( #328 ) );
#299 = EDGE_CURVE( '', #329, #329, #330, .T. );
#300 = EDGE_CURVE( '', #331, #331, #332, .T. );
#301 = EDGE_CURVE( '', #333, #333, #334, .T. );
#302 = EDGE_CURVE( '', #335, #335, #336, .T. );
#303 = EDGE_CURVE( '', #337, #337, #338, .T. );
#304 = FILL_AREA_STYLE( '', ( #339 ) );
#305 = EDGE_CURVE( '', #340, #340, #341, .T. );
#306 = EDGE_CURVE( '', #342, #342, #343, .T. );
#307 = EDGE_CURVE( '', #344, #344, #345, .T. );
#308 = EDGE_CURVE( '', #346, #346, #347, .T. );
#309 = EDGE_CURVE( '', #348, #348, #349, .T. );
#310 = FILL_AREA_STYLE( '', ( #350 ) );
#311 = EDGE_CURVE( '', #351, #351, #352, .T. );
#312 = FILL_AREA_STYLE( '', ( #353 ) );
#313 = EDGE_CURVE( '', #354, #354, #355, .T. );
#314 = FILL_AREA_STYLE( '', ( #356 ) );
#315 = FILL_AREA_STYLE( '', ( #357 ) );
#316 = EDGE_CURVE( '', #358, #358, #359, .T. );
#317 = EDGE_CURVE( '', #360, #360, #361, .T. );
#318 = FILL_AREA_STYLE( '', ( #362 ) );
#319 = FILL_AREA_STYLE( '', ( #363 ) );
#320 = FILL_AREA_STYLE( '', ( #364 ) );
#321 = FILL_AREA_STYLE( '', ( #365 ) );
#322 = EDGE_CURVE( '', #366, #366, #367, .T. );
#323 = FILL_AREA_STYLE( '', ( #368 ) );
#324 = EDGE_CURVE( '', #369, #369, #370, .T. );
#325 = FILL_AREA_STYLE( '', ( #371 ) );
#326 = FILL_AREA_STYLE( '', ( #372 ) );
#327 = FILL_AREA_STYLE( '', ( #373 ) );
#328 = FILL_AREA_STYLE_COLOUR( '', #374 );
#329 = VERTEX_POINT( '', #375 );
#330 = CIRCLE( '', #376, 8.65000000000000 );
#331 = VERTEX_POINT( '', #377 );
#332 = CIRCLE( '', #378, 12.5000000000000 );
#333 = VERTEX_POINT( '', #379 );
#334 = CIRCLE( '', #380, 1.00000000000000 );
#335 = VERTEX_POINT( '', #381 );
#336 = CIRCLE( '', #382, 1.00000000000000 );
#337 = VERTEX_POINT( '', #383 );
#338 = CIRCLE( '', #384, 1.00000000000000 );
#339 = FILL_AREA_STYLE_COLOUR( '', #385 );
#340 = VERTEX_POINT( '', #386 );
#341 = CIRCLE( '', #387, 12.5000000000000 );
#342 = VERTEX_POINT( '', #388 );
#343 = CIRCLE( '', #389, 1.00000000000000 );
#344 = VERTEX_POINT( '', #390 );
#345 = CIRCLE( '', #391, 1.00000000000000 );
#346 = VERTEX_POINT( '', #392 );
#347 = CIRCLE( '', #393, 1.00000000000000 );
#348 = VERTEX_POINT( '', #394 );
#349 = CIRCLE( '', #395, 8.50000000000000 );
#350 = FILL_AREA_STYLE_COLOUR( '', #396 );
#351 = VERTEX_POINT( '', #397 );
#352 = CIRCLE( '', #398, 8.50000000000000 );
#353 = FILL_AREA_STYLE_COLOUR( '', #399 );
#354 = VERTEX_POINT( '', #400 );
#355 = CIRCLE( '', #401, 7.30000000000000 );
#356 = FILL_AREA_STYLE_COLOUR( '', #402 );
#357 = FILL_AREA_STYLE_COLOUR( '', #403 );
#358 = VERTEX_POINT( '', #404 );
#359 = CIRCLE( '', #405, 6.78846153850000 );
#360 = VERTEX_POINT( '', #406 );
#361 = CIRCLE( '', #407, 6.51153846150000 );
#362 = FILL_AREA_STYLE_COLOUR( '', #408 );
#363 = FILL_AREA_STYLE_COLOUR( '', #409 );
#364 = FILL_AREA_STYLE_COLOUR( '', #410 );
#365 = FILL_AREA_STYLE_COLOUR( '', #411 );
#366 = VERTEX_POINT( '', #412 );
#367 = CIRCLE( '', #413, 6.00000000000000 );
#368 = FILL_AREA_STYLE_COLOUR( '', #414 );
#369 = VERTEX_POINT( '', #415 );
#370 = CIRCLE( '', #416, 6.00000000000000 );
#371 = FILL_AREA_STYLE_COLOUR( '', #417 );
#372 = FILL_AREA_STYLE_COLOUR( '', #418 );
#373 = FILL_AREA_STYLE_COLOUR( '', #419 );
#374 = COLOUR_RGB( '', 0.689999997600000, 0.689999997600000, 0.689999997600000 );
#375 = CARTESIAN_POINT( '', ( 0.000000000000000, 5.20417042793042E-15, -8.65000000000000 ) );
#376 = AXIS2_PLACEMENT_3D( '', #420, #421, #422 );
#377 = CARTESIAN_POINT( '', ( 0.000000000000000, 0.000000000000000, -12.5000000000000 ) );
#378 = AXIS2_PLACEMENT_3D( '', #423, #424, #425 );
#379 = CARTESIAN_POINT( '', ( 4.75000000000000, 0.000000000000000, -8.22724133595217 ) );
#380 = AXIS2_PLACEMENT_3D( '', #426, #427, #428 );
#381 = CARTESIAN_POINT( '', ( 4.75000000000000, 0.000000000000000, 8.22724133595217 ) );
#382 = AXIS2_PLACEMENT_3D( '', #429, #430, #431 );
#383 = CARTESIAN_POINT( '', ( -9.50000000000000, 0.000000000000000, 0.000000000000000 ) );
#384 = AXIS2_PLACEMENT_3D( '', #432, #433, #434 );
#385 = COLOUR_RGB( '', 0.689999997600000, 0.689999997600000, 0.689999997600000 );
#386 = CARTESIAN_POINT( '', ( 0.000000000000000, 2.00000000000000, -12.5000000000000 ) );
#387 = AXIS2_PLACEMENT_3D( '', #435, #436, #437 );
#388 = CARTESIAN_POINT( '', ( 4.75000000000000, 2.00000000000000, -8.22724133595217 ) );
#389 = AXIS2_PLACEMENT_3D( '', #438, #439, #440 );
#390 = CARTESIAN_POINT( '', ( 4.75000000000000, 2.00000000000000, 8.22724133595217 ) );
#391 = AXIS2_PLACEMENT_3D( '', #441, #442, #443 );
#392 = CARTESIAN_POINT( '', ( -9.50000000000000, 2.00000000000000, 0.000000000000000 ) );
#393 = AXIS2_PLACEMENT_3D( '', #444, #445, #446 );
#394 = CARTESIAN_POINT( '', ( 0.000000000000000, 2.00000000000000, -8.50000000000000 ) );
#395 = AXIS2_PLACEMENT_3D( '', #447, #448, #449 );
#396 = COLOUR_RGB( '', 0.689999997600000, 0.689999997600000, 0.689999997600000 );
#397 = CARTESIAN_POINT( '', ( 0.000000000000000, 10.0000000000000, -8.50000000000000 ) );
#398 = AXIS2_PLACEMENT_3D( '', #450, #451, #452 );
#399 = COLOUR_RGB( '', 0.689999997600000, 0.689999997600000, 0.689999997600000 );
#400 = CARTESIAN_POINT( '', ( 0.000000000000000, 0.300000000000004, -7.29999999999999 ) );
#401 = AXIS2_PLACEMENT_3D( '', #453, #454, #455 );
#402 = COLOUR_RGB( '', 0.689999997600000, 0.689999997600000, 0.689999997600000 );
#403 = COLOUR_RGB( '', 0.689999997600000, 0.689999997600000, 0.689999997600000 );
#404 = CARTESIAN_POINT( '', ( 0.000000000000000, 0.0338639401229824, -6.78846153846154 ) );
#405 = AXIS2_PLACEMENT_3D( '', #456, #457, #458 );
#406 = CARTESIAN_POINT( '', ( 0.000000000000000, 0.0338639401229850, -6.51153846153846 ) );
#407 = AXIS2_PLACEMENT_3D( '', #459, #460, #461 );
#408 = COLOUR_RGB( '', 0.689999997600000, 0.689999997600000, 0.689999997600000 );
#409 = COLOUR_RGB( '', 0.689999997600000, 0.689999997600000, 0.689999997600000 );
#410 = COLOUR_RGB( '', 0.689999997600000, 0.689999997600000, 0.689999997600000 );
#411 = COLOUR_RGB( '', 0.689999997600000, 0.689999997600000, 0.689999997600000 );
#412 = CARTESIAN_POINT( '', ( 0.000000000000000, 1.10000000000000, -6.00000000000000 ) );
#413 = AXIS2_PLACEMENT_3D( '', #462, #463, #464 );
#414 = COLOUR_RGB( '', 0.689999997600000, 0.689999997600000, 0.689999997600000 );
#415 = CARTESIAN_POINT( '', ( 0.000000000000000, 0.300000000000001, -6.00000000000000 ) );
#416 = AXIS2_PLACEMENT_3D( '', #465, #466, #467 );
#417 = COLOUR_RGB( '', 0.689999997600000, 0.689999997600000, 0.689999997600000 );
#418 = COLOUR_RGB( '', 0.689999997600000, 0.689999997600000, 0.689999997600000 );
#419 = COLOUR_RGB( '', 0.689999997600000, 0.689999997600000, 0.689999997600000 );
#420 = CARTESIAN_POINT( '', ( 0.000000000000000, 5.20417042793042E-15, 0.000000000000000 ) );
#421 = DIRECTION( '', ( 0.000000000000000, -1.00000000000000, -0.000000000000000 ) );
#422 = DIRECTION( '', ( 0.000000000000000, 0.000000000000000, -1.00000000000000 ) );
#423 = CARTESIAN_POINT( '', ( 0.000000000000000, 0.000000000000000, 0.000000000000000 ) );
#424 = DIRECTION( '', ( 0.000000000000000, -1.00000000000000, -0.000000000000000 ) );
#425 = DIRECTION( '', ( 0.000000000000000, 0.000000000000000, -1.00000000000000 ) );
#426 = CARTESIAN_POINT( '', ( 5.25000000000000, 0.000000000000000, -9.09326673973661 ) );
#427 = DIRECTION( '', ( 0.000000000000000, 1.00000000000000, 0.000000000000000 ) );
#428 = DIRECTION( '', ( -0.500000000000000, 0.000000000000000, 0.866025403784439 ) );
#429 = CARTESIAN_POINT( '', ( 5.25000000000000, 0.000000000000000, 9.09326673973661 ) );
#430 = DIRECTION( '', ( 0.000000000000000, 1.00000000000000, 0.000000000000000 ) );
#431 = DIRECTION( '', ( -0.500000000000000, 0.000000000000000, -0.866025403784439 ) );
#432 = CARTESIAN_POINT( '', ( -10.5000000000000, 0.000000000000000, 0.000000000000000 ) );
#433 = DIRECTION( '', ( -0.000000000000000, 1.00000000000000, 0.000000000000000 ) );
#434 = DIRECTION( '', ( 1.00000000000000, 0.000000000000000, 0.000000000000000 ) );
#435 = CARTESIAN_POINT( '', ( 0.000000000000000, 2.00000000000000, 0.000000000000000 ) );
#436 = DIRECTION( '', ( 0.000000000000000, -1.00000000000000, -0.000000000000000 ) );
#437 = DIRECTION( '', ( 0.000000000000000, 0.000000000000000, -1.00000000000000 ) );
#438 = CARTESIAN_POINT( '', ( 5.25000000000000, 2.00000000000000, -9.09326673973661 ) );
#439 = DIRECTION( '', ( 0.000000000000000, 1.00000000000000, 0.000000000000000 ) );
#440 = DIRECTION( '', ( -0.500000000000000, 0.000000000000000, 0.866025403784439 ) );
#441 = CARTESIAN_POINT( '', ( 5.25000000000000, 2.00000000000000, 9.09326673973661 ) );
#442 = DIRECTION( '', ( 0.000000000000000, 1.00000000000000, 0.000000000000000 ) );
#443 = DIRECTION( '', ( -0.500000000000000, 0.000000000000000, -0.866025403784439 ) );
#444 = CARTESIAN_POINT( '', ( -10.5000000000000, 2.00000000000000, 0.000000000000000 ) );
#445 = DIRECTION( '', ( -0.000000000000000, 1.00000000000000, 0.000000000000000 ) );
#446 = DIRECTION( '', ( 1.00000000000000, 0.000000000000000, 0.000000000000000 ) );
#447 = CARTESIAN_POINT( '', ( 0.000000000000000, 2.00000000000000, 0.000000000000000 ) );
#448 = DIRECTION( '', ( 0.000000000000000, -1.00000000000000, -0.000000000000000 ) );
#449 = DIRECTION( '', ( 0.000000000000000, 0.000000000000000, -1.00000000000000 ) );
#450 = CARTESIAN_POINT( '', ( 0.000000000000000, 10.0000000000000, 0.000000000000000 ) );
#451 = DIRECTION( '', ( 0.000000000000000, -1.00000000000000, -0.000000000000000 ) );
#452 = DIRECTION( '', ( 0.000000000000000, 0.000000000000000, -1.00000000000000 ) );
#453 = CARTESIAN_POINT( '', ( 0.000000000000000, 0.300000000000004, 0.000000000000000 ) );
#454 = DIRECTION( '', ( 0.000000000000000, -1.00000000000000, -0.000000000000000 ) );
#455 = DIRECTION( '', ( 0.000000000000000, 0.000000000000000, -1.00000000000000 ) );
#456 = CARTESIAN_POINT( '', ( 0.000000000000000, 0.0338639401229824, 0.000000000000000 ) );
#457 = DIRECTION( '', ( 0.000000000000000, -1.00000000000000, -0.000000000000000 ) );
#458 = DIRECTION( '', ( 0.000000000000000, 0.000000000000000, -1.00000000000000 ) );
#459 = CARTESIAN_POINT( '', ( 0.000000000000000, 0.0338639401229850, 0.000000000000000 ) );
#460 = DIRECTION( '', ( 0.000000000000000, -1.00000000000000, -0.000000000000000 ) );
#461 = DIRECTION( '', ( 0.000000000000000, 0.000000000000000, -1.00000000000000 ) );
#462 = CARTESIAN_POINT( '', ( 0.000000000000000, 1.10000000000000, 0.000000000000000 ) );
#463 = DIRECTION( '', ( 0.000000000000000, -1.00000000000000, -0.000000000000000 ) );
#464 = DIRECTION( '', ( 0.000000000000000, 0.000000000000000, -1.00000000000000 ) );
#465 = CARTESIAN_POINT( '', ( 0.000000000000000, 0.300000000000001, 0.000000000000000 ) );
#466 = DIRECTION( '', ( 0.000000000000000, -1.00000000000000, -0.000000000000000 ) );
#467 = DIRECTION( '', ( 0.000000000000000, 0.000000000000000, -1.00000000000000 ) );
ENDSEC;
END-ISO-10303-21;
