ISO-10303-21;
HEADER;
FILE_DESCRIPTION( ( 'STEP AP214' ), '1' );
FILE_NAME( '//goodhand-server/Shared Folders/GoodHand Data/Kipp CAD/K0713/K0713.1610.stp', '2020-12-09T12:39:11', ( '' ), ( '' ), ' ', 'PARTsolutions', ' ' );
FILE_SCHEMA( ( 'AUTOMOTIVE_DESIGN { 1 0 10303 214 1 1 1 1 }' ) );
ENDSEC;
DATA;
#1 = MECHANICAL_DESIGN_GEOMETRIC_PRESENTATION_REPRESENTATION( ' ', ( #10, #11, #12, #13, #14, #15, #16, #17, #18, #19, #20 ), #6 );
#2 = PRODUCT_DEFINITION_CONTEXT( '', #21, 'design' );
#3 = APPLICATION_PROTOCOL_DEFINITION( 'international standard', 'automotive_design', 2001, #21 );
#4 = PRODUCT_CATEGORY_RELATIONSHIP( 'NONE', 'NONE', #22, #23 );
#5 = SHAPE_DEFINITION_REPRESENTATION( #24, #25 );
#6 =  ( GEOMETRIC_REPRESENTATION_CONTEXT( 3 )GLOBAL_UNCERTAINTY_ASSIGNED_CONTEXT( ( #28 ) )GLOBAL_UNIT_ASSIGNED_CONTEXT( ( #30, #31, #32 ) )REPRESENTATION_CONTEXT( 'NONE', 'WORKSPACE' ) );
#10 = STYLED_ITEM( '', ( #34 ), #35 );
#11 = STYLED_ITEM( '', ( #36 ), #37 );
#12 = STYLED_ITEM( '', ( #38 ), #39 );
#13 = STYLED_ITEM( '', ( #40 ), #41 );
#14 = STYLED_ITEM( '', ( #42 ), #43 );
#15 = STYLED_ITEM( '', ( #44 ), #45 );
#16 = STYLED_ITEM( '', ( #46 ), #47 );
#17 = STYLED_ITEM( '', ( #48 ), #49 );
#18 = STYLED_ITEM( '', ( #50 ), #51 );
#19 = STYLED_ITEM( '', ( #52 ), #53 );
#20 = STYLED_ITEM( '', ( #54 ), #55 );
#21 = APPLICATION_CONTEXT( 'core data for automotive mechanical design processes' );
#22 = PRODUCT_CATEGORY( 'part', 'NONE' );
#23 = PRODUCT_RELATED_PRODUCT_CATEGORY( 'detail', ' ', ( #56 ) );
#24 = PRODUCT_DEFINITION_SHAPE( 'NONE', 'NONE', #57 );
#25 = ADVANCED_BREP_SHAPE_REPRESENTATION( '_K0713.1610', ( #58, #59 ), #6 );
#28 = UNCERTAINTY_MEASURE_WITH_UNIT( LENGTH_MEASURE( 0.00100000000000000 ), #30, '', '' );
#30 =  ( CONVERSION_BASED_UNIT( 'MILLIMETRE', #62 )LENGTH_UNIT(  )NAMED_UNIT( #65 ) );
#31 =  ( NAMED_UNIT( #67 )PLANE_ANGLE_UNIT(  )SI_UNIT( $, .RADIAN. ) );
#32 =  ( NAMED_UNIT( #67 )SI_UNIT( $, .STERADIAN. )SOLID_ANGLE_UNIT(  ) );
#34 = PRESENTATION_STYLE_ASSIGNMENT( ( #73 ) );
#35 = ADVANCED_FACE( '', ( #74, #75 ), #76, .F. );
#36 = PRESENTATION_STYLE_ASSIGNMENT( ( #77 ) );
#37 = ADVANCED_FACE( '', ( #78 ), #79, .T. );
#38 = PRESENTATION_STYLE_ASSIGNMENT( ( #80 ) );
#39 = ADVANCED_FACE( '', ( #81, #82 ), #83, .F. );
#40 = PRESENTATION_STYLE_ASSIGNMENT( ( #84 ) );
#41 = ADVANCED_FACE( '', ( #85, #86 ), #87, .T. );
#42 = PRESENTATION_STYLE_ASSIGNMENT( ( #88 ) );
#43 = ADVANCED_FACE( '', ( #89 ), #90, .T. );
#44 = PRESENTATION_STYLE_ASSIGNMENT( ( #91 ) );
#45 = ADVANCED_FACE( '', ( #92, #93 ), #94, .T. );
#46 = PRESENTATION_STYLE_ASSIGNMENT( ( #95 ) );
#47 = ADVANCED_FACE( '', ( #96 ), #97, .T. );
#48 = PRESENTATION_STYLE_ASSIGNMENT( ( #98 ) );
#49 = ADVANCED_FACE( '', ( #99 ), #100, .T. );
#50 = PRESENTATION_STYLE_ASSIGNMENT( ( #101 ) );
#51 = ADVANCED_FACE( '', ( #102, #103 ), #104, .T. );
#52 = PRESENTATION_STYLE_ASSIGNMENT( ( #105 ) );
#53 = ADVANCED_FACE( '', ( #106 ), #107, .F. );
#54 = PRESENTATION_STYLE_ASSIGNMENT( ( #108 ) );
#55 = ADVANCED_FACE( '', ( #109, #110 ), #111, .T. );
#56 = PRODUCT( '_K0713.1610', '_K0713.1610', 'PART-_K0713.1610-DESC', ( #112 ) );
#57 = PRODUCT_DEFINITION( 'NONE', 'NONE', #113, #2 );
#58 = MANIFOLD_SOLID_BREP( '_K0713.1610', #114 );
#59 = AXIS2_PLACEMENT_3D( '', #115, #116, #117 );
#62 = LENGTH_MEASURE_WITH_UNIT( LENGTH_MEASURE( 1.00000000000000 ), #118 );
#65 = DIMENSIONAL_EXPONENTS( 1.00000000000000, 0.000000000000000, 0.000000000000000, 0.000000000000000, 0.000000000000000, 0.000000000000000, 0.000000000000000 );
#67 = DIMENSIONAL_EXPONENTS( 0.000000000000000, 0.000000000000000, 0.000000000000000, 0.000000000000000, 0.000000000000000, 0.000000000000000, 0.000000000000000 );
#73 = SURFACE_STYLE_USAGE( .BOTH., #119 );
#74 = FACE_OUTER_BOUND( '', #120, .T. );
#75 = FACE_BOUND( '', #121, .T. );
#76 = PLANE( '', #122 );
#77 = SURFACE_STYLE_USAGE( .BOTH., #123 );
#78 = FACE_OUTER_BOUND( '', #124, .T. );
#79 = PLANE( '', #125 );
#80 = SURFACE_STYLE_USAGE( .BOTH., #126 );
#81 = FACE_BOUND( '', #127, .T. );
#82 = FACE_OUTER_BOUND( '', #128, .T. );
#83 = PLANE( '', #129 );
#84 = SURFACE_STYLE_USAGE( .BOTH., #130 );
#85 = FACE_OUTER_BOUND( '', #131, .T. );
#86 = FACE_OUTER_BOUND( '', #132, .T. );
#87 = CYLINDRICAL_SURFACE( '', #133, 5.00000000000000 );
#88 = SURFACE_STYLE_USAGE( .BOTH., #134 );
#89 = FACE_OUTER_BOUND( '', #135, .T. );
#90 = PLANE( '', #136 );
#91 = SURFACE_STYLE_USAGE( .BOTH., #137 );
#92 = FACE_OUTER_BOUND( '', #138, .T. );
#93 = FACE_BOUND( '', #139, .T. );
#94 = CONICAL_SURFACE( '', #140, 3.48711915480000, 0.263858434800000 );
#95 = SURFACE_STYLE_USAGE( .BOTH., #141 );
#96 = FACE_OUTER_BOUND( '', #142, .T. );
#97 = CYLINDRICAL_SURFACE( '', #143, 8.00000000000000 );
#98 = SURFACE_STYLE_USAGE( .BOTH., #144 );
#99 = FACE_OUTER_BOUND( '', #145, .T. );
#100 = CYLINDRICAL_SURFACE( '', #146, 8.00000000000000 );
#101 = SURFACE_STYLE_USAGE( .BOTH., #147 );
#102 = FACE_OUTER_BOUND( '', #148, .T. );
#103 = FACE_OUTER_BOUND( '', #149, .T. );
#104 = SPHERICAL_SURFACE( '', #150, 8.00000000000000 );
#105 = SURFACE_STYLE_USAGE( .BOTH., #151 );
#106 = FACE_OUTER_BOUND( '', #152, .T. );
#107 = PLANE( '', #153 );
#108 = SURFACE_STYLE_USAGE( .BOTH., #154 );
#109 = FACE_BOUND( '', #155, .T. );
#110 = FACE_OUTER_BOUND( '', #156, .T. );
#111 = SPHERICAL_SURFACE( '', #157, 7.25000000000000 );
#112 = PRODUCT_CONTEXT( '', #21, 'mechanical' );
#113 = PRODUCT_DEFINITION_FORMATION_WITH_SPECIFIED_SOURCE( ' ', 'NONE', #56, .NOT_KNOWN. );
#114 = CLOSED_SHELL( '', ( #41, #39, #47, #49, #35, #45, #51, #53, #55, #43, #37 ) );
#115 = CARTESIAN_POINT( '', ( 0.000000000000000, 0.000000000000000, 0.000000000000000 ) );
#116 = DIRECTION( '', ( 0.000000000000000, 0.000000000000000, 1.00000000000000 ) );
#117 = DIRECTION( '', ( 1.00000000000000, 0.000000000000000, 0.000000000000000 ) );
#118 =  ( LENGTH_UNIT(  )NAMED_UNIT( #65 )SI_UNIT( .MILLI., .METRE. ) );
#119 = SURFACE_SIDE_STYLE( '', ( #159 ) );
#120 = EDGE_LOOP( '', ( #160, #161, #162, #163 ) );
#121 = EDGE_LOOP( '', ( #164 ) );
#122 = AXIS2_PLACEMENT_3D( '', #165, #166, #167 );
#123 = SURFACE_SIDE_STYLE( '', ( #168 ) );
#124 = EDGE_LOOP( '', ( #169, #170, #171, #172 ) );
#125 = AXIS2_PLACEMENT_3D( '', #173, #174, #175 );
#126 = SURFACE_SIDE_STYLE( '', ( #176 ) );
#127 = EDGE_LOOP( '', ( #177 ) );
#128 = EDGE_LOOP( '', ( #178, #179, #180, #181 ) );
#129 = AXIS2_PLACEMENT_3D( '', #182, #183, #184 );
#130 = SURFACE_SIDE_STYLE( '', ( #185 ) );
#131 = EDGE_LOOP( '', ( #186 ) );
#132 = EDGE_LOOP( '', ( #187 ) );
#133 = AXIS2_PLACEMENT_3D( '', #188, #189, #190 );
#134 = SURFACE_SIDE_STYLE( '', ( #191 ) );
#135 = EDGE_LOOP( '', ( #192, #193, #194, #195 ) );
#136 = AXIS2_PLACEMENT_3D( '', #196, #197, #198 );
#137 = SURFACE_SIDE_STYLE( '', ( #199 ) );
#138 = EDGE_LOOP( '', ( #200 ) );
#139 = EDGE_LOOP( '', ( #201 ) );
#140 = AXIS2_PLACEMENT_3D( '', #202, #203, #204 );
#141 = SURFACE_SIDE_STYLE( '', ( #205 ) );
#142 = EDGE_LOOP( '', ( #206, #207, #208, #209 ) );
#143 = AXIS2_PLACEMENT_3D( '', #210, #211, #212 );
#144 = SURFACE_SIDE_STYLE( '', ( #213 ) );
#145 = EDGE_LOOP( '', ( #214, #215, #216, #217 ) );
#146 = AXIS2_PLACEMENT_3D( '', #218, #219, #220 );
#147 = SURFACE_SIDE_STYLE( '', ( #221 ) );
#148 = EDGE_LOOP( '', ( #222 ) );
#149 = EDGE_LOOP( '', ( #223 ) );
#150 = AXIS2_PLACEMENT_3D( '', #224, #225, #226 );
#151 = SURFACE_SIDE_STYLE( '', ( #227 ) );
#152 = EDGE_LOOP( '', ( #228 ) );
#153 = AXIS2_PLACEMENT_3D( '', #229, #230, #231 );
#154 = SURFACE_SIDE_STYLE( '', ( #232 ) );
#155 = VERTEX_LOOP( '', #233 );
#156 = EDGE_LOOP( '', ( #234 ) );
#157 = AXIS2_PLACEMENT_3D( '', #235, #236, #237 );
#159 = SURFACE_STYLE_FILL_AREA( #238 );
#160 = ORIENTED_EDGE( '', *, *, #239, .F. );
#161 = ORIENTED_EDGE( '', *, *, #240, .F. );
#162 = ORIENTED_EDGE( '', *, *, #241, .F. );
#163 = ORIENTED_EDGE( '', *, *, #242, .F. );
#164 = ORIENTED_EDGE( '', *, *, #243, .T. );
#165 = CARTESIAN_POINT( '', ( 12.8000000000000, 5.00000000000001, 0.000000000000000 ) );
#166 = DIRECTION( '', ( 1.00000000000000, 0.000000000000000, -0.000000000000000 ) );
#167 = DIRECTION( '', ( -0.000000000000000, 0.000000000000000, -1.00000000000000 ) );
#168 = SURFACE_STYLE_FILL_AREA( #244 );
#169 = ORIENTED_EDGE( '', *, *, #240, .T. );
#170 = ORIENTED_EDGE( '', *, *, #245, .T. );
#171 = ORIENTED_EDGE( '', *, *, #246, .T. );
#172 = ORIENTED_EDGE( '', *, *, #247, .T. );
#173 = CARTESIAN_POINT( '', ( 5.50000000000000, -6.49999999999999, -6.50000000000000 ) );
#174 = DIRECTION( '', ( 0.000000000000000, 0.000000000000000, -1.00000000000000 ) );
#175 = DIRECTION( '', ( -1.00000000000000, 0.000000000000000, 0.000000000000000 ) );
#176 = SURFACE_STYLE_FILL_AREA( #248 );
#177 = ORIENTED_EDGE( '', *, *, #249, .F. );
#178 = ORIENTED_EDGE( '', *, *, #246, .F. );
#179 = ORIENTED_EDGE( '', *, *, #250, .T. );
#180 = ORIENTED_EDGE( '', *, *, #251, .F. );
#181 = ORIENTED_EDGE( '', *, *, #252, .T. );
#182 = CARTESIAN_POINT( '', ( 16.0000000000000, 7.99999999999999, 0.000000000000000 ) );
#183 = DIRECTION( '', ( -1.00000000000000, 0.000000000000000, 0.000000000000000 ) );
#184 = DIRECTION( '', ( 0.000000000000000, 0.000000000000000, 1.00000000000000 ) );
#185 = SURFACE_STYLE_FILL_AREA( #253 );
#186 = ORIENTED_EDGE( '', *, *, #254, .F. );
#187 = ORIENTED_EDGE( '', *, *, #249, .T. );
#188 = CARTESIAN_POINT( '', ( 36.0000000000000, 0.000000000000000, 0.000000000000000 ) );
#189 = DIRECTION( '', ( -1.00000000000000, -0.000000000000000, 0.000000000000000 ) );
#190 = DIRECTION( '', ( -0.000000000000000, 0.000000000000000, -1.00000000000000 ) );
#191 = SURFACE_STYLE_FILL_AREA( #255 );
#192 = ORIENTED_EDGE( '', *, *, #242, .T. );
#193 = ORIENTED_EDGE( '', *, *, #256, .T. );
#194 = ORIENTED_EDGE( '', *, *, #251, .T. );
#195 = ORIENTED_EDGE( '', *, *, #257, .T. );
#196 = CARTESIAN_POINT( '', ( 5.50000000000000, 6.49999999999999, 6.50000000000000 ) );
#197 = DIRECTION( '', ( 0.000000000000000, 0.000000000000000, 1.00000000000000 ) );
#198 = DIRECTION( '', ( 1.00000000000000, 0.000000000000000, -0.000000000000000 ) );
#199 = SURFACE_STYLE_FILL_AREA( #258 );
#200 = ORIENTED_EDGE( '', *, *, #243, .F. );
#201 = ORIENTED_EDGE( '', *, *, #259, .T. );
#202 = CARTESIAN_POINT( '', ( 7.20000000000000, 0.000000000000000, 0.000000000000000 ) );
#203 = DIRECTION( '', ( 1.00000000000000, -0.000000000000000, -0.000000000000000 ) );
#204 = DIRECTION( '', ( -0.000000000000000, 0.000000000000000, -1.00000000000000 ) );
#205 = SURFACE_STYLE_FILL_AREA( #260 );
#206 = ORIENTED_EDGE( '', *, *, #257, .F. );
#207 = ORIENTED_EDGE( '', *, *, #250, .F. );
#208 = ORIENTED_EDGE( '', *, *, #245, .F. );
#209 = ORIENTED_EDGE( '', *, *, #239, .T. );
#210 = CARTESIAN_POINT( '', ( 36.0000000000000, 0.000000000000000, 0.000000000000000 ) );
#211 = DIRECTION( '', ( -1.00000000000000, -0.000000000000000, 0.000000000000000 ) );
#212 = DIRECTION( '', ( -0.000000000000000, 0.000000000000000, -1.00000000000000 ) );
#213 = SURFACE_STYLE_FILL_AREA( #261 );
#214 = ORIENTED_EDGE( '', *, *, #247, .F. );
#215 = ORIENTED_EDGE( '', *, *, #252, .F. );
#216 = ORIENTED_EDGE( '', *, *, #256, .F. );
#217 = ORIENTED_EDGE( '', *, *, #241, .T. );
#218 = CARTESIAN_POINT( '', ( 36.0000000000000, 0.000000000000000, 0.000000000000000 ) );
#219 = DIRECTION( '', ( -1.00000000000000, -0.000000000000000, 0.000000000000000 ) );
#220 = DIRECTION( '', ( -0.000000000000000, 0.000000000000000, -1.00000000000000 ) );
#221 = SURFACE_STYLE_FILL_AREA( #262 );
#222 = ORIENTED_EDGE( '', *, *, #263, .T. );
#223 = ORIENTED_EDGE( '', *, *, #259, .F. );
#224 = CARTESIAN_POINT( '', ( 1.30104260698261E-15, 3.46944695195361E-15, 0.000000000000000 ) );
#225 = DIRECTION( '', ( 1.00000000000000, 0.000000000000000, 0.000000000000000 ) );
#226 = DIRECTION( '', ( 0.000000000000000, 1.00000000000000, 0.000000000000000 ) );
#227 = SURFACE_STYLE_FILL_AREA( #264 );
#228 = ORIENTED_EDGE( '', *, *, #263, .F. );
#229 = CARTESIAN_POINT( '', ( -6.40000000000000, 0.000000000000000, 0.000000000000000 ) );
#230 = DIRECTION( '', ( 1.00000000000000, 0.000000000000000, -0.000000000000000 ) );
#231 = DIRECTION( '', ( -0.000000000000000, 0.000000000000000, -1.00000000000000 ) );
#232 = SURFACE_STYLE_FILL_AREA( #265 );
#233 = VERTEX_POINT( '', #266 );
#234 = ORIENTED_EDGE( '', *, *, #254, .T. );
#235 = CARTESIAN_POINT( '', ( 28.7500000000000, -1.64798730217797E-14, 0.000000000000000 ) );
#236 = DIRECTION( '', ( 1.00000000000000, 0.000000000000000, 0.000000000000000 ) );
#237 = DIRECTION( '', ( 0.000000000000000, 1.00000000000000, 0.000000000000000 ) );
#238 = FILL_AREA_STYLE( '', ( #267 ) );
#239 = EDGE_CURVE( '', #268, #269, #270, .T. );
#240 = EDGE_CURVE( '', #271, #268, #272, .T. );
#241 = EDGE_CURVE( '', #273, #271, #274, .T. );
#242 = EDGE_CURVE( '', #269, #273, #275, .T. );
#243 = EDGE_CURVE( '', #276, #276, #277, .T. );
#244 = FILL_AREA_STYLE( '', ( #278 ) );
#245 = EDGE_CURVE( '', #268, #279, #280, .T. );
#246 = EDGE_CURVE( '', #279, #281, #282, .T. );
#247 = EDGE_CURVE( '', #281, #271, #283, .F. );
#248 = FILL_AREA_STYLE( '', ( #284 ) );
#249 = EDGE_CURVE( '', #285, #285, #286, .T. );
#250 = EDGE_CURVE( '', #279, #287, #288, .T. );
#251 = EDGE_CURVE( '', #289, #287, #290, .T. );
#252 = EDGE_CURVE( '', #289, #281, #291, .T. );
#253 = FILL_AREA_STYLE( '', ( #292 ) );
#254 = EDGE_CURVE( '', #293, #293, #294, .T. );
#255 = FILL_AREA_STYLE( '', ( #295 ) );
#256 = EDGE_CURVE( '', #273, #289, #296, .T. );
#257 = EDGE_CURVE( '', #287, #269, #297, .F. );
#258 = FILL_AREA_STYLE( '', ( #298 ) );
#259 = EDGE_CURVE( '', #299, #299, #300, .T. );
#260 = FILL_AREA_STYLE( '', ( #301 ) );
#261 = FILL_AREA_STYLE( '', ( #302 ) );
#262 = FILL_AREA_STYLE( '', ( #303 ) );
#263 = EDGE_CURVE( '', #304, #304, #305, .T. );
#264 = FILL_AREA_STYLE( '', ( #306 ) );
#265 = FILL_AREA_STYLE( '', ( #307 ) );
#266 = CARTESIAN_POINT( '', ( 36.0000000000000, -1.60359385570888E-14, 0.000000000000000 ) );
#267 = FILL_AREA_STYLE_COLOUR( '', #308 );
#268 = VERTEX_POINT( '', #309 );
#269 = VERTEX_POINT( '', #310 );
#270 = CIRCLE( '', #311, 8.00000000000000 );
#271 = VERTEX_POINT( '', #312 );
#272 = LINE( '', #313, #314 );
#273 = VERTEX_POINT( '', #315 );
#274 = CIRCLE( '', #316, 8.00000000000000 );
#275 = LINE( '', #317, #318 );
#276 = VERTEX_POINT( '', #319 );
#277 = CIRCLE( '', #320, 5.00000000000000 );
#278 = FILL_AREA_STYLE_COLOUR( '', #321 );
#279 = VERTEX_POINT( '', #322 );
#280 = LINE( '', #323, #324 );
#281 = VERTEX_POINT( '', #325 );
#282 = LINE( '', #326, #327 );
#283 = LINE( '', #328, #329 );
#284 = FILL_AREA_STYLE_COLOUR( '', #330 );
#285 = VERTEX_POINT( '', #331 );
#286 = CIRCLE( '', #332, 5.00000000000000 );
#287 = VERTEX_POINT( '', #333 );
#288 = CIRCLE( '', #334, 8.00000000000000 );
#289 = VERTEX_POINT( '', #335 );
#290 = LINE( '', #336, #337 );
#291 = CIRCLE( '', #338, 8.00000000000000 );
#292 = FILL_AREA_STYLE_COLOUR( '', #339 );
#293 = VERTEX_POINT( '', #340 );
#294 = CIRCLE( '', #341, 5.00000000000000 );
#295 = FILL_AREA_STYLE_COLOUR( '', #342 );
#296 = LINE( '', #343, #344 );
#297 = LINE( '', #345, #346 );
#298 = FILL_AREA_STYLE_COLOUR( '', #347 );
#299 = VERTEX_POINT( '', #348 );
#300 = CIRCLE( '', #349, 3.48711915480000 );
#301 = FILL_AREA_STYLE_COLOUR( '', #350 );
#302 = FILL_AREA_STYLE_COLOUR( '', #351 );
#303 = FILL_AREA_STYLE_COLOUR( '', #352 );
#304 = VERTEX_POINT( '', #353 );
#305 = CIRCLE( '', #354, 4.80000000000000 );
#306 = FILL_AREA_STYLE_COLOUR( '', #355 );
#307 = FILL_AREA_STYLE_COLOUR( '', #356 );
#308 = COLOUR_RGB( '', 0.689999997600000, 0.689999997600000, 0.689999997600000 );
#309 = CARTESIAN_POINT( '', ( 12.8000000000000, 4.66368952654439, -6.50000000000000 ) );
#310 = CARTESIAN_POINT( '', ( 12.8000000000000, 4.66368952654439, 6.50000000000000 ) );
#311 = AXIS2_PLACEMENT_3D( '', #357, #358, #359 );
#312 = CARTESIAN_POINT( '', ( 12.8000000000000, -4.66368952654439, -6.50000000000000 ) );
#313 = CARTESIAN_POINT( '', ( 12.8000000000000, 5.00000000000001, -6.50000000000000 ) );
#314 = VECTOR( '', #360, 1000.00000000000 );
#315 = CARTESIAN_POINT( '', ( 12.8000000000000, -4.66368952654439, 6.50000000000000 ) );
#316 = AXIS2_PLACEMENT_3D( '', #361, #362, #363 );
#317 = CARTESIAN_POINT( '', ( 12.8000000000000, 5.00000000000001, 6.50000000000000 ) );
#318 = VECTOR( '', #364, 1000.00000000000 );
#319 = CARTESIAN_POINT( '', ( 12.8000000000000, 0.000000000000000, -5.00000000000001 ) );
#320 = AXIS2_PLACEMENT_3D( '', #365, #366, #367 );
#321 = COLOUR_RGB( '', 0.689999997600000, 0.689999997600000, 0.689999997600000 );
#322 = CARTESIAN_POINT( '', ( 16.0000000000000, 4.66368952654439, -6.50000000000000 ) );
#323 = CARTESIAN_POINT( '', ( 36.0000000000000, 4.66368952654439, -6.50000000000000 ) );
#324 = VECTOR( '', #368, 1000.00000000000 );
#325 = CARTESIAN_POINT( '', ( 16.0000000000000, -4.66368952654439, -6.50000000000000 ) );
#326 = CARTESIAN_POINT( '', ( 16.0000000000000, 7.99999999999999, -6.50000000000000 ) );
#327 = VECTOR( '', #369, 1000.00000000000 );
#328 = CARTESIAN_POINT( '', ( 36.0000000000000, -4.66368952654439, -6.50000000000000 ) );
#329 = VECTOR( '', #370, 1000.00000000000 );
#330 = COLOUR_RGB( '', 0.689999997600000, 0.689999997600000, 0.689999997600000 );
#331 = CARTESIAN_POINT( '', ( 16.0000000000000, 0.000000000000000, -5.00000000000000 ) );
#332 = AXIS2_PLACEMENT_3D( '', #371, #372, #373 );
#333 = CARTESIAN_POINT( '', ( 16.0000000000000, 4.66368952654439, 6.50000000000000 ) );
#334 = AXIS2_PLACEMENT_3D( '', #374, #375, #376 );
#335 = CARTESIAN_POINT( '', ( 16.0000000000000, -4.66368952654439, 6.50000000000000 ) );
#336 = CARTESIAN_POINT( '', ( 16.0000000000000, 7.99999999999999, 6.50000000000000 ) );
#337 = VECTOR( '', #377, 1000.00000000000 );
#338 = AXIS2_PLACEMENT_3D( '', #378, #379, #380 );
#339 = COLOUR_RGB( '', 0.689999997600000, 0.689999997600000, 0.689999997600000 );
#340 = CARTESIAN_POINT( '', ( 34.0000000000000, 0.000000000000000, -5.00000000000000 ) );
#341 = AXIS2_PLACEMENT_3D( '', #381, #382, #383 );
#342 = COLOUR_RGB( '', 0.689999997600000, 0.689999997600000, 0.689999997600000 );
#343 = CARTESIAN_POINT( '', ( 36.0000000000000, -4.66368952654439, 6.50000000000000 ) );
#344 = VECTOR( '', #384, 1000.00000000000 );
#345 = CARTESIAN_POINT( '', ( 36.0000000000000, 4.66368952654439, 6.50000000000000 ) );
#346 = VECTOR( '', #385, 1000.00000000000 );
#347 = COLOUR_RGB( '', 0.689999997600000, 0.689999997600000, 0.689999997600000 );
#348 = CARTESIAN_POINT( '', ( 7.20000000000000, 0.000000000000000, -3.48711915483254 ) );
#349 = AXIS2_PLACEMENT_3D( '', #386, #387, #388 );
#350 = COLOUR_RGB( '', 0.689999997600000, 0.689999997600000, 0.689999997600000 );
#351 = COLOUR_RGB( '', 0.689999997600000, 0.689999997600000, 0.689999997600000 );
#352 = COLOUR_RGB( '', 0.689999997600000, 0.689999997600000, 0.689999997600000 );
#353 = CARTESIAN_POINT( '', ( -6.40000000000000, 0.000000000000000, -4.80000000000000 ) );
#354 = AXIS2_PLACEMENT_3D( '', #389, #390, #391 );
#355 = COLOUR_RGB( '', 0.689999997600000, 0.689999997600000, 0.689999997600000 );
#356 = COLOUR_RGB( '', 0.689999997600000, 0.689999997600000, 0.689999997600000 );
#357 = CARTESIAN_POINT( '', ( 12.8000000000000, 0.000000000000000, 0.000000000000000 ) );
#358 = DIRECTION( '', ( 1.00000000000000, 0.000000000000000, -0.000000000000000 ) );
#359 = DIRECTION( '', ( -0.000000000000000, 0.000000000000000, -1.00000000000000 ) );
#360 = DIRECTION( '', ( 0.000000000000000, 1.00000000000000, 0.000000000000000 ) );
#361 = CARTESIAN_POINT( '', ( 12.8000000000000, 0.000000000000000, 0.000000000000000 ) );
#362 = DIRECTION( '', ( 1.00000000000000, 0.000000000000000, -0.000000000000000 ) );
#363 = DIRECTION( '', ( -0.000000000000000, 0.000000000000000, -1.00000000000000 ) );
#364 = DIRECTION( '', ( 0.000000000000000, -1.00000000000000, 0.000000000000000 ) );
#365 = CARTESIAN_POINT( '', ( 12.8000000000000, 0.000000000000000, 0.000000000000000 ) );
#366 = DIRECTION( '', ( 1.00000000000000, 0.000000000000000, -0.000000000000000 ) );
#367 = DIRECTION( '', ( -0.000000000000000, 0.000000000000000, -1.00000000000000 ) );
#368 = DIRECTION( '', ( 1.00000000000000, -0.000000000000000, -0.000000000000000 ) );
#369 = DIRECTION( '', ( 0.000000000000000, -1.00000000000000, 0.000000000000000 ) );
#370 = DIRECTION( '', ( 1.00000000000000, -0.000000000000000, -0.000000000000000 ) );
#371 = CARTESIAN_POINT( '', ( 16.0000000000000, 0.000000000000000, 0.000000000000000 ) );
#372 = DIRECTION( '', ( 1.00000000000000, 0.000000000000000, -0.000000000000000 ) );
#373 = DIRECTION( '', ( -0.000000000000000, 0.000000000000000, -1.00000000000000 ) );
#374 = CARTESIAN_POINT( '', ( 16.0000000000000, 0.000000000000000, 0.000000000000000 ) );
#375 = DIRECTION( '', ( 1.00000000000000, 0.000000000000000, -0.000000000000000 ) );
#376 = DIRECTION( '', ( -0.000000000000000, 0.000000000000000, -1.00000000000000 ) );
#377 = DIRECTION( '', ( 0.000000000000000, 1.00000000000000, -0.000000000000000 ) );
#378 = CARTESIAN_POINT( '', ( 16.0000000000000, 0.000000000000000, 0.000000000000000 ) );
#379 = DIRECTION( '', ( 1.00000000000000, 0.000000000000000, -0.000000000000000 ) );
#380 = DIRECTION( '', ( -0.000000000000000, 0.000000000000000, -1.00000000000000 ) );
#381 = CARTESIAN_POINT( '', ( 34.0000000000000, 0.000000000000000, 0.000000000000000 ) );
#382 = DIRECTION( '', ( 1.00000000000000, 0.000000000000000, -0.000000000000000 ) );
#383 = DIRECTION( '', ( -0.000000000000000, 0.000000000000000, -1.00000000000000 ) );
#384 = DIRECTION( '', ( 1.00000000000000, -0.000000000000000, -0.000000000000000 ) );
#385 = DIRECTION( '', ( 1.00000000000000, -0.000000000000000, -0.000000000000000 ) );
#386 = CARTESIAN_POINT( '', ( 7.20000000000000, 0.000000000000000, 0.000000000000000 ) );
#387 = DIRECTION( '', ( 1.00000000000000, 0.000000000000000, -0.000000000000000 ) );
#388 = DIRECTION( '', ( -0.000000000000000, 0.000000000000000, -1.00000000000000 ) );
#389 = CARTESIAN_POINT( '', ( -6.40000000000000, 0.000000000000000, 0.000000000000000 ) );
#390 = DIRECTION( '', ( 1.00000000000000, 0.000000000000000, -0.000000000000000 ) );
#391 = DIRECTION( '', ( -0.000000000000000, 0.000000000000000, -1.00000000000000 ) );
ENDSEC;
END-ISO-10303-21;
