ISO-10303-21;
HEADER;
FILE_DESCRIPTION( ( 'STEP AP214' ), '1' );
FILE_NAME( '//goodhand-server/Shared Folders/GoodHand Data/Kipp CAD/K0713/K0713.1308.stp', '2020-12-09T12:39:10', ( '' ), ( '' ), ' ', 'PARTsolutions', ' ' );
FILE_SCHEMA( ( 'AUTOMOTIVE_DESIGN { 1 0 10303 214 1 1 1 1 }' ) );
ENDSEC;
DATA;
#1 = MECHANICAL_DESIGN_GEOMETRIC_PRESENTATION_REPRESENTATION( ' ', ( #10, #11, #12, #13, #14, #15, #16, #17, #18, #19, #20 ), #6 );
#2 = PRODUCT_DEFINITION_CONTEXT( '', #21, 'design' );
#3 = APPLICATION_PROTOCOL_DEFINITION( 'international standard', 'automotive_design', 2001, #21 );
#4 = PRODUCT_CATEGORY_RELATIONSHIP( 'NONE', 'NONE', #22, #23 );
#5 = SHAPE_DEFINITION_REPRESENTATION( #24, #25 );
#6 =  ( GEOMETRIC_REPRESENTATION_CONTEXT( 3 )GLOBAL_UNCERTAINTY_ASSIGNED_CONTEXT( ( #28 ) )GLOBAL_UNIT_ASSIGNED_CONTEXT( ( #30, #31, #32 ) )REPRESENTATION_CONTEXT( 'NONE', 'WORKSPACE' ) );
#10 = STYLED_ITEM( '', ( #34 ), #35 );
#11 = STYLED_ITEM( '', ( #36 ), #37 );
#12 = STYLED_ITEM( '', ( #38 ), #39 );
#13 = STYLED_ITEM( '', ( #40 ), #41 );
#14 = STYLED_ITEM( '', ( #42 ), #43 );
#15 = STYLED_ITEM( '', ( #44 ), #45 );
#16 = STYLED_ITEM( '', ( #46 ), #47 );
#17 = STYLED_ITEM( '', ( #48 ), #49 );
#18 = STYLED_ITEM( '', ( #50 ), #51 );
#19 = STYLED_ITEM( '', ( #52 ), #53 );
#20 = STYLED_ITEM( '', ( #54 ), #55 );
#21 = APPLICATION_CONTEXT( 'core data for automotive mechanical design processes' );
#22 = PRODUCT_CATEGORY( 'part', 'NONE' );
#23 = PRODUCT_RELATED_PRODUCT_CATEGORY( 'detail', ' ', ( #56 ) );
#24 = PRODUCT_DEFINITION_SHAPE( 'NONE', 'NONE', #57 );
#25 = ADVANCED_BREP_SHAPE_REPRESENTATION( '_K0713.1308', ( #58, #59 ), #6 );
#28 = UNCERTAINTY_MEASURE_WITH_UNIT( LENGTH_MEASURE( 0.00100000000000000 ), #30, '', '' );
#30 =  ( CONVERSION_BASED_UNIT( 'MILLIMETRE', #62 )LENGTH_UNIT(  )NAMED_UNIT( #65 ) );
#31 =  ( NAMED_UNIT( #67 )PLANE_ANGLE_UNIT(  )SI_UNIT( $, .RADIAN. ) );
#32 =  ( NAMED_UNIT( #67 )SI_UNIT( $, .STERADIAN. )SOLID_ANGLE_UNIT(  ) );
#34 = PRESENTATION_STYLE_ASSIGNMENT( ( #73 ) );
#35 = ADVANCED_FACE( '', ( #74 ), #75, .T. );
#36 = PRESENTATION_STYLE_ASSIGNMENT( ( #76 ) );
#37 = ADVANCED_FACE( '', ( #77, #78 ), #79, .T. );
#38 = PRESENTATION_STYLE_ASSIGNMENT( ( #80 ) );
#39 = ADVANCED_FACE( '', ( #81 ), #82, .T. );
#40 = PRESENTATION_STYLE_ASSIGNMENT( ( #83 ) );
#41 = ADVANCED_FACE( '', ( #84, #85 ), #86, .F. );
#42 = PRESENTATION_STYLE_ASSIGNMENT( ( #87 ) );
#43 = ADVANCED_FACE( '', ( #88, #89 ), #90, .T. );
#44 = PRESENTATION_STYLE_ASSIGNMENT( ( #91 ) );
#45 = ADVANCED_FACE( '', ( #92 ), #93, .F. );
#46 = PRESENTATION_STYLE_ASSIGNMENT( ( #94 ) );
#47 = ADVANCED_FACE( '', ( #95, #96 ), #97, .T. );
#48 = PRESENTATION_STYLE_ASSIGNMENT( ( #98 ) );
#49 = ADVANCED_FACE( '', ( #99, #100 ), #101, .F. );
#50 = PRESENTATION_STYLE_ASSIGNMENT( ( #102 ) );
#51 = ADVANCED_FACE( '', ( #103, #104 ), #105, .T. );
#52 = PRESENTATION_STYLE_ASSIGNMENT( ( #106 ) );
#53 = ADVANCED_FACE( '', ( #107 ), #108, .T. );
#54 = PRESENTATION_STYLE_ASSIGNMENT( ( #109 ) );
#55 = ADVANCED_FACE( '', ( #110 ), #111, .T. );
#56 = PRODUCT( '_K0713.1308', '_K0713.1308', 'PART-_K0713.1308-DESC', ( #112 ) );
#57 = PRODUCT_DEFINITION( 'NONE', 'NONE', #113, #2 );
#58 = MANIFOLD_SOLID_BREP( '_K0713.1308', #114 );
#59 = AXIS2_PLACEMENT_3D( '', #115, #116, #117 );
#62 = LENGTH_MEASURE_WITH_UNIT( LENGTH_MEASURE( 1.00000000000000 ), #118 );
#65 = DIMENSIONAL_EXPONENTS( 1.00000000000000, 0.000000000000000, 0.000000000000000, 0.000000000000000, 0.000000000000000, 0.000000000000000, 0.000000000000000 );
#67 = DIMENSIONAL_EXPONENTS( 0.000000000000000, 0.000000000000000, 0.000000000000000, 0.000000000000000, 0.000000000000000, 0.000000000000000, 0.000000000000000 );
#73 = SURFACE_STYLE_USAGE( .BOTH., #119 );
#74 = FACE_OUTER_BOUND( '', #120, .T. );
#75 = PLANE( '', #121 );
#76 = SURFACE_STYLE_USAGE( .BOTH., #122 );
#77 = FACE_OUTER_BOUND( '', #123, .T. );
#78 = FACE_OUTER_BOUND( '', #124, .T. );
#79 = SPHERICAL_SURFACE( '', #125, 6.50000000000000 );
#80 = SURFACE_STYLE_USAGE( .BOTH., #126 );
#81 = FACE_OUTER_BOUND( '', #127, .T. );
#82 = PLANE( '', #128 );
#83 = SURFACE_STYLE_USAGE( .BOTH., #129 );
#84 = FACE_BOUND( '', #130, .T. );
#85 = FACE_OUTER_BOUND( '', #131, .T. );
#86 = PLANE( '', #132 );
#87 = SURFACE_STYLE_USAGE( .BOTH., #133 );
#88 = FACE_BOUND( '', #134, .T. );
#89 = FACE_OUTER_BOUND( '', #135, .T. );
#90 = SPHERICAL_SURFACE( '', #136, 5.67348484850000 );
#91 = SURFACE_STYLE_USAGE( .BOTH., #137 );
#92 = FACE_OUTER_BOUND( '', #138, .T. );
#93 = PLANE( '', #139 );
#94 = SURFACE_STYLE_USAGE( .BOTH., #140 );
#95 = FACE_OUTER_BOUND( '', #141, .T. );
#96 = FACE_BOUND( '', #142, .T. );
#97 = CONICAL_SURFACE( '', #143, 2.83328431330000, 0.251012795600000 );
#98 = SURFACE_STYLE_USAGE( .BOTH., #144 );
#99 = FACE_OUTER_BOUND( '', #145, .T. );
#100 = FACE_BOUND( '', #146, .T. );
#101 = PLANE( '', #147 );
#102 = SURFACE_STYLE_USAGE( .BOTH., #148 );
#103 = FACE_OUTER_BOUND( '', #149, .T. );
#104 = FACE_OUTER_BOUND( '', #150, .T. );
#105 = CYLINDRICAL_SURFACE( '', #151, 4.00000000000000 );
#106 = SURFACE_STYLE_USAGE( .BOTH., #152 );
#107 = FACE_OUTER_BOUND( '', #153, .T. );
#108 = CYLINDRICAL_SURFACE( '', #154, 6.50000000000000 );
#109 = SURFACE_STYLE_USAGE( .BOTH., #155 );
#110 = FACE_OUTER_BOUND( '', #156, .T. );
#111 = CYLINDRICAL_SURFACE( '', #157, 6.50000000000000 );
#112 = PRODUCT_CONTEXT( '', #21, 'mechanical' );
#113 = PRODUCT_DEFINITION_FORMATION_WITH_SPECIFIED_SOURCE( ' ', 'NONE', #56, .NOT_KNOWN. );
#114 = CLOSED_SHELL( '', ( #51, #41, #53, #55, #49, #47, #37, #45, #43, #39, #35 ) );
#115 = CARTESIAN_POINT( '', ( 0.000000000000000, 0.000000000000000, 0.000000000000000 ) );
#116 = DIRECTION( '', ( 0.000000000000000, 0.000000000000000, 1.00000000000000 ) );
#117 = DIRECTION( '', ( 1.00000000000000, 0.000000000000000, 0.000000000000000 ) );
#118 =  ( LENGTH_UNIT(  )NAMED_UNIT( #65 )SI_UNIT( .MILLI., .METRE. ) );
#119 = SURFACE_SIDE_STYLE( '', ( #159 ) );
#120 = EDGE_LOOP( '', ( #160, #161, #162, #163 ) );
#121 = AXIS2_PLACEMENT_3D( '', #164, #165, #166 );
#122 = SURFACE_SIDE_STYLE( '', ( #167 ) );
#123 = EDGE_LOOP( '', ( #168 ) );
#124 = EDGE_LOOP( '', ( #169 ) );
#125 = AXIS2_PLACEMENT_3D( '', #170, #171, #172 );
#126 = SURFACE_SIDE_STYLE( '', ( #173 ) );
#127 = EDGE_LOOP( '', ( #174, #175, #176, #177 ) );
#128 = AXIS2_PLACEMENT_3D( '', #178, #179, #180 );
#129 = SURFACE_SIDE_STYLE( '', ( #181 ) );
#130 = EDGE_LOOP( '', ( #182 ) );
#131 = EDGE_LOOP( '', ( #183, #184, #185, #186 ) );
#132 = AXIS2_PLACEMENT_3D( '', #187, #188, #189 );
#133 = SURFACE_SIDE_STYLE( '', ( #190 ) );
#134 = VERTEX_LOOP( '', #191 );
#135 = EDGE_LOOP( '', ( #192 ) );
#136 = AXIS2_PLACEMENT_3D( '', #193, #194, #195 );
#137 = SURFACE_SIDE_STYLE( '', ( #196 ) );
#138 = EDGE_LOOP( '', ( #197 ) );
#139 = AXIS2_PLACEMENT_3D( '', #198, #199, #200 );
#140 = SURFACE_SIDE_STYLE( '', ( #201 ) );
#141 = EDGE_LOOP( '', ( #202 ) );
#142 = EDGE_LOOP( '', ( #203 ) );
#143 = AXIS2_PLACEMENT_3D( '', #204, #205, #206 );
#144 = SURFACE_SIDE_STYLE( '', ( #207 ) );
#145 = EDGE_LOOP( '', ( #208, #209, #210, #211 ) );
#146 = EDGE_LOOP( '', ( #212 ) );
#147 = AXIS2_PLACEMENT_3D( '', #213, #214, #215 );
#148 = SURFACE_SIDE_STYLE( '', ( #216 ) );
#149 = EDGE_LOOP( '', ( #217 ) );
#150 = EDGE_LOOP( '', ( #218 ) );
#151 = AXIS2_PLACEMENT_3D( '', #219, #220, #221 );
#152 = SURFACE_SIDE_STYLE( '', ( #222 ) );
#153 = EDGE_LOOP( '', ( #223, #224, #225, #226 ) );
#154 = AXIS2_PLACEMENT_3D( '', #227, #228, #229 );
#155 = SURFACE_SIDE_STYLE( '', ( #230 ) );
#156 = EDGE_LOOP( '', ( #231, #232, #233, #234 ) );
#157 = AXIS2_PLACEMENT_3D( '', #235, #236, #237 );
#159 = SURFACE_STYLE_FILL_AREA( #238 );
#160 = ORIENTED_EDGE( '', *, *, #239, .T. );
#161 = ORIENTED_EDGE( '', *, *, #240, .T. );
#162 = ORIENTED_EDGE( '', *, *, #241, .T. );
#163 = ORIENTED_EDGE( '', *, *, #242, .T. );
#164 = CARTESIAN_POINT( '', ( 5.10000000000000, -5.50000000000001, -5.50000000000000 ) );
#165 = DIRECTION( '', ( 0.000000000000000, 0.000000000000000, -1.00000000000000 ) );
#166 = DIRECTION( '', ( -1.00000000000000, 0.000000000000000, 0.000000000000000 ) );
#167 = SURFACE_STYLE_FILL_AREA( #243 );
#168 = ORIENTED_EDGE( '', *, *, #244, .T. );
#169 = ORIENTED_EDGE( '', *, *, #245, .F. );
#170 = CARTESIAN_POINT( '', ( -8.67361737988404E-16, -5.20417042793042E-15, 0.000000000000000 ) );
#171 = DIRECTION( '', ( 1.00000000000000, 0.000000000000000, 0.000000000000000 ) );
#172 = DIRECTION( '', ( 0.000000000000000, 1.00000000000000, 0.000000000000000 ) );
#173 = SURFACE_STYLE_FILL_AREA( #246 );
#174 = ORIENTED_EDGE( '', *, *, #247, .T. );
#175 = ORIENTED_EDGE( '', *, *, #248, .T. );
#176 = ORIENTED_EDGE( '', *, *, #249, .T. );
#177 = ORIENTED_EDGE( '', *, *, #250, .T. );
#178 = CARTESIAN_POINT( '', ( 5.10000000000000, 5.50000000000001, 5.50000000000000 ) );
#179 = DIRECTION( '', ( 0.000000000000000, 0.000000000000000, 1.00000000000000 ) );
#180 = DIRECTION( '', ( 1.00000000000000, 0.000000000000000, -0.000000000000000 ) );
#181 = SURFACE_STYLE_FILL_AREA( #251 );
#182 = ORIENTED_EDGE( '', *, *, #252, .F. );
#183 = ORIENTED_EDGE( '', *, *, #241, .F. );
#184 = ORIENTED_EDGE( '', *, *, #253, .T. );
#185 = ORIENTED_EDGE( '', *, *, #249, .F. );
#186 = ORIENTED_EDGE( '', *, *, #254, .T. );
#187 = CARTESIAN_POINT( '', ( 13.0000000000000, 6.49999999999999, 0.000000000000000 ) );
#188 = DIRECTION( '', ( -1.00000000000000, 0.000000000000000, 0.000000000000000 ) );
#189 = DIRECTION( '', ( 0.000000000000000, 0.000000000000000, 1.00000000000000 ) );
#190 = SURFACE_STYLE_FILL_AREA( #255 );
#191 = VERTEX_POINT( '', #256 );
#192 = ORIENTED_EDGE( '', *, *, #257, .T. );
#193 = CARTESIAN_POINT( '', ( 23.8265151515151, -6.93889390390723E-15, 0.000000000000000 ) );
#194 = DIRECTION( '', ( 1.00000000000000, 0.000000000000000, 0.000000000000000 ) );
#195 = DIRECTION( '', ( 0.000000000000000, 1.00000000000000, 0.000000000000000 ) );
#196 = SURFACE_STYLE_FILL_AREA( #258 );
#197 = ORIENTED_EDGE( '', *, *, #244, .F. );
#198 = CARTESIAN_POINT( '', ( -5.20000000000000, 0.000000000000000, 0.000000000000000 ) );
#199 = DIRECTION( '', ( 1.00000000000000, 0.000000000000000, -0.000000000000000 ) );
#200 = DIRECTION( '', ( -0.000000000000000, 0.000000000000000, -1.00000000000000 ) );
#201 = SURFACE_STYLE_FILL_AREA( #259 );
#202 = ORIENTED_EDGE( '', *, *, #260, .F. );
#203 = ORIENTED_EDGE( '', *, *, #245, .T. );
#204 = CARTESIAN_POINT( '', ( 5.85000000000000, 0.000000000000000, 0.000000000000000 ) );
#205 = DIRECTION( '', ( 1.00000000000000, -0.000000000000000, -0.000000000000000 ) );
#206 = DIRECTION( '', ( -0.000000000000000, 0.000000000000000, -1.00000000000000 ) );
#207 = SURFACE_STYLE_FILL_AREA( #261 );
#208 = ORIENTED_EDGE( '', *, *, #262, .F. );
#209 = ORIENTED_EDGE( '', *, *, #239, .F. );
#210 = ORIENTED_EDGE( '', *, *, #263, .F. );
#211 = ORIENTED_EDGE( '', *, *, #247, .F. );
#212 = ORIENTED_EDGE( '', *, *, #260, .T. );
#213 = CARTESIAN_POINT( '', ( 10.4000000000000, 4.00000000000000, 0.000000000000000 ) );
#214 = DIRECTION( '', ( 1.00000000000000, 0.000000000000000, -0.000000000000000 ) );
#215 = DIRECTION( '', ( -0.000000000000000, 0.000000000000000, -1.00000000000000 ) );
#216 = SURFACE_STYLE_FILL_AREA( #264 );
#217 = ORIENTED_EDGE( '', *, *, #257, .F. );
#218 = ORIENTED_EDGE( '', *, *, #252, .T. );
#219 = CARTESIAN_POINT( '', ( 29.5000000000000, 0.000000000000000, 0.000000000000000 ) );
#220 = DIRECTION( '', ( -1.00000000000000, -0.000000000000000, 0.000000000000000 ) );
#221 = DIRECTION( '', ( -0.000000000000000, 0.000000000000000, -1.00000000000000 ) );
#222 = SURFACE_STYLE_FILL_AREA( #265 );
#223 = ORIENTED_EDGE( '', *, *, #250, .F. );
#224 = ORIENTED_EDGE( '', *, *, #253, .F. );
#225 = ORIENTED_EDGE( '', *, *, #240, .F. );
#226 = ORIENTED_EDGE( '', *, *, #262, .T. );
#227 = CARTESIAN_POINT( '', ( 29.5000000000000, 0.000000000000000, 0.000000000000000 ) );
#228 = DIRECTION( '', ( -1.00000000000000, -0.000000000000000, 0.000000000000000 ) );
#229 = DIRECTION( '', ( -0.000000000000000, 0.000000000000000, -1.00000000000000 ) );
#230 = SURFACE_STYLE_FILL_AREA( #266 );
#231 = ORIENTED_EDGE( '', *, *, #242, .F. );
#232 = ORIENTED_EDGE( '', *, *, #254, .F. );
#233 = ORIENTED_EDGE( '', *, *, #248, .F. );
#234 = ORIENTED_EDGE( '', *, *, #263, .T. );
#235 = CARTESIAN_POINT( '', ( 29.5000000000000, 0.000000000000000, 0.000000000000000 ) );
#236 = DIRECTION( '', ( -1.00000000000000, -0.000000000000000, 0.000000000000000 ) );
#237 = DIRECTION( '', ( -0.000000000000000, 0.000000000000000, -1.00000000000000 ) );
#238 = FILL_AREA_STYLE( '', ( #267 ) );
#239 = EDGE_CURVE( '', #268, #269, #270, .T. );
#240 = EDGE_CURVE( '', #269, #271, #272, .T. );
#241 = EDGE_CURVE( '', #271, #273, #274, .T. );
#242 = EDGE_CURVE( '', #273, #268, #275, .F. );
#243 = FILL_AREA_STYLE( '', ( #276 ) );
#244 = EDGE_CURVE( '', #277, #277, #278, .T. );
#245 = EDGE_CURVE( '', #279, #279, #280, .T. );
#246 = FILL_AREA_STYLE( '', ( #281 ) );
#247 = EDGE_CURVE( '', #282, #283, #284, .T. );
#248 = EDGE_CURVE( '', #283, #285, #286, .T. );
#249 = EDGE_CURVE( '', #285, #287, #288, .T. );
#250 = EDGE_CURVE( '', #287, #282, #289, .F. );
#251 = FILL_AREA_STYLE( '', ( #290 ) );
#252 = EDGE_CURVE( '', #291, #291, #292, .T. );
#253 = EDGE_CURVE( '', #271, #287, #293, .T. );
#254 = EDGE_CURVE( '', #285, #273, #294, .T. );
#255 = FILL_AREA_STYLE( '', ( #295 ) );
#256 = CARTESIAN_POINT( '', ( 29.5000000000000, -6.59149315092183E-15, 0.000000000000000 ) );
#257 = EDGE_CURVE( '', #296, #296, #297, .T. );
#258 = FILL_AREA_STYLE( '', ( #298 ) );
#259 = FILL_AREA_STYLE( '', ( #299 ) );
#260 = EDGE_CURVE( '', #300, #300, #301, .T. );
#261 = FILL_AREA_STYLE( '', ( #302 ) );
#262 = EDGE_CURVE( '', #269, #282, #303, .T. );
#263 = EDGE_CURVE( '', #283, #268, #304, .T. );
#264 = FILL_AREA_STYLE( '', ( #305 ) );
#265 = FILL_AREA_STYLE( '', ( #306 ) );
#266 = FILL_AREA_STYLE( '', ( #307 ) );
#267 = FILL_AREA_STYLE_COLOUR( '', #308 );
#268 = VERTEX_POINT( '', #309 );
#269 = VERTEX_POINT( '', #310 );
#270 = LINE( '', #311, #312 );
#271 = VERTEX_POINT( '', #313 );
#272 = LINE( '', #314, #315 );
#273 = VERTEX_POINT( '', #316 );
#274 = LINE( '', #317, #318 );
#275 = LINE( '', #319, #320 );
#276 = FILL_AREA_STYLE_COLOUR( '', #321 );
#277 = VERTEX_POINT( '', #322 );
#278 = CIRCLE( '', #323, 3.90000000000000 );
#279 = VERTEX_POINT( '', #324 );
#280 = CIRCLE( '', #325, 2.83328431330000 );
#281 = FILL_AREA_STYLE_COLOUR( '', #326 );
#282 = VERTEX_POINT( '', #327 );
#283 = VERTEX_POINT( '', #328 );
#284 = LINE( '', #329, #330 );
#285 = VERTEX_POINT( '', #331 );
#286 = LINE( '', #332, #333 );
#287 = VERTEX_POINT( '', #334 );
#288 = LINE( '', #335, #336 );
#289 = LINE( '', #337, #338 );
#290 = FILL_AREA_STYLE_COLOUR( '', #339 );
#291 = VERTEX_POINT( '', #340 );
#292 = CIRCLE( '', #341, 4.00000000000000 );
#293 = CIRCLE( '', #342, 6.50000000000000 );
#294 = CIRCLE( '', #343, 6.50000000000000 );
#295 = FILL_AREA_STYLE_COLOUR( '', #344 );
#296 = VERTEX_POINT( '', #345 );
#297 = CIRCLE( '', #346, 4.00000000000000 );
#298 = FILL_AREA_STYLE_COLOUR( '', #347 );
#299 = FILL_AREA_STYLE_COLOUR( '', #348 );
#300 = VERTEX_POINT( '', #349 );
#301 = CIRCLE( '', #350, 4.00000000000000 );
#302 = FILL_AREA_STYLE_COLOUR( '', #351 );
#303 = CIRCLE( '', #352, 6.50000000000000 );
#304 = CIRCLE( '', #353, 6.50000000000000 );
#305 = FILL_AREA_STYLE_COLOUR( '', #354 );
#306 = FILL_AREA_STYLE_COLOUR( '', #355 );
#307 = FILL_AREA_STYLE_COLOUR( '', #356 );
#308 = COLOUR_RGB( '', 0.689999997600000, 0.689999997600000, 0.689999997600000 );
#309 = CARTESIAN_POINT( '', ( 10.4000000000000, -3.46410161513774, -5.50000000000000 ) );
#310 = CARTESIAN_POINT( '', ( 10.4000000000000, 3.46410161513774, -5.50000000000000 ) );
#311 = CARTESIAN_POINT( '', ( 10.4000000000000, 4.00000000000000, -5.50000000000000 ) );
#312 = VECTOR( '', #357, 1000.00000000000 );
#313 = CARTESIAN_POINT( '', ( 13.0000000000000, 3.46410161513774, -5.50000000000000 ) );
#314 = CARTESIAN_POINT( '', ( 29.5000000000000, 3.46410161513774, -5.50000000000000 ) );
#315 = VECTOR( '', #358, 1000.00000000000 );
#316 = CARTESIAN_POINT( '', ( 13.0000000000000, -3.46410161513774, -5.50000000000000 ) );
#317 = CARTESIAN_POINT( '', ( 13.0000000000000, 6.49999999999999, -5.50000000000000 ) );
#318 = VECTOR( '', #359, 1000.00000000000 );
#319 = CARTESIAN_POINT( '', ( 29.5000000000000, -3.46410161513774, -5.50000000000000 ) );
#320 = VECTOR( '', #360, 1000.00000000000 );
#321 = COLOUR_RGB( '', 0.689999997600000, 0.689999997600000, 0.689999997600000 );
#322 = CARTESIAN_POINT( '', ( -5.20000000000000, 0.000000000000000, -3.90000000000000 ) );
#323 = AXIS2_PLACEMENT_3D( '', #361, #362, #363 );
#324 = CARTESIAN_POINT( '', ( 5.85000000000000, 0.000000000000000, -2.83328431330144 ) );
#325 = AXIS2_PLACEMENT_3D( '', #364, #365, #366 );
#326 = COLOUR_RGB( '', 0.689999997600000, 0.689999997600000, 0.689999997600000 );
#327 = CARTESIAN_POINT( '', ( 10.4000000000000, 3.46410161513774, 5.50000000000000 ) );
#328 = CARTESIAN_POINT( '', ( 10.4000000000000, -3.46410161513774, 5.50000000000000 ) );
#329 = CARTESIAN_POINT( '', ( 10.4000000000000, 4.00000000000000, 5.50000000000000 ) );
#330 = VECTOR( '', #367, 1000.00000000000 );
#331 = CARTESIAN_POINT( '', ( 13.0000000000000, -3.46410161513774, 5.50000000000000 ) );
#332 = CARTESIAN_POINT( '', ( 29.5000000000000, -3.46410161513774, 5.50000000000000 ) );
#333 = VECTOR( '', #368, 1000.00000000000 );
#334 = CARTESIAN_POINT( '', ( 13.0000000000000, 3.46410161513774, 5.50000000000000 ) );
#335 = CARTESIAN_POINT( '', ( 13.0000000000000, 6.49999999999999, 5.50000000000000 ) );
#336 = VECTOR( '', #369, 1000.00000000000 );
#337 = CARTESIAN_POINT( '', ( 29.5000000000000, 3.46410161513774, 5.50000000000000 ) );
#338 = VECTOR( '', #370, 1000.00000000000 );
#339 = COLOUR_RGB( '', 0.689999997600000, 0.689999997600000, 0.689999997600000 );
#340 = CARTESIAN_POINT( '', ( 13.0000000000000, 0.000000000000000, -4.00000000000000 ) );
#341 = AXIS2_PLACEMENT_3D( '', #371, #372, #373 );
#342 = AXIS2_PLACEMENT_3D( '', #374, #375, #376 );
#343 = AXIS2_PLACEMENT_3D( '', #377, #378, #379 );
#344 = COLOUR_RGB( '', 0.689999997600000, 0.689999997600000, 0.689999997600000 );
#345 = CARTESIAN_POINT( '', ( 27.8500000000000, 0.000000000000000, -4.00000000000000 ) );
#346 = AXIS2_PLACEMENT_3D( '', #380, #381, #382 );
#347 = COLOUR_RGB( '', 0.689999997600000, 0.689999997600000, 0.689999997600000 );
#348 = COLOUR_RGB( '', 0.689999997600000, 0.689999997600000, 0.689999997600000 );
#349 = CARTESIAN_POINT( '', ( 10.4000000000000, 0.000000000000000, -4.00000000000000 ) );
#350 = AXIS2_PLACEMENT_3D( '', #383, #384, #385 );
#351 = COLOUR_RGB( '', 0.689999997600000, 0.689999997600000, 0.689999997600000 );
#352 = AXIS2_PLACEMENT_3D( '', #386, #387, #388 );
#353 = AXIS2_PLACEMENT_3D( '', #389, #390, #391 );
#354 = COLOUR_RGB( '', 0.689999997600000, 0.689999997600000, 0.689999997600000 );
#355 = COLOUR_RGB( '', 0.689999997600000, 0.689999997600000, 0.689999997600000 );
#356 = COLOUR_RGB( '', 0.689999997600000, 0.689999997600000, 0.689999997600000 );
#357 = DIRECTION( '', ( 0.000000000000000, 1.00000000000000, 0.000000000000000 ) );
#358 = DIRECTION( '', ( 1.00000000000000, -0.000000000000000, -0.000000000000000 ) );
#359 = DIRECTION( '', ( 0.000000000000000, -1.00000000000000, 0.000000000000000 ) );
#360 = DIRECTION( '', ( 1.00000000000000, -0.000000000000000, -0.000000000000000 ) );
#361 = CARTESIAN_POINT( '', ( -5.20000000000000, 0.000000000000000, 0.000000000000000 ) );
#362 = DIRECTION( '', ( 1.00000000000000, 0.000000000000000, -0.000000000000000 ) );
#363 = DIRECTION( '', ( -0.000000000000000, 0.000000000000000, -1.00000000000000 ) );
#364 = CARTESIAN_POINT( '', ( 5.85000000000000, 0.000000000000000, 0.000000000000000 ) );
#365 = DIRECTION( '', ( 1.00000000000000, 0.000000000000000, -0.000000000000000 ) );
#366 = DIRECTION( '', ( -0.000000000000000, 0.000000000000000, -1.00000000000000 ) );
#367 = DIRECTION( '', ( 0.000000000000000, -1.00000000000000, 0.000000000000000 ) );
#368 = DIRECTION( '', ( 1.00000000000000, -0.000000000000000, -0.000000000000000 ) );
#369 = DIRECTION( '', ( 0.000000000000000, 1.00000000000000, -0.000000000000000 ) );
#370 = DIRECTION( '', ( 1.00000000000000, -0.000000000000000, -0.000000000000000 ) );
#371 = CARTESIAN_POINT( '', ( 13.0000000000000, 0.000000000000000, 0.000000000000000 ) );
#372 = DIRECTION( '', ( 1.00000000000000, 0.000000000000000, -0.000000000000000 ) );
#373 = DIRECTION( '', ( -0.000000000000000, 0.000000000000000, -1.00000000000000 ) );
#374 = CARTESIAN_POINT( '', ( 13.0000000000000, 0.000000000000000, 0.000000000000000 ) );
#375 = DIRECTION( '', ( 1.00000000000000, 0.000000000000000, -0.000000000000000 ) );
#376 = DIRECTION( '', ( -0.000000000000000, 0.000000000000000, -1.00000000000000 ) );
#377 = CARTESIAN_POINT( '', ( 13.0000000000000, 0.000000000000000, 0.000000000000000 ) );
#378 = DIRECTION( '', ( 1.00000000000000, 0.000000000000000, -0.000000000000000 ) );
#379 = DIRECTION( '', ( -0.000000000000000, 0.000000000000000, -1.00000000000000 ) );
#380 = CARTESIAN_POINT( '', ( 27.8500000000000, 0.000000000000000, 0.000000000000000 ) );
#381 = DIRECTION( '', ( 1.00000000000000, 0.000000000000000, -0.000000000000000 ) );
#382 = DIRECTION( '', ( -0.000000000000000, 0.000000000000000, -1.00000000000000 ) );
#383 = CARTESIAN_POINT( '', ( 10.4000000000000, 0.000000000000000, 0.000000000000000 ) );
#384 = DIRECTION( '', ( 1.00000000000000, 0.000000000000000, -0.000000000000000 ) );
#385 = DIRECTION( '', ( -0.000000000000000, 0.000000000000000, -1.00000000000000 ) );
#386 = CARTESIAN_POINT( '', ( 10.4000000000000, 0.000000000000000, 0.000000000000000 ) );
#387 = DIRECTION( '', ( 1.00000000000000, 0.000000000000000, -0.000000000000000 ) );
#388 = DIRECTION( '', ( -0.000000000000000, 0.000000000000000, -1.00000000000000 ) );
#389 = CARTESIAN_POINT( '', ( 10.4000000000000, 0.000000000000000, 0.000000000000000 ) );
#390 = DIRECTION( '', ( 1.00000000000000, 0.000000000000000, -0.000000000000000 ) );
#391 = DIRECTION( '', ( -0.000000000000000, 0.000000000000000, -1.00000000000000 ) );
ENDSEC;
END-ISO-10303-21;
