ISO-10303-21;
HEADER;
FILE_DESCRIPTION( ( 'STEP AP214' ), '1' );
FILE_NAME( '//goodhand-server/Shared Folders/GoodHand Data/Kipp CAD/K0390/K0390.121X65.stp', '2020-12-07T10:15:47', ( '' ), ( '' ), ' ', 'PARTsolutions', ' ' );
FILE_SCHEMA( ( 'AUTOMOTIVE_DESIGN { 1 0 10303 214 1 1 1 1 }' ) );
ENDSEC;
DATA;
#1 = MECHANICAL_DESIGN_GEOMETRIC_PRESENTATION_REPRESENTATION( ' ', ( #10, #11, #12, #13, #14, #15, #16, #17, #18, #19, #20, #21, #22 ), #6 );
#2 = PRODUCT_DEFINITION_CONTEXT( '', #23, 'design' );
#3 = APPLICATION_PROTOCOL_DEFINITION( 'international standard', 'automotive_design', 2001, #23 );
#4 = PRODUCT_CATEGORY_RELATIONSHIP( 'NONE', 'NONE', #24, #25 );
#5 = SHAPE_DEFINITION_REPRESENTATION( #26, #27 );
#6 =  ( GEOMETRIC_REPRESENTATION_CONTEXT( 3 )GLOBAL_UNCERTAINTY_ASSIGNED_CONTEXT( ( #30 ) )GLOBAL_UNIT_ASSIGNED_CONTEXT( ( #32, #33, #34 ) )REPRESENTATION_CONTEXT( 'NONE', 'WORKSPACE' ) );
#10 = STYLED_ITEM( '', ( #36 ), #37 );
#11 = STYLED_ITEM( '', ( #38 ), #39 );
#12 = STYLED_ITEM( '', ( #40 ), #41 );
#13 = STYLED_ITEM( '', ( #42 ), #43 );
#14 = STYLED_ITEM( '', ( #44 ), #45 );
#15 = STYLED_ITEM( '', ( #46 ), #47 );
#16 = STYLED_ITEM( '', ( #48 ), #49 );
#17 = STYLED_ITEM( '', ( #50 ), #51 );
#18 = STYLED_ITEM( '', ( #52 ), #53 );
#19 = STYLED_ITEM( '', ( #54 ), #55 );
#20 = STYLED_ITEM( '', ( #56 ), #57 );
#21 = STYLED_ITEM( '', ( #58 ), #59 );
#22 = STYLED_ITEM( '', ( #60 ), #61 );
#23 = APPLICATION_CONTEXT( 'core data for automotive mechanical design processes' );
#24 = PRODUCT_CATEGORY( 'part', 'NONE' );
#25 = PRODUCT_RELATED_PRODUCT_CATEGORY( 'detail', ' ', ( #62 ) );
#26 = PRODUCT_DEFINITION_SHAPE( 'NONE', 'NONE', #63 );
#27 = ADVANCED_BREP_SHAPE_REPRESENTATION( '_K0390.121X65', ( #64, #65 ), #6 );
#30 = UNCERTAINTY_MEASURE_WITH_UNIT( LENGTH_MEASURE( 0.00100000000000000 ), #32, '', '' );
#32 =  ( CONVERSION_BASED_UNIT( 'MILLIMETRE', #68 )LENGTH_UNIT(  )NAMED_UNIT( #71 ) );
#33 =  ( NAMED_UNIT( #73 )PLANE_ANGLE_UNIT(  )SI_UNIT( $, .RADIAN. ) );
#34 =  ( NAMED_UNIT( #73 )SI_UNIT( $, .STERADIAN. )SOLID_ANGLE_UNIT(  ) );
#36 = PRESENTATION_STYLE_ASSIGNMENT( ( #79 ) );
#37 = ADVANCED_FACE( '', ( #80 ), #81, .T. );
#38 = PRESENTATION_STYLE_ASSIGNMENT( ( #82 ) );
#39 = ADVANCED_FACE( '', ( #83, #84 ), #85, .T. );
#40 = PRESENTATION_STYLE_ASSIGNMENT( ( #86 ) );
#41 = ADVANCED_FACE( '', ( #87, #88 ), #89, .F. );
#42 = PRESENTATION_STYLE_ASSIGNMENT( ( #90 ) );
#43 = ADVANCED_FACE( '', ( #91 ), #92, .F. );
#44 = PRESENTATION_STYLE_ASSIGNMENT( ( #93 ) );
#45 = ADVANCED_FACE( '', ( #94 ), #95, .F. );
#46 = PRESENTATION_STYLE_ASSIGNMENT( ( #96 ) );
#47 = ADVANCED_FACE( '', ( #97 ), #98, .F. );
#48 = PRESENTATION_STYLE_ASSIGNMENT( ( #99 ) );
#49 = ADVANCED_FACE( '', ( #100 ), #101, .T. );
#50 = PRESENTATION_STYLE_ASSIGNMENT( ( #102 ) );
#51 = ADVANCED_FACE( '', ( #103, #104 ), #105, .T. );
#52 = PRESENTATION_STYLE_ASSIGNMENT( ( #106 ) );
#53 = ADVANCED_FACE( '', ( #107 ), #108, .T. );
#54 = PRESENTATION_STYLE_ASSIGNMENT( ( #109 ) );
#55 = ADVANCED_FACE( '', ( #110, #111 ), #112, .T. );
#56 = PRESENTATION_STYLE_ASSIGNMENT( ( #113 ) );
#57 = ADVANCED_FACE( '', ( #114 ), #115, .F. );
#58 = PRESENTATION_STYLE_ASSIGNMENT( ( #116 ) );
#59 = ADVANCED_FACE( '', ( #117, #118 ), #119, .T. );
#60 = PRESENTATION_STYLE_ASSIGNMENT( ( #120 ) );
#61 = ADVANCED_FACE( '', ( #121, #122 ), #123, .T. );
#62 = PRODUCT( '_K0390.121X65', '_K0390.121X65', 'PART-_K0390.121X65-DESC', ( #124 ) );
#63 = PRODUCT_DEFINITION( 'NONE', 'NONE', #125, #2 );
#64 = MANIFOLD_SOLID_BREP( '_K0390.121X65', #126 );
#65 = AXIS2_PLACEMENT_3D( '', #127, #128, #129 );
#68 = LENGTH_MEASURE_WITH_UNIT( LENGTH_MEASURE( 1.00000000000000 ), #130 );
#71 = DIMENSIONAL_EXPONENTS( 1.00000000000000, 0.000000000000000, 0.000000000000000, 0.000000000000000, 0.000000000000000, 0.000000000000000, 0.000000000000000 );
#73 = DIMENSIONAL_EXPONENTS( 0.000000000000000, 0.000000000000000, 0.000000000000000, 0.000000000000000, 0.000000000000000, 0.000000000000000, 0.000000000000000 );
#79 = SURFACE_STYLE_USAGE( .BOTH., #131 );
#80 = FACE_OUTER_BOUND( '', #132, .T. );
#81 = CONICAL_SURFACE( '', #133, 4.92650000000000, 0.785398163400000 );
#82 = SURFACE_STYLE_USAGE( .BOTH., #134 );
#83 = FACE_OUTER_BOUND( '', #135, .T. );
#84 = FACE_OUTER_BOUND( '', #136, .T. );
#85 = CYLINDRICAL_SURFACE( '', #137, 4.00000000000000 );
#86 = SURFACE_STYLE_USAGE( .BOTH., #138 );
#87 = FACE_OUTER_BOUND( '', #139, .T. );
#88 = FACE_BOUND( '', #140, .T. );
#89 = PLANE( '', #141 );
#90 = SURFACE_STYLE_USAGE( .BOTH., #142 );
#91 = FACE_OUTER_BOUND( '', #143, .T. );
#92 = PLANE( '', #144 );
#93 = SURFACE_STYLE_USAGE( .BOTH., #145 );
#94 = FACE_OUTER_BOUND( '', #146, .T. );
#95 = PLANE( '', #147 );
#96 = SURFACE_STYLE_USAGE( .BOTH., #148 );
#97 = FACE_OUTER_BOUND( '', #149, .T. );
#98 = PLANE( '', #150 );
#99 = SURFACE_STYLE_USAGE( .BOTH., #151 );
#100 = FACE_OUTER_BOUND( '', #152, .T. );
#101 = PLANE( '', #153 );
#102 = SURFACE_STYLE_USAGE( .BOTH., #154 );
#103 = FACE_BOUND( '', #155, .T. );
#104 = FACE_OUTER_BOUND( '', #156, .T. );
#105 = SPHERICAL_SURFACE( '', #157, 6.70960000000000 );
#106 = SURFACE_STYLE_USAGE( .BOTH., #158 );
#107 = FACE_OUTER_BOUND( '', #159, .T. );
#108 = CONICAL_SURFACE( '', #160, 4.92650000000000, 0.785398163400000 );
#109 = SURFACE_STYLE_USAGE( .BOTH., #161 );
#110 = FACE_OUTER_BOUND( '', #162, .T. );
#111 = FACE_OUTER_BOUND( '', #163, .T. );
#112 = CYLINDRICAL_SURFACE( '', #164, 6.00000000000000 );
#113 = SURFACE_STYLE_USAGE( .BOTH., #165 );
#114 = FACE_OUTER_BOUND( '', #166, .T. );
#115 = PLANE( '', #167 );
#116 = SURFACE_STYLE_USAGE( .BOTH., #168 );
#117 = FACE_OUTER_BOUND( '', #169, .T. );
#118 = FACE_OUTER_BOUND( '', #170, .T. );
#119 = CYLINDRICAL_SURFACE( '', #171, 3.60000000000000 );
#120 = SURFACE_STYLE_USAGE( .BOTH., #172 );
#121 = FACE_BOUND( '', #173, .T. );
#122 = FACE_OUTER_BOUND( '', #174, .T. );
#123 = CONICAL_SURFACE( '', #175, 6.00000000000000, 1.18946407340000 );
#124 = PRODUCT_CONTEXT( '', #23, 'mechanical' );
#125 = PRODUCT_DEFINITION_FORMATION_WITH_SPECIFIED_SOURCE( ' ', 'NONE', #62, .NOT_KNOWN. );
#126 = CLOSED_SHELL( '', ( #43, #45, #51, #39, #41, #59, #61, #55, #53, #57, #37, #47, #49 ) );
#127 = CARTESIAN_POINT( '', ( 0.000000000000000, 0.000000000000000, 0.000000000000000 ) );
#128 = DIRECTION( '', ( 0.000000000000000, 0.000000000000000, 1.00000000000000 ) );
#129 = DIRECTION( '', ( 1.00000000000000, 0.000000000000000, 0.000000000000000 ) );
#130 =  ( LENGTH_UNIT(  )NAMED_UNIT( #71 )SI_UNIT( .MILLI., .METRE. ) );
#131 = SURFACE_SIDE_STYLE( '', ( #177 ) );
#132 = EDGE_LOOP( '', ( #178, #179, #180, #181 ) );
#133 = AXIS2_PLACEMENT_3D( '', #182, #183, #184 );
#134 = SURFACE_SIDE_STYLE( '', ( #185 ) );
#135 = EDGE_LOOP( '', ( #186 ) );
#136 = EDGE_LOOP( '', ( #187 ) );
#137 = AXIS2_PLACEMENT_3D( '', #188, #189, #190 );
#138 = SURFACE_SIDE_STYLE( '', ( #191 ) );
#139 = EDGE_LOOP( '', ( #192 ) );
#140 = EDGE_LOOP( '', ( #193 ) );
#141 = AXIS2_PLACEMENT_3D( '', #194, #195, #196 );
#142 = SURFACE_SIDE_STYLE( '', ( #197 ) );
#143 = EDGE_LOOP( '', ( #198, #199, #200, #201, #202, #203 ) );
#144 = AXIS2_PLACEMENT_3D( '', #204, #205, #206 );
#145 = SURFACE_SIDE_STYLE( '', ( #207 ) );
#146 = EDGE_LOOP( '', ( #208, #209, #210, #211, #212, #213 ) );
#147 = AXIS2_PLACEMENT_3D( '', #214, #215, #216 );
#148 = SURFACE_SIDE_STYLE( '', ( #217 ) );
#149 = EDGE_LOOP( '', ( #218, #219 ) );
#150 = AXIS2_PLACEMENT_3D( '', #220, #221, #222 );
#151 = SURFACE_SIDE_STYLE( '', ( #223 ) );
#152 = EDGE_LOOP( '', ( #224, #225, #226, #227 ) );
#153 = AXIS2_PLACEMENT_3D( '', #228, #229, #230 );
#154 = SURFACE_SIDE_STYLE( '', ( #231 ) );
#155 = VERTEX_LOOP( '', #232 );
#156 = EDGE_LOOP( '', ( #233 ) );
#157 = AXIS2_PLACEMENT_3D( '', #234, #235, #236 );
#158 = SURFACE_SIDE_STYLE( '', ( #237 ) );
#159 = EDGE_LOOP( '', ( #238, #239, #240, #241 ) );
#160 = AXIS2_PLACEMENT_3D( '', #242, #243, #244 );
#161 = SURFACE_SIDE_STYLE( '', ( #245 ) );
#162 = EDGE_LOOP( '', ( #246 ) );
#163 = EDGE_LOOP( '', ( #247, #248, #249, #250, #251, #252, #253, #254 ) );
#164 = AXIS2_PLACEMENT_3D( '', #255, #256, #257 );
#165 = SURFACE_SIDE_STYLE( '', ( #258 ) );
#166 = EDGE_LOOP( '', ( #259, #260 ) );
#167 = AXIS2_PLACEMENT_3D( '', #261, #262, #263 );
#168 = SURFACE_SIDE_STYLE( '', ( #264 ) );
#169 = EDGE_LOOP( '', ( #265 ) );
#170 = EDGE_LOOP( '', ( #266 ) );
#171 = AXIS2_PLACEMENT_3D( '', #267, #268, #269 );
#172 = SURFACE_SIDE_STYLE( '', ( #270 ) );
#173 = EDGE_LOOP( '', ( #271 ) );
#174 = EDGE_LOOP( '', ( #272 ) );
#175 = AXIS2_PLACEMENT_3D( '', #273, #274, #275 );
#177 = SURFACE_STYLE_FILL_AREA( #276 );
#178 = ORIENTED_EDGE( '', *, *, #277, .F. );
#179 = ORIENTED_EDGE( '', *, *, #278, .T. );
#180 = ORIENTED_EDGE( '', *, *, #279, .T. );
#181 = ORIENTED_EDGE( '', *, *, #280, .T. );
#182 = CARTESIAN_POINT( '', ( 1.38777878078145E-14, 1.28618862942302E-14, 0.000000000000000 ) );
#183 = DIRECTION( '', ( 1.00000000000000, -6.12323399573677E-17, -0.000000000000000 ) );
#184 = DIRECTION( '', ( 6.12323399573677E-17, 1.00000000000000, 0.000000000000000 ) );
#185 = SURFACE_STYLE_FILL_AREA( #281 );
#186 = ORIENTED_EDGE( '', *, *, #282, .F. );
#187 = ORIENTED_EDGE( '', *, *, #283, .T. );
#188 = CARTESIAN_POINT( '', ( 65.0000000000000, 8.88178419700125E-15, 0.000000000000000 ) );
#189 = DIRECTION( '', ( -1.00000000000000, 6.12323399573677E-17, 0.000000000000000 ) );
#190 = DIRECTION( '', ( 6.12323399573677E-17, 1.00000000000000, 0.000000000000000 ) );
#191 = SURFACE_STYLE_FILL_AREA( #284 );
#192 = ORIENTED_EDGE( '', *, *, #283, .F. );
#193 = ORIENTED_EDGE( '', *, *, #285, .T. );
#194 = CARTESIAN_POINT( '', ( 60.5000000000000, 3.60000000000001, 0.000000000000000 ) );
#195 = DIRECTION( '', ( 1.00000000000000, -6.12323399573677E-17, -0.000000000000000 ) );
#196 = DIRECTION( '', ( 6.12323399573677E-17, 1.00000000000000, 0.000000000000000 ) );
#197 = SURFACE_STYLE_FILL_AREA( #286 );
#198 = ORIENTED_EDGE( '', *, *, #287, .F. );
#199 = ORIENTED_EDGE( '', *, *, #288, .T. );
#200 = ORIENTED_EDGE( '', *, *, #289, .F. );
#201 = ORIENTED_EDGE( '', *, *, #290, .F. );
#202 = ORIENTED_EDGE( '', *, *, #291, .F. );
#203 = ORIENTED_EDGE( '', *, *, #292, .F. );
#204 = CARTESIAN_POINT( '', ( 3.00000000000001, 0.900000000000013, 10.5000000000000 ) );
#205 = DIRECTION( '', ( 0.000000000000000, 1.00000000000000, 0.000000000000000 ) );
#206 = DIRECTION( '', ( 0.000000000000000, -0.000000000000000, 1.00000000000000 ) );
#207 = SURFACE_STYLE_FILL_AREA( #293 );
#208 = ORIENTED_EDGE( '', *, *, #294, .T. );
#209 = ORIENTED_EDGE( '', *, *, #278, .F. );
#210 = ORIENTED_EDGE( '', *, *, #295, .F. );
#211 = ORIENTED_EDGE( '', *, *, #296, .F. );
#212 = ORIENTED_EDGE( '', *, *, #297, .F. );
#213 = ORIENTED_EDGE( '', *, *, #280, .F. );
#214 = CARTESIAN_POINT( '', ( 3.00000000000001, -0.899999999999987, -10.5000000000000 ) );
#215 = DIRECTION( '', ( 0.000000000000000, -1.00000000000000, 0.000000000000000 ) );
#216 = DIRECTION( '', ( 0.000000000000000, 0.000000000000000, -1.00000000000000 ) );
#217 = SURFACE_STYLE_FILL_AREA( #298 );
#218 = ORIENTED_EDGE( '', *, *, #299, .F. );
#219 = ORIENTED_EDGE( '', *, *, #288, .F. );
#220 = CARTESIAN_POINT( '', ( 1.40600241538020E-14, 1.28618862942302E-14, 0.000000000000000 ) );
#221 = DIRECTION( '', ( 1.00000000000000, -6.12323399573677E-17, -0.000000000000000 ) );
#222 = DIRECTION( '', ( 6.12323399573677E-17, 1.00000000000000, 0.000000000000000 ) );
#223 = SURFACE_STYLE_FILL_AREA( #300 );
#224 = ORIENTED_EDGE( '', *, *, #301, .T. );
#225 = ORIENTED_EDGE( '', *, *, #296, .T. );
#226 = ORIENTED_EDGE( '', *, *, #302, .T. );
#227 = ORIENTED_EDGE( '', *, *, #291, .T. );
#228 = CARTESIAN_POINT( '', ( 3.00000000000001, -0.000000000000000, -0.000000000000000 ) );
#229 = DIRECTION( '', ( -1.00000000000000, 0.000000000000000, 0.000000000000000 ) );
#230 = DIRECTION( '', ( 0.000000000000000, 0.000000000000000, 1.00000000000000 ) );
#231 = SURFACE_STYLE_FILL_AREA( #303 );
#232 = VERTEX_POINT( '', #304 );
#233 = ORIENTED_EDGE( '', *, *, #282, .T. );
#234 = CARTESIAN_POINT( '', ( 58.2903999999999, -9.10729824887824E-15, 0.000000000000000 ) );
#235 = DIRECTION( '', ( 1.00000000000000, 0.000000000000000, 0.000000000000000 ) );
#236 = DIRECTION( '', ( 0.000000000000000, 1.00000000000000, 0.000000000000000 ) );
#237 = SURFACE_STYLE_FILL_AREA( #305 );
#238 = ORIENTED_EDGE( '', *, *, #299, .T. );
#239 = ORIENTED_EDGE( '', *, *, #287, .T. );
#240 = ORIENTED_EDGE( '', *, *, #306, .F. );
#241 = ORIENTED_EDGE( '', *, *, #289, .T. );
#242 = CARTESIAN_POINT( '', ( 1.38777878078145E-14, 1.28618862942302E-14, 0.000000000000000 ) );
#243 = DIRECTION( '', ( 1.00000000000000, -6.12323399573677E-17, -0.000000000000000 ) );
#244 = DIRECTION( '', ( 6.12323399573677E-17, 1.00000000000000, 0.000000000000000 ) );
#245 = SURFACE_STYLE_FILL_AREA( #307 );
#246 = ORIENTED_EDGE( '', *, *, #308, .F. );
#247 = ORIENTED_EDGE( '', *, *, #277, .T. );
#248 = ORIENTED_EDGE( '', *, *, #297, .T. );
#249 = ORIENTED_EDGE( '', *, *, #301, .F. );
#250 = ORIENTED_EDGE( '', *, *, #290, .T. );
#251 = ORIENTED_EDGE( '', *, *, #306, .T. );
#252 = ORIENTED_EDGE( '', *, *, #292, .T. );
#253 = ORIENTED_EDGE( '', *, *, #302, .F. );
#254 = ORIENTED_EDGE( '', *, *, #295, .T. );
#255 = CARTESIAN_POINT( '', ( 65.0000000000000, 8.88178419700125E-15, 0.000000000000000 ) );
#256 = DIRECTION( '', ( -1.00000000000000, 6.12323399573677E-17, 0.000000000000000 ) );
#257 = DIRECTION( '', ( 6.12323399573677E-17, 1.00000000000000, 0.000000000000000 ) );
#258 = SURFACE_STYLE_FILL_AREA( #309 );
#259 = ORIENTED_EDGE( '', *, *, #279, .F. );
#260 = ORIENTED_EDGE( '', *, *, #294, .F. );
#261 = CARTESIAN_POINT( '', ( 1.40600241538020E-14, 1.28618862942302E-14, 0.000000000000000 ) );
#262 = DIRECTION( '', ( 1.00000000000000, -6.12323399573677E-17, -0.000000000000000 ) );
#263 = DIRECTION( '', ( 6.12323399573677E-17, 1.00000000000000, 0.000000000000000 ) );
#264 = SURFACE_STYLE_FILL_AREA( #310 );
#265 = ORIENTED_EDGE( '', *, *, #285, .F. );
#266 = ORIENTED_EDGE( '', *, *, #311, .T. );
#267 = CARTESIAN_POINT( '', ( 65.0000000000000, 8.88178419700125E-15, 0.000000000000000 ) );
#268 = DIRECTION( '', ( -1.00000000000000, 6.12323399573677E-17, 0.000000000000000 ) );
#269 = DIRECTION( '', ( 6.12323399573677E-17, 1.00000000000000, 0.000000000000000 ) );
#270 = SURFACE_STYLE_FILL_AREA( #312 );
#271 = ORIENTED_EDGE( '', *, *, #311, .F. );
#272 = ORIENTED_EDGE( '', *, *, #308, .T. );
#273 = CARTESIAN_POINT( '', ( 55.0000000000000, 9.49410759657493E-15, 0.000000000000000 ) );
#274 = DIRECTION( '', ( -1.00000000000000, 6.12323399573677E-17, -0.000000000000000 ) );
#275 = DIRECTION( '', ( -6.12323399573677E-17, -1.00000000000000, 0.000000000000000 ) );
#276 = FILL_AREA_STYLE( '', ( #313 ) );
#277 = EDGE_CURVE( '', #314, #315, #316, .T. );
#278 = EDGE_CURVE( '', #314, #317, #318, .T. );
#279 = EDGE_CURVE( '', #317, #319, #320, .T. );
#280 = EDGE_CURVE( '', #319, #315, #321, .T. );
#281 = FILL_AREA_STYLE( '', ( #322 ) );
#282 = EDGE_CURVE( '', #323, #323, #324, .T. );
#283 = EDGE_CURVE( '', #325, #325, #326, .T. );
#284 = FILL_AREA_STYLE( '', ( #327 ) );
#285 = EDGE_CURVE( '', #328, #328, #329, .T. );
#286 = FILL_AREA_STYLE( '', ( #330 ) );
#287 = EDGE_CURVE( '', #331, #332, #333, .T. );
#288 = EDGE_CURVE( '', #331, #334, #335, .T. );
#289 = EDGE_CURVE( '', #336, #334, #337, .T. );
#290 = EDGE_CURVE( '', #338, #336, #339, .F. );
#291 = EDGE_CURVE( '', #340, #338, #341, .T. );
#292 = EDGE_CURVE( '', #332, #340, #342, .T. );
#293 = FILL_AREA_STYLE( '', ( #343 ) );
#294 = EDGE_CURVE( '', #319, #317, #344, .T. );
#295 = EDGE_CURVE( '', #345, #314, #346, .F. );
#296 = EDGE_CURVE( '', #347, #345, #348, .T. );
#297 = EDGE_CURVE( '', #315, #347, #349, .T. );
#298 = FILL_AREA_STYLE( '', ( #350 ) );
#299 = EDGE_CURVE( '', #334, #331, #351, .T. );
#300 = FILL_AREA_STYLE( '', ( #352 ) );
#301 = EDGE_CURVE( '', #338, #347, #353, .T. );
#302 = EDGE_CURVE( '', #345, #340, #354, .T. );
#303 = FILL_AREA_STYLE( '', ( #355 ) );
#304 = CARTESIAN_POINT( '', ( 65.0000000000000, -9.10729824887824E-15, 0.000000000000000 ) );
#305 = FILL_AREA_STYLE( '', ( #356 ) );
#306 = EDGE_CURVE( '', #336, #332, #357, .T. );
#307 = FILL_AREA_STYLE( '', ( #358 ) );
#308 = EDGE_CURVE( '', #359, #359, #360, .T. );
#309 = FILL_AREA_STYLE( '', ( #361 ) );
#310 = FILL_AREA_STYLE( '', ( #362 ) );
#311 = EDGE_CURVE( '', #363, #363, #364, .T. );
#312 = FILL_AREA_STYLE( '', ( #365 ) );
#313 = FILL_AREA_STYLE_COLOUR( '', #366 );
#314 = VERTEX_POINT( '', #367 );
#315 = VERTEX_POINT( '', #368 );
#316 = CIRCLE( '', #369, 6.00000000000000 );
#317 = VERTEX_POINT( '', #370 );
#318 = B_SPLINE_CURVE_WITH_KNOTS( '', 3, ( #371, #372, #373, #374 ), .UNSPECIFIED., .F., .F., ( 4, 4 ), ( 0.0102495533465439, 0.0117783706769766 ), .UNSPECIFIED. );
#319 = VERTEX_POINT( '', #375 );
#320 = CIRCLE( '', #376, 4.92650000000000 );
#321 = B_SPLINE_CURVE_WITH_KNOTS( '', 3, ( #377, #378, #379, #380 ), .UNSPECIFIED., .F., .F., ( 4, 4 ), ( 0.0245656796122453, 0.0261075036220749 ), .UNSPECIFIED. );
#322 = FILL_AREA_STYLE_COLOUR( '', #381 );
#323 = VERTEX_POINT( '', #382 );
#324 = CIRCLE( '', #383, 4.00000000000000 );
#325 = VERTEX_POINT( '', #384 );
#326 = CIRCLE( '', #385, 4.00000000000000 );
#327 = FILL_AREA_STYLE_COLOUR( '', #386 );
#328 = VERTEX_POINT( '', #387 );
#329 = CIRCLE( '', #388, 3.60000000000000 );
#330 = FILL_AREA_STYLE_COLOUR( '', #389 );
#331 = VERTEX_POINT( '', #390 );
#332 = VERTEX_POINT( '', #391 );
#333 = B_SPLINE_CURVE_WITH_KNOTS( '', 3, ( #392, #393, #394, #395 ), .UNSPECIFIED., .F., .F., ( 4, 4 ), ( 0.0245656796122453, 0.0261075036220749 ), .UNSPECIFIED. );
#334 = VERTEX_POINT( '', #396 );
#335 = LINE( '', #397, #398 );
#336 = VERTEX_POINT( '', #399 );
#337 = B_SPLINE_CURVE_WITH_KNOTS( '', 3, ( #400, #401, #402, #403 ), .UNSPECIFIED., .F., .F., ( 4, 4 ), ( 0.0102495533465439, 0.0117783706769766 ), .UNSPECIFIED. );
#338 = VERTEX_POINT( '', #404 );
#339 = LINE( '', #405, #406 );
#340 = VERTEX_POINT( '', #407 );
#341 = LINE( '', #408, #409 );
#342 = LINE( '', #410, #411 );
#343 = FILL_AREA_STYLE_COLOUR( '', #412 );
#344 = LINE( '', #413, #414 );
#345 = VERTEX_POINT( '', #415 );
#346 = LINE( '', #416, #417 );
#347 = VERTEX_POINT( '', #418 );
#348 = LINE( '', #419, #420 );
#349 = LINE( '', #421, #422 );
#350 = FILL_AREA_STYLE_COLOUR( '', #423 );
#351 = CIRCLE( '', #424, 4.92650000000000 );
#352 = FILL_AREA_STYLE_COLOUR( '', #425 );
#353 = CIRCLE( '', #426, 6.00000000000000 );
#354 = CIRCLE( '', #427, 6.00000000000000 );
#355 = FILL_AREA_STYLE_COLOUR( '', #428 );
#356 = FILL_AREA_STYLE_COLOUR( '', #429 );
#357 = CIRCLE( '', #430, 6.00000000000000 );
#358 = FILL_AREA_STYLE_COLOUR( '', #431 );
#359 = VERTEX_POINT( '', #432 );
#360 = CIRCLE( '', #433, 6.00000000000000 );
#361 = FILL_AREA_STYLE_COLOUR( '', #434 );
#362 = FILL_AREA_STYLE_COLOUR( '', #435 );
#363 = VERTEX_POINT( '', #436 );
#364 = CIRCLE( '', #437, 3.60000000000000 );
#365 = FILL_AREA_STYLE_COLOUR( '', #438 );
#366 = COLOUR_RGB( '', 0.689999997600000, 0.689999997600000, 0.689999997600000 );
#367 = CARTESIAN_POINT( '', ( 1.07350000000002, -0.899999999999983, 5.93211597998556 ) );
#368 = CARTESIAN_POINT( '', ( 1.07350000000002, -0.899999999999983, -5.93211597998556 ) );
#369 = AXIS2_PLACEMENT_3D( '', #439, #440, #441 );
#370 = CARTESIAN_POINT( '', ( 1.42108547152020E-14, -0.899999999999987, 4.84359393942143 ) );
#371 = CARTESIAN_POINT( '', ( 1.07350000000002, -0.899999999999987, 5.93211597998556 ) );
#372 = CARTESIAN_POINT( '', ( 0.715209951210075, -0.899999999999987, 5.56972584803387 ) );
#373 = CARTESIAN_POINT( '', ( 0.357275562011641, -0.899999999999987, 5.20698485911122 ) );
#374 = CARTESIAN_POINT( '', ( 1.55563481369424E-14, -0.899999999999987, 4.84359393942143 ) );
#375 = CARTESIAN_POINT( '', ( 1.42108547152020E-14, -0.899999999999987, -4.84359393942143 ) );
#376 = AXIS2_PLACEMENT_3D( '', #442, #443, #444 );
#377 = CARTESIAN_POINT( '', ( 1.48585712589264E-14, -0.899999999999987, -4.84359393942143 ) );
#378 = CARTESIAN_POINT( '', ( 0.357276898579825, -0.899999999999987, -5.20698621855697 ) );
#379 = CARTESIAN_POINT( '', ( 0.715211048721696, -0.899999999999987, -5.56972695810484 ) );
#380 = CARTESIAN_POINT( '', ( 1.07350000000002, -0.899999999999987, -5.93211597998556 ) );
#381 = COLOUR_RGB( '', 0.689999997600000, 0.689999997600000, 0.689999997600000 );
#382 = CARTESIAN_POINT( '', ( 63.6773037637589, 4.00000000000001, 0.000000000000000 ) );
#383 = AXIS2_PLACEMENT_3D( '', #445, #446, #447 );
#384 = CARTESIAN_POINT( '', ( 60.5000000000000, 4.00000000000001, 0.000000000000000 ) );
#385 = AXIS2_PLACEMENT_3D( '', #448, #449, #450 );
#386 = COLOUR_RGB( '', 0.689999997600000, 0.689999997600000, 0.689999997600000 );
#387 = CARTESIAN_POINT( '', ( 60.5000000000000, 3.60000000000001, 0.000000000000000 ) );
#388 = AXIS2_PLACEMENT_3D( '', #451, #452, #453 );
#389 = COLOUR_RGB( '', 0.689999997600000, 0.689999997600000, 0.689999997600000 );
#390 = CARTESIAN_POINT( '', ( 1.42108547152020E-14, 0.900000000000013, 4.84359393942143 ) );
#391 = CARTESIAN_POINT( '', ( 1.07350000000002, 0.900000000000017, 5.93211597998556 ) );
#392 = CARTESIAN_POINT( '', ( 1.52365976714740E-14, 0.900000000000013, 4.84359393942143 ) );
#393 = CARTESIAN_POINT( '', ( 0.357276898579826, 0.900000000000013, 5.20698621855697 ) );
#394 = CARTESIAN_POINT( '', ( 0.715211048721698, 0.900000000000013, 5.56972695810484 ) );
#395 = CARTESIAN_POINT( '', ( 1.07350000000002, 0.900000000000013, 5.93211597998556 ) );
#396 = CARTESIAN_POINT( '', ( 1.42108547152020E-14, 0.900000000000013, -4.84359393942143 ) );
#397 = CARTESIAN_POINT( '', ( 1.42108547152020E-14, 0.900000000000013, 10.5000000000000 ) );
#398 = VECTOR( '', #454, 1000.00000000000 );
#399 = CARTESIAN_POINT( '', ( 1.07350000000002, 0.900000000000017, -5.93211597998556 ) );
#400 = CARTESIAN_POINT( '', ( 1.07350000000002, 0.900000000000013, -5.93211597998556 ) );
#401 = CARTESIAN_POINT( '', ( 0.715209951210074, 0.900000000000013, -5.56972584803387 ) );
#402 = CARTESIAN_POINT( '', ( 0.357275562011640, 0.900000000000013, -5.20698485911122 ) );
#403 = CARTESIAN_POINT( '', ( 1.56069054885125E-14, 0.900000000000013, -4.84359393942143 ) );
#404 = CARTESIAN_POINT( '', ( 3.00000000000002, 0.900000000000013, -5.93211597998556 ) );
#405 = CARTESIAN_POINT( '', ( 65.0000000000000, 0.900000000000013, -5.93211597998556 ) );
#406 = VECTOR( '', #455, 1000.00000000000 );
#407 = CARTESIAN_POINT( '', ( 3.00000000000002, 0.900000000000013, 5.93211597998556 ) );
#408 = CARTESIAN_POINT( '', ( 3.00000000000001, 0.900000000000013, 10.5000000000000 ) );
#409 = VECTOR( '', #456, 1000.00000000000 );
#410 = CARTESIAN_POINT( '', ( 65.0000000000000, 0.900000000000013, 5.93211597998556 ) );
#411 = VECTOR( '', #457, 1000.00000000000 );
#412 = COLOUR_RGB( '', 0.689999997600000, 0.689999997600000, 0.689999997600000 );
#413 = CARTESIAN_POINT( '', ( 1.42108547152020E-14, -0.899999999999987, -10.5000000000000 ) );
#414 = VECTOR( '', #458, 1000.00000000000 );
#415 = CARTESIAN_POINT( '', ( 3.00000000000002, -0.899999999999987, 5.93211597998556 ) );
#416 = CARTESIAN_POINT( '', ( 65.0000000000000, -0.899999999999987, 5.93211597998556 ) );
#417 = VECTOR( '', #459, 1000.00000000000 );
#418 = CARTESIAN_POINT( '', ( 3.00000000000002, -0.899999999999987, -5.93211597998556 ) );
#419 = CARTESIAN_POINT( '', ( 3.00000000000001, -0.899999999999987, -10.5000000000000 ) );
#420 = VECTOR( '', #460, 1000.00000000000 );
#421 = CARTESIAN_POINT( '', ( 65.0000000000000, -0.899999999999987, -5.93211597998556 ) );
#422 = VECTOR( '', #461, 1000.00000000000 );
#423 = COLOUR_RGB( '', 0.689999997600000, 0.689999997600000, 0.689999997600000 );
#424 = AXIS2_PLACEMENT_3D( '', #462, #463, #464 );
#425 = COLOUR_RGB( '', 0.689999997600000, 0.689999997600000, 0.689999997600000 );
#426 = AXIS2_PLACEMENT_3D( '', #465, #466, #467 );
#427 = AXIS2_PLACEMENT_3D( '', #468, #469, #470 );
#428 = COLOUR_RGB( '', 0.689999997600000, 0.689999997600000, 0.689999997600000 );
#429 = COLOUR_RGB( '', 0.689999997600000, 0.689999997600000, 0.689999997600000 );
#430 = AXIS2_PLACEMENT_3D( '', #471, #472, #473 );
#431 = COLOUR_RGB( '', 0.689999997600000, 0.689999997600000, 0.689999997600000 );
#432 = CARTESIAN_POINT( '', ( 55.0000000000000, 6.00000000000001, 0.000000000000000 ) );
#433 = AXIS2_PLACEMENT_3D( '', #474, #475, #476 );
#434 = COLOUR_RGB( '', 0.689999997600000, 0.689999997600000, 0.689999997600000 );
#435 = COLOUR_RGB( '', 0.689999997600000, 0.689999997600000, 0.689999997600000 );
#436 = CARTESIAN_POINT( '', ( 55.9623000000000, 3.60000000000001, 0.000000000000000 ) );
#437 = AXIS2_PLACEMENT_3D( '', #477, #478, #479 );
#438 = COLOUR_RGB( '', 0.689999997600000, 0.689999997600000, 0.689999997600000 );
#439 = CARTESIAN_POINT( '', ( 1.07350000000002, 1.27961533772859E-14, 0.000000000000000 ) );
#440 = DIRECTION( '', ( 1.00000000000000, -6.12323399573677E-17, -0.000000000000000 ) );
#441 = DIRECTION( '', ( 6.12323399573677E-17, 1.00000000000000, 0.000000000000000 ) );
#442 = CARTESIAN_POINT( '', ( 1.38777878078145E-14, 1.28618862942302E-14, 0.000000000000000 ) );
#443 = DIRECTION( '', ( 1.00000000000000, -6.12323399573677E-17, -0.000000000000000 ) );
#444 = DIRECTION( '', ( 6.12323399573677E-17, 1.00000000000000, 0.000000000000000 ) );
#445 = CARTESIAN_POINT( '', ( 63.6773037637589, 8.96277598259910E-15, 0.000000000000000 ) );
#446 = DIRECTION( '', ( 1.00000000000000, -6.12323399573677E-17, -0.000000000000000 ) );
#447 = DIRECTION( '', ( 6.12323399573677E-17, 1.00000000000000, 0.000000000000000 ) );
#448 = CARTESIAN_POINT( '', ( 60.5000000000000, 9.15732972680941E-15, 0.000000000000000 ) );
#449 = DIRECTION( '', ( 1.00000000000000, -6.12323399573677E-17, -0.000000000000000 ) );
#450 = DIRECTION( '', ( 6.12323399573677E-17, 1.00000000000000, 0.000000000000000 ) );
#451 = CARTESIAN_POINT( '', ( 60.5000000000000, 9.15732972680941E-15, 0.000000000000000 ) );
#452 = DIRECTION( '', ( 1.00000000000000, -6.12323399573677E-17, -0.000000000000000 ) );
#453 = DIRECTION( '', ( 6.12323399573677E-17, 1.00000000000000, 0.000000000000000 ) );
#454 = DIRECTION( '', ( 0.000000000000000, 0.000000000000000, -1.00000000000000 ) );
#455 = DIRECTION( '', ( 1.00000000000000, -6.12323399573677E-17, -0.000000000000000 ) );
#456 = DIRECTION( '', ( 0.000000000000000, 0.000000000000000, -1.00000000000000 ) );
#457 = DIRECTION( '', ( 1.00000000000000, -6.12323399573677E-17, -0.000000000000000 ) );
#458 = DIRECTION( '', ( 0.000000000000000, 0.000000000000000, 1.00000000000000 ) );
#459 = DIRECTION( '', ( 1.00000000000000, -6.12323399573677E-17, -0.000000000000000 ) );
#460 = DIRECTION( '', ( 0.000000000000000, 0.000000000000000, 1.00000000000000 ) );
#461 = DIRECTION( '', ( 1.00000000000000, -6.12323399573677E-17, -0.000000000000000 ) );
#462 = CARTESIAN_POINT( '', ( 1.38777878078145E-14, 1.28618862942302E-14, 0.000000000000000 ) );
#463 = DIRECTION( '', ( 1.00000000000000, -6.12323399573677E-17, -0.000000000000000 ) );
#464 = DIRECTION( '', ( 6.12323399573677E-17, 1.00000000000000, 0.000000000000000 ) );
#465 = CARTESIAN_POINT( '', ( 3.00000000000002, 1.26781892743580E-14, 0.000000000000000 ) );
#466 = DIRECTION( '', ( -1.00000000000000, 0.000000000000000, 0.000000000000000 ) );
#467 = DIRECTION( '', ( 0.000000000000000, 0.000000000000000, 1.00000000000000 ) );
#468 = CARTESIAN_POINT( '', ( 3.00000000000002, 1.26781892743580E-14, 0.000000000000000 ) );
#469 = DIRECTION( '', ( -1.00000000000000, 0.000000000000000, 0.000000000000000 ) );
#470 = DIRECTION( '', ( 0.000000000000000, 0.000000000000000, 1.00000000000000 ) );
#471 = CARTESIAN_POINT( '', ( 1.07350000000002, 1.27961533772859E-14, 0.000000000000000 ) );
#472 = DIRECTION( '', ( 1.00000000000000, -6.12323399573677E-17, -0.000000000000000 ) );
#473 = DIRECTION( '', ( 6.12323399573677E-17, 1.00000000000000, 0.000000000000000 ) );
#474 = CARTESIAN_POINT( '', ( 55.0000000000000, 9.49410759657493E-15, 0.000000000000000 ) );
#475 = DIRECTION( '', ( 1.00000000000000, -6.12323399573677E-17, -0.000000000000000 ) );
#476 = DIRECTION( '', ( 6.12323399573677E-17, 1.00000000000000, 0.000000000000000 ) );
#477 = CARTESIAN_POINT( '', ( 55.9623000000000, 9.43518371583395E-15, 0.000000000000000 ) );
#478 = DIRECTION( '', ( 1.00000000000000, -6.12323399573677E-17, -0.000000000000000 ) );
#479 = DIRECTION( '', ( 6.12323399573677E-17, 1.00000000000000, 0.000000000000000 ) );
ENDSEC;
END-ISO-10303-21;
