ISO-10303-21;
HEADER;
FILE_DESCRIPTION( ( 'STEP AP214' ), '1' );
FILE_NAME( '//goodhand-server/Shared Folders/GoodHand Data/Kipp CAD/K0390/K0390.061X35.stp', '2020-12-07T10:15:20', ( '' ), ( '' ), ' ', 'PARTsolutions', ' ' );
FILE_SCHEMA( ( 'AUTOMOTIVE_DESIGN { 1 0 10303 214 1 1 1 1 }' ) );
ENDSEC;
DATA;
#1 = MECHANICAL_DESIGN_GEOMETRIC_PRESENTATION_REPRESENTATION( ' ', ( #10, #11, #12, #13, #14, #15, #16, #17, #18, #19, #20, #21, #22 ), #6 );
#2 = PRODUCT_DEFINITION_CONTEXT( '', #23, 'design' );
#3 = APPLICATION_PROTOCOL_DEFINITION( 'international standard', 'automotive_design', 2001, #23 );
#4 = PRODUCT_CATEGORY_RELATIONSHIP( 'NONE', 'NONE', #24, #25 );
#5 = SHAPE_DEFINITION_REPRESENTATION( #26, #27 );
#6 =  ( GEOMETRIC_REPRESENTATION_CONTEXT( 3 )GLOBAL_UNCERTAINTY_ASSIGNED_CONTEXT( ( #30 ) )GLOBAL_UNIT_ASSIGNED_CONTEXT( ( #32, #33, #34 ) )REPRESENTATION_CONTEXT( 'NONE', 'WORKSPACE' ) );
#10 = STYLED_ITEM( '', ( #36 ), #37 );
#11 = STYLED_ITEM( '', ( #38 ), #39 );
#12 = STYLED_ITEM( '', ( #40 ), #41 );
#13 = STYLED_ITEM( '', ( #42 ), #43 );
#14 = STYLED_ITEM( '', ( #44 ), #45 );
#15 = STYLED_ITEM( '', ( #46 ), #47 );
#16 = STYLED_ITEM( '', ( #48 ), #49 );
#17 = STYLED_ITEM( '', ( #50 ), #51 );
#18 = STYLED_ITEM( '', ( #52 ), #53 );
#19 = STYLED_ITEM( '', ( #54 ), #55 );
#20 = STYLED_ITEM( '', ( #56 ), #57 );
#21 = STYLED_ITEM( '', ( #58 ), #59 );
#22 = STYLED_ITEM( '', ( #60 ), #61 );
#23 = APPLICATION_CONTEXT( 'core data for automotive mechanical design processes' );
#24 = PRODUCT_CATEGORY( 'part', 'NONE' );
#25 = PRODUCT_RELATED_PRODUCT_CATEGORY( 'detail', ' ', ( #62 ) );
#26 = PRODUCT_DEFINITION_SHAPE( 'NONE', 'NONE', #63 );
#27 = ADVANCED_BREP_SHAPE_REPRESENTATION( '_K0390.061X35', ( #64, #65 ), #6 );
#30 = UNCERTAINTY_MEASURE_WITH_UNIT( LENGTH_MEASURE( 0.00100000000000000 ), #32, '', '' );
#32 =  ( CONVERSION_BASED_UNIT( 'MILLIMETRE', #68 )LENGTH_UNIT(  )NAMED_UNIT( #71 ) );
#33 =  ( NAMED_UNIT( #73 )PLANE_ANGLE_UNIT(  )SI_UNIT( $, .RADIAN. ) );
#34 =  ( NAMED_UNIT( #73 )SI_UNIT( $, .STERADIAN. )SOLID_ANGLE_UNIT(  ) );
#36 = PRESENTATION_STYLE_ASSIGNMENT( ( #79 ) );
#37 = ADVANCED_FACE( '', ( #80 ), #81, .T. );
#38 = PRESENTATION_STYLE_ASSIGNMENT( ( #82 ) );
#39 = ADVANCED_FACE( '', ( #83 ), #84, .F. );
#40 = PRESENTATION_STYLE_ASSIGNMENT( ( #85 ) );
#41 = ADVANCED_FACE( '', ( #86, #87 ), #88, .T. );
#42 = PRESENTATION_STYLE_ASSIGNMENT( ( #89 ) );
#43 = ADVANCED_FACE( '', ( #90 ), #91, .F. );
#44 = PRESENTATION_STYLE_ASSIGNMENT( ( #92 ) );
#45 = ADVANCED_FACE( '', ( #93, #94 ), #95, .F. );
#46 = PRESENTATION_STYLE_ASSIGNMENT( ( #96 ) );
#47 = ADVANCED_FACE( '', ( #97, #98 ), #99, .T. );
#48 = PRESENTATION_STYLE_ASSIGNMENT( ( #100 ) );
#49 = ADVANCED_FACE( '', ( #101, #102 ), #103, .T. );
#50 = PRESENTATION_STYLE_ASSIGNMENT( ( #104 ) );
#51 = ADVANCED_FACE( '', ( #105, #106 ), #107, .T. );
#52 = PRESENTATION_STYLE_ASSIGNMENT( ( #108 ) );
#53 = ADVANCED_FACE( '', ( #109 ), #110, .T. );
#54 = PRESENTATION_STYLE_ASSIGNMENT( ( #111 ) );
#55 = ADVANCED_FACE( '', ( #112 ), #113, .F. );
#56 = PRESENTATION_STYLE_ASSIGNMENT( ( #114 ) );
#57 = ADVANCED_FACE( '', ( #115, #116 ), #117, .T. );
#58 = PRESENTATION_STYLE_ASSIGNMENT( ( #118 ) );
#59 = ADVANCED_FACE( '', ( #119 ), #120, .T. );
#60 = PRESENTATION_STYLE_ASSIGNMENT( ( #121 ) );
#61 = ADVANCED_FACE( '', ( #122 ), #123, .F. );
#62 = PRODUCT( '_K0390.061X35', '_K0390.061X35', 'PART-_K0390.061X35-DESC', ( #124 ) );
#63 = PRODUCT_DEFINITION( 'NONE', 'NONE', #125, #2 );
#64 = MANIFOLD_SOLID_BREP( '_K0390.061X35', #126 );
#65 = AXIS2_PLACEMENT_3D( '', #127, #128, #129 );
#68 = LENGTH_MEASURE_WITH_UNIT( LENGTH_MEASURE( 1.00000000000000 ), #130 );
#71 = DIMENSIONAL_EXPONENTS( 1.00000000000000, 0.000000000000000, 0.000000000000000, 0.000000000000000, 0.000000000000000, 0.000000000000000, 0.000000000000000 );
#73 = DIMENSIONAL_EXPONENTS( 0.000000000000000, 0.000000000000000, 0.000000000000000, 0.000000000000000, 0.000000000000000, 0.000000000000000, 0.000000000000000 );
#79 = SURFACE_STYLE_USAGE( .BOTH., #131 );
#80 = FACE_OUTER_BOUND( '', #132, .T. );
#81 = CONICAL_SURFACE( '', #133, 2.38650000000000, 0.785398163400000 );
#82 = SURFACE_STYLE_USAGE( .BOTH., #134 );
#83 = FACE_OUTER_BOUND( '', #135, .T. );
#84 = PLANE( '', #136 );
#85 = SURFACE_STYLE_USAGE( .BOTH., #137 );
#86 = FACE_BOUND( '', #138, .T. );
#87 = FACE_OUTER_BOUND( '', #139, .T. );
#88 = SPHERICAL_SURFACE( '', #140, 3.77415000000000 );
#89 = SURFACE_STYLE_USAGE( .BOTH., #141 );
#90 = FACE_OUTER_BOUND( '', #142, .T. );
#91 = PLANE( '', #143 );
#92 = SURFACE_STYLE_USAGE( .BOTH., #144 );
#93 = FACE_OUTER_BOUND( '', #145, .T. );
#94 = FACE_BOUND( '', #146, .T. );
#95 = PLANE( '', #147 );
#96 = SURFACE_STYLE_USAGE( .BOTH., #148 );
#97 = FACE_OUTER_BOUND( '', #149, .T. );
#98 = FACE_OUTER_BOUND( '', #150, .T. );
#99 = CYLINDRICAL_SURFACE( '', #151, 2.00000000000000 );
#100 = SURFACE_STYLE_USAGE( .BOTH., #152 );
#101 = FACE_OUTER_BOUND( '', #153, .T. );
#102 = FACE_OUTER_BOUND( '', #154, .T. );
#103 = CYLINDRICAL_SURFACE( '', #155, 3.00000000000000 );
#104 = SURFACE_STYLE_USAGE( .BOTH., #156 );
#105 = FACE_BOUND( '', #157, .T. );
#106 = FACE_OUTER_BOUND( '', #158, .T. );
#107 = CONICAL_SURFACE( '', #159, 3.00000000000000, 1.04717525340000 );
#108 = SURFACE_STYLE_USAGE( .BOTH., #160 );
#109 = FACE_OUTER_BOUND( '', #161, .T. );
#110 = CONICAL_SURFACE( '', #162, 2.38650000000000, 0.785398163400000 );
#111 = SURFACE_STYLE_USAGE( .BOTH., #163 );
#112 = FACE_OUTER_BOUND( '', #164, .T. );
#113 = PLANE( '', #165 );
#114 = SURFACE_STYLE_USAGE( .BOTH., #166 );
#115 = FACE_OUTER_BOUND( '', #167, .T. );
#116 = FACE_OUTER_BOUND( '', #168, .T. );
#117 = CYLINDRICAL_SURFACE( '', #169, 2.25000000000000 );
#118 = SURFACE_STYLE_USAGE( .BOTH., #170 );
#119 = FACE_OUTER_BOUND( '', #171, .T. );
#120 = PLANE( '', #172 );
#121 = SURFACE_STYLE_USAGE( .BOTH., #173 );
#122 = FACE_OUTER_BOUND( '', #174, .T. );
#123 = PLANE( '', #175 );
#124 = PRODUCT_CONTEXT( '', #23, 'mechanical' );
#125 = PRODUCT_DEFINITION_FORMATION_WITH_SPECIFIED_SOURCE( ' ', 'NONE', #62, .NOT_KNOWN. );
#126 = CLOSED_SHELL( '', ( #55, #61, #41, #57, #45, #47, #51, #49, #37, #43, #53, #39, #59 ) );
#127 = CARTESIAN_POINT( '', ( 0.000000000000000, 0.000000000000000, 0.000000000000000 ) );
#128 = DIRECTION( '', ( 0.000000000000000, 0.000000000000000, 1.00000000000000 ) );
#129 = DIRECTION( '', ( 1.00000000000000, 0.000000000000000, 0.000000000000000 ) );
#130 =  ( LENGTH_UNIT(  )NAMED_UNIT( #71 )SI_UNIT( .MILLI., .METRE. ) );
#131 = SURFACE_SIDE_STYLE( '', ( #177 ) );
#132 = EDGE_LOOP( '', ( #178, #179, #180, #181 ) );
#133 = AXIS2_PLACEMENT_3D( '', #182, #183, #184 );
#134 = SURFACE_SIDE_STYLE( '', ( #185 ) );
#135 = EDGE_LOOP( '', ( #186, #187 ) );
#136 = AXIS2_PLACEMENT_3D( '', #188, #189, #190 );
#137 = SURFACE_SIDE_STYLE( '', ( #191 ) );
#138 = VERTEX_LOOP( '', #192 );
#139 = EDGE_LOOP( '', ( #193 ) );
#140 = AXIS2_PLACEMENT_3D( '', #194, #195, #196 );
#141 = SURFACE_SIDE_STYLE( '', ( #197 ) );
#142 = EDGE_LOOP( '', ( #198, #199 ) );
#143 = AXIS2_PLACEMENT_3D( '', #200, #201, #202 );
#144 = SURFACE_SIDE_STYLE( '', ( #203 ) );
#145 = EDGE_LOOP( '', ( #204 ) );
#146 = EDGE_LOOP( '', ( #205 ) );
#147 = AXIS2_PLACEMENT_3D( '', #206, #207, #208 );
#148 = SURFACE_SIDE_STYLE( '', ( #209 ) );
#149 = EDGE_LOOP( '', ( #210 ) );
#150 = EDGE_LOOP( '', ( #211 ) );
#151 = AXIS2_PLACEMENT_3D( '', #212, #213, #214 );
#152 = SURFACE_SIDE_STYLE( '', ( #215 ) );
#153 = EDGE_LOOP( '', ( #216 ) );
#154 = EDGE_LOOP( '', ( #217, #218, #219, #220, #221, #222, #223, #224 ) );
#155 = AXIS2_PLACEMENT_3D( '', #225, #226, #227 );
#156 = SURFACE_SIDE_STYLE( '', ( #228 ) );
#157 = EDGE_LOOP( '', ( #229 ) );
#158 = EDGE_LOOP( '', ( #230 ) );
#159 = AXIS2_PLACEMENT_3D( '', #231, #232, #233 );
#160 = SURFACE_SIDE_STYLE( '', ( #234 ) );
#161 = EDGE_LOOP( '', ( #235, #236, #237, #238 ) );
#162 = AXIS2_PLACEMENT_3D( '', #239, #240, #241 );
#163 = SURFACE_SIDE_STYLE( '', ( #242 ) );
#164 = EDGE_LOOP( '', ( #243, #244, #245, #246, #247, #248 ) );
#165 = AXIS2_PLACEMENT_3D( '', #249, #250, #251 );
#166 = SURFACE_SIDE_STYLE( '', ( #252 ) );
#167 = EDGE_LOOP( '', ( #253 ) );
#168 = EDGE_LOOP( '', ( #254 ) );
#169 = AXIS2_PLACEMENT_3D( '', #255, #256, #257 );
#170 = SURFACE_SIDE_STYLE( '', ( #258 ) );
#171 = EDGE_LOOP( '', ( #259, #260, #261, #262 ) );
#172 = AXIS2_PLACEMENT_3D( '', #263, #264, #265 );
#173 = SURFACE_SIDE_STYLE( '', ( #266 ) );
#174 = EDGE_LOOP( '', ( #267, #268, #269, #270, #271, #272 ) );
#175 = AXIS2_PLACEMENT_3D( '', #273, #274, #275 );
#177 = SURFACE_STYLE_FILL_AREA( #276 );
#178 = ORIENTED_EDGE( '', *, *, #277, .T. );
#179 = ORIENTED_EDGE( '', *, *, #278, .T. );
#180 = ORIENTED_EDGE( '', *, *, #279, .F. );
#181 = ORIENTED_EDGE( '', *, *, #280, .T. );
#182 = CARTESIAN_POINT( '', ( 0.000000000000000, 1.25495347880774E-15, 0.000000000000000 ) );
#183 = DIRECTION( '', ( 1.00000000000000, -6.12323399573677E-17, -0.000000000000000 ) );
#184 = DIRECTION( '', ( 6.12323399573676E-17, 1.00000000000000, 0.000000000000000 ) );
#185 = SURFACE_STYLE_FILL_AREA( #281 );
#186 = ORIENTED_EDGE( '', *, *, #277, .F. );
#187 = ORIENTED_EDGE( '', *, *, #282, .F. );
#188 = CARTESIAN_POINT( '', ( -7.30654896541289E-17, 1.25495347880774E-15, 0.000000000000000 ) );
#189 = DIRECTION( '', ( 1.00000000000000, -6.12323399573677E-17, -0.000000000000000 ) );
#190 = DIRECTION( '', ( 6.12323399573677E-17, 1.00000000000000, 0.000000000000000 ) );
#191 = SURFACE_STYLE_FILL_AREA( #283 );
#192 = VERTEX_POINT( '', #284 );
#193 = ORIENTED_EDGE( '', *, *, #285, .T. );
#194 = CARTESIAN_POINT( '', ( 31.2258500000000, 1.51788304147971E-15, 0.000000000000000 ) );
#195 = DIRECTION( '', ( 1.00000000000000, 0.000000000000000, 0.000000000000000 ) );
#196 = DIRECTION( '', ( 0.000000000000000, -1.00000000000000, 0.000000000000000 ) );
#197 = SURFACE_STYLE_FILL_AREA( #286 );
#198 = ORIENTED_EDGE( '', *, *, #287, .F. );
#199 = ORIENTED_EDGE( '', *, *, #288, .F. );
#200 = CARTESIAN_POINT( '', ( -7.30654896541289E-17, 1.25495347880774E-15, 0.000000000000000 ) );
#201 = DIRECTION( '', ( 1.00000000000000, -6.12323399573677E-17, -0.000000000000000 ) );
#202 = DIRECTION( '', ( 6.12323399573677E-17, 1.00000000000000, 0.000000000000000 ) );
#203 = SURFACE_STYLE_FILL_AREA( #289 );
#204 = ORIENTED_EDGE( '', *, *, #290, .F. );
#205 = ORIENTED_EDGE( '', *, *, #291, .T. );
#206 = CARTESIAN_POINT( '', ( 32.5000000000000, 2.00000000000000, 0.000000000000000 ) );
#207 = DIRECTION( '', ( 1.00000000000000, -6.12323399573677E-17, -0.000000000000000 ) );
#208 = DIRECTION( '', ( 6.12323399573677E-17, 1.00000000000000, 0.000000000000000 ) );
#209 = SURFACE_STYLE_FILL_AREA( #292 );
#210 = ORIENTED_EDGE( '', *, *, #291, .F. );
#211 = ORIENTED_EDGE( '', *, *, #293, .T. );
#212 = CARTESIAN_POINT( '', ( 35.0000000000000, -8.88178419700125E-16, 0.000000000000000 ) );
#213 = DIRECTION( '', ( -1.00000000000000, 6.12323399573677E-17, 0.000000000000000 ) );
#214 = DIRECTION( '', ( 6.12323399573677E-17, 1.00000000000000, 0.000000000000000 ) );
#215 = SURFACE_STYLE_FILL_AREA( #294 );
#216 = ORIENTED_EDGE( '', *, *, #295, .F. );
#217 = ORIENTED_EDGE( '', *, *, #296, .T. );
#218 = ORIENTED_EDGE( '', *, *, #297, .T. );
#219 = ORIENTED_EDGE( '', *, *, #298, .F. );
#220 = ORIENTED_EDGE( '', *, *, #299, .T. );
#221 = ORIENTED_EDGE( '', *, *, #279, .T. );
#222 = ORIENTED_EDGE( '', *, *, #300, .T. );
#223 = ORIENTED_EDGE( '', *, *, #301, .F. );
#224 = ORIENTED_EDGE( '', *, *, #302, .T. );
#225 = CARTESIAN_POINT( '', ( 35.0000000000000, -8.88178419700125E-16, 0.000000000000000 ) );
#226 = DIRECTION( '', ( -1.00000000000000, 6.12323399573677E-17, 0.000000000000000 ) );
#227 = DIRECTION( '', ( 6.12323399573677E-17, 1.00000000000000, 0.000000000000000 ) );
#228 = SURFACE_STYLE_FILL_AREA( #303 );
#229 = ORIENTED_EDGE( '', *, *, #293, .F. );
#230 = ORIENTED_EDGE( '', *, *, #295, .T. );
#231 = CARTESIAN_POINT( '', ( 29.0000000000000, -5.20784379955919E-16, 0.000000000000000 ) );
#232 = DIRECTION( '', ( -1.00000000000000, 6.12323399573677E-17, -0.000000000000000 ) );
#233 = DIRECTION( '', ( -6.12323399573677E-17, -1.00000000000000, 0.000000000000000 ) );
#234 = SURFACE_STYLE_FILL_AREA( #304 );
#235 = ORIENTED_EDGE( '', *, *, #296, .F. );
#236 = ORIENTED_EDGE( '', *, *, #305, .T. );
#237 = ORIENTED_EDGE( '', *, *, #287, .T. );
#238 = ORIENTED_EDGE( '', *, *, #306, .T. );
#239 = CARTESIAN_POINT( '', ( 0.000000000000000, 1.25495347880774E-15, 0.000000000000000 ) );
#240 = DIRECTION( '', ( 1.00000000000000, -6.12323399573677E-17, -0.000000000000000 ) );
#241 = DIRECTION( '', ( 6.12323399573676E-17, 1.00000000000000, 0.000000000000000 ) );
#242 = SURFACE_STYLE_FILL_AREA( #307 );
#243 = ORIENTED_EDGE( '', *, *, #278, .F. );
#244 = ORIENTED_EDGE( '', *, *, #282, .T. );
#245 = ORIENTED_EDGE( '', *, *, #280, .F. );
#246 = ORIENTED_EDGE( '', *, *, #299, .F. );
#247 = ORIENTED_EDGE( '', *, *, #308, .F. );
#248 = ORIENTED_EDGE( '', *, *, #300, .F. );
#249 = CARTESIAN_POINT( '', ( 3.00000000000000, 0.900000000000001, 10.5000000000000 ) );
#250 = DIRECTION( '', ( 0.000000000000000, 1.00000000000000, 0.000000000000000 ) );
#251 = DIRECTION( '', ( 0.000000000000000, -0.000000000000000, 1.00000000000000 ) );
#252 = SURFACE_STYLE_FILL_AREA( #309 );
#253 = ORIENTED_EDGE( '', *, *, #285, .F. );
#254 = ORIENTED_EDGE( '', *, *, #290, .T. );
#255 = CARTESIAN_POINT( '', ( 35.0000000000000, -8.88178419700125E-16, 0.000000000000000 ) );
#256 = DIRECTION( '', ( -1.00000000000000, 6.12323399573676E-17, 0.000000000000000 ) );
#257 = DIRECTION( '', ( 6.12323399573676E-17, 1.00000000000000, 0.000000000000000 ) );
#258 = SURFACE_STYLE_FILL_AREA( #310 );
#259 = ORIENTED_EDGE( '', *, *, #298, .T. );
#260 = ORIENTED_EDGE( '', *, *, #311, .T. );
#261 = ORIENTED_EDGE( '', *, *, #301, .T. );
#262 = ORIENTED_EDGE( '', *, *, #308, .T. );
#263 = CARTESIAN_POINT( '', ( 3.00000000000000, 0.000000000000000, 0.000000000000000 ) );
#264 = DIRECTION( '', ( -1.00000000000000, 0.000000000000000, 0.000000000000000 ) );
#265 = DIRECTION( '', ( 0.000000000000000, 0.000000000000000, 1.00000000000000 ) );
#266 = SURFACE_STYLE_FILL_AREA( #312 );
#267 = ORIENTED_EDGE( '', *, *, #288, .T. );
#268 = ORIENTED_EDGE( '', *, *, #305, .F. );
#269 = ORIENTED_EDGE( '', *, *, #302, .F. );
#270 = ORIENTED_EDGE( '', *, *, #311, .F. );
#271 = ORIENTED_EDGE( '', *, *, #297, .F. );
#272 = ORIENTED_EDGE( '', *, *, #306, .F. );
#273 = CARTESIAN_POINT( '', ( 3.00000000000000, -0.899999999999999, -10.5000000000000 ) );
#274 = DIRECTION( '', ( 0.000000000000000, -1.00000000000000, 0.000000000000000 ) );
#275 = DIRECTION( '', ( 0.000000000000000, 0.000000000000000, -1.00000000000000 ) );
#276 = FILL_AREA_STYLE( '', ( #313 ) );
#277 = EDGE_CURVE( '', #314, #315, #316, .T. );
#278 = EDGE_CURVE( '', #315, #317, #318, .T. );
#279 = EDGE_CURVE( '', #319, #317, #320, .T. );
#280 = EDGE_CURVE( '', #319, #314, #321, .T. );
#281 = FILL_AREA_STYLE( '', ( #322 ) );
#282 = EDGE_CURVE( '', #315, #314, #323, .T. );
#283 = FILL_AREA_STYLE( '', ( #324 ) );
#284 = CARTESIAN_POINT( '', ( 35.0000000000000, 1.05568296977951E-15, 0.000000000000000 ) );
#285 = EDGE_CURVE( '', #325, #325, #326, .T. );
#286 = FILL_AREA_STYLE( '', ( #327 ) );
#287 = EDGE_CURVE( '', #328, #329, #330, .T. );
#288 = EDGE_CURVE( '', #329, #328, #331, .T. );
#289 = FILL_AREA_STYLE( '', ( #332 ) );
#290 = EDGE_CURVE( '', #333, #333, #334, .T. );
#291 = EDGE_CURVE( '', #335, #335, #336, .T. );
#292 = FILL_AREA_STYLE( '', ( #337 ) );
#293 = EDGE_CURVE( '', #338, #338, #339, .T. );
#294 = FILL_AREA_STYLE( '', ( #340 ) );
#295 = EDGE_CURVE( '', #341, #341, #342, .T. );
#296 = EDGE_CURVE( '', #343, #344, #345, .T. );
#297 = EDGE_CURVE( '', #344, #346, #347, .T. );
#298 = EDGE_CURVE( '', #348, #346, #349, .T. );
#299 = EDGE_CURVE( '', #348, #319, #350, .F. );
#300 = EDGE_CURVE( '', #317, #351, #352, .T. );
#301 = EDGE_CURVE( '', #353, #351, #354, .T. );
#302 = EDGE_CURVE( '', #353, #343, #355, .F. );
#303 = FILL_AREA_STYLE( '', ( #356 ) );
#304 = FILL_AREA_STYLE( '', ( #357 ) );
#305 = EDGE_CURVE( '', #343, #328, #358, .T. );
#306 = EDGE_CURVE( '', #329, #344, #359, .T. );
#307 = FILL_AREA_STYLE( '', ( #360 ) );
#308 = EDGE_CURVE( '', #351, #348, #361, .T. );
#309 = FILL_AREA_STYLE( '', ( #362 ) );
#310 = FILL_AREA_STYLE( '', ( #363 ) );
#311 = EDGE_CURVE( '', #346, #353, #364, .T. );
#312 = FILL_AREA_STYLE( '', ( #365 ) );
#313 = FILL_AREA_STYLE_COLOUR( '', #366 );
#314 = VERTEX_POINT( '', #367 );
#315 = VERTEX_POINT( '', #368 );
#316 = CIRCLE( '', #369, 2.38650000000000 );
#317 = VERTEX_POINT( '', #370 );
#318 = B_SPLINE_CURVE_WITH_KNOTS( '', 3, ( #371, #372, #373, #374 ), .UNSPECIFIED., .F., .F., ( 4, 4 ), ( 0.0114683889299691, 0.0123621468805004 ), .UNSPECIFIED. );
#319 = VERTEX_POINT( '', #375 );
#320 = CIRCLE( '', #376, 3.00000000000000 );
#321 = B_SPLINE_CURVE_WITH_KNOTS( '', 3, ( #377, #378, #379, #380 ), .UNSPECIFIED., .F., .F., ( 4, 4 ), ( 0.00517174792821181, 0.00606665925501704 ), .UNSPECIFIED. );
#322 = FILL_AREA_STYLE_COLOUR( '', #381 );
#323 = LINE( '', #382, #383 );
#324 = FILL_AREA_STYLE_COLOUR( '', #384 );
#325 = VERTEX_POINT( '', #385 );
#326 = CIRCLE( '', #386, 2.25000000000000 );
#327 = FILL_AREA_STYLE_COLOUR( '', #387 );
#328 = VERTEX_POINT( '', #388 );
#329 = VERTEX_POINT( '', #389 );
#330 = CIRCLE( '', #390, 2.38650000000000 );
#331 = LINE( '', #391, #392 );
#332 = FILL_AREA_STYLE_COLOUR( '', #393 );
#333 = VERTEX_POINT( '', #394 );
#334 = CIRCLE( '', #395, 2.25000000000000 );
#335 = VERTEX_POINT( '', #396 );
#336 = CIRCLE( '', #397, 2.00000000000000 );
#337 = FILL_AREA_STYLE_COLOUR( '', #398 );
#338 = VERTEX_POINT( '', #399 );
#339 = CIRCLE( '', #400, 2.00000000000000 );
#340 = FILL_AREA_STYLE_COLOUR( '', #401 );
#341 = VERTEX_POINT( '', #402 );
#342 = CIRCLE( '', #403, 3.00000000000000 );
#343 = VERTEX_POINT( '', #404 );
#344 = VERTEX_POINT( '', #405 );
#345 = CIRCLE( '', #406, 3.00000000000000 );
#346 = VERTEX_POINT( '', #407 );
#347 = LINE( '', #408, #409 );
#348 = VERTEX_POINT( '', #410 );
#349 = CIRCLE( '', #411, 3.00000000000000 );
#350 = LINE( '', #412, #413 );
#351 = VERTEX_POINT( '', #414 );
#352 = LINE( '', #415, #416 );
#353 = VERTEX_POINT( '', #417 );
#354 = CIRCLE( '', #418, 3.00000000000000 );
#355 = LINE( '', #419, #420 );
#356 = FILL_AREA_STYLE_COLOUR( '', #421 );
#357 = FILL_AREA_STYLE_COLOUR( '', #422 );
#358 = B_SPLINE_CURVE_WITH_KNOTS( '', 3, ( #423, #424, #425, #426 ), .UNSPECIFIED., .F., .F., ( 4, 4 ), ( 0.00517174792821181, 0.00606665925501704 ), .UNSPECIFIED. );
#359 = B_SPLINE_CURVE_WITH_KNOTS( '', 3, ( #427, #428, #429, #430 ), .UNSPECIFIED., .F., .F., ( 4, 4 ), ( 0.0114683889299691, 0.0123621468805004 ), .UNSPECIFIED. );
#360 = FILL_AREA_STYLE_COLOUR( '', #431 );
#361 = LINE( '', #432, #433 );
#362 = FILL_AREA_STYLE_COLOUR( '', #434 );
#363 = FILL_AREA_STYLE_COLOUR( '', #435 );
#364 = LINE( '', #436, #437 );
#365 = FILL_AREA_STYLE_COLOUR( '', #438 );
#366 = COLOUR_RGB( '', 0.689999997600000, 0.689999997600000, 0.689999997600000 );
#367 = CARTESIAN_POINT( '', ( 0.000000000000000, 0.900000000000001, -2.21029008277194 ) );
#368 = CARTESIAN_POINT( '', ( 0.000000000000000, 0.900000000000001, 2.21029008277194 ) );
#369 = AXIS2_PLACEMENT_3D( '', #439, #440, #441 );
#370 = CARTESIAN_POINT( '', ( 0.613500000000003, 0.900000000000003, 2.86181760425084 ) );
#371 = CARTESIAN_POINT( '', ( -1.25453026698814E-15, 0.900000000000001, 2.21029008277194 ) );
#372 = CARTESIAN_POINT( '', ( 0.202635101633543, 0.900000000000001, 2.42907976735578 ) );
#373 = CARTESIAN_POINT( '', ( 0.407562831349363, 0.900000000000001, 2.64593679303693 ) );
#374 = CARTESIAN_POINT( '', ( 0.613500000000002, 0.900000000000001, 2.86181760425084 ) );
#375 = CARTESIAN_POINT( '', ( 0.613500000000003, 0.900000000000003, -2.86181760425084 ) );
#376 = AXIS2_PLACEMENT_3D( '', #442, #443, #444 );
#377 = CARTESIAN_POINT( '', ( 0.613500000000002, 0.900000000000001, -2.86181760425084 ) );
#378 = CARTESIAN_POINT( '', ( 0.407595119446491, 0.900000000000001, -2.64597064015955 ) );
#379 = CARTESIAN_POINT( '', ( 0.202709233475277, 0.900000000000001, -2.42915980917548 ) );
#380 = CARTESIAN_POINT( '', ( -3.31094482839699E-16, 0.900000000000001, -2.21029008277194 ) );
#381 = COLOUR_RGB( '', 0.689999997600000, 0.689999997600000, 0.689999997600000 );
#382 = CARTESIAN_POINT( '', ( 0.000000000000000, 0.900000000000001, 10.5000000000000 ) );
#383 = VECTOR( '', #445, 1000.00000000000 );
#384 = COLOUR_RGB( '', 0.689999997600000, 0.689999997600000, 0.689999997600000 );
#385 = CARTESIAN_POINT( '', ( 34.2559833671144, 2.25000000000000, 0.000000000000000 ) );
#386 = AXIS2_PLACEMENT_3D( '', #446, #447, #448 );
#387 = COLOUR_RGB( '', 0.689999997600000, 0.689999997600000, 0.689999997600000 );
#388 = CARTESIAN_POINT( '', ( 0.000000000000000, -0.899999999999999, 2.21029008277194 ) );
#389 = CARTESIAN_POINT( '', ( 0.000000000000000, -0.899999999999999, -2.21029008277194 ) );
#390 = AXIS2_PLACEMENT_3D( '', #449, #450, #451 );
#391 = CARTESIAN_POINT( '', ( 0.000000000000000, -0.899999999999999, -10.5000000000000 ) );
#392 = VECTOR( '', #452, 1000.00000000000 );
#393 = COLOUR_RGB( '', 0.689999997600000, 0.689999997600000, 0.689999997600000 );
#394 = CARTESIAN_POINT( '', ( 32.5000000000000, 2.25000000000000, 0.000000000000000 ) );
#395 = AXIS2_PLACEMENT_3D( '', #453, #454, #455 );
#396 = CARTESIAN_POINT( '', ( 32.5000000000000, 2.00000000000000, 0.000000000000000 ) );
#397 = AXIS2_PLACEMENT_3D( '', #456, #457, #458 );
#398 = COLOUR_RGB( '', 0.689999997600000, 0.689999997600000, 0.689999997600000 );
#399 = CARTESIAN_POINT( '', ( 29.5773800000000, 2.00000000000000, 0.000000000000000 ) );
#400 = AXIS2_PLACEMENT_3D( '', #459, #460, #461 );
#401 = COLOUR_RGB( '', 0.689999997600000, 0.689999997600000, 0.689999997600000 );
#402 = CARTESIAN_POINT( '', ( 29.0000000000000, 3.00000000000000, 0.000000000000000 ) );
#403 = AXIS2_PLACEMENT_3D( '', #462, #463, #464 );
#404 = CARTESIAN_POINT( '', ( 0.613500000000003, -0.899999999999997, 2.86181760425084 ) );
#405 = CARTESIAN_POINT( '', ( 0.613500000000003, -0.899999999999997, -2.86181760425084 ) );
#406 = AXIS2_PLACEMENT_3D( '', #465, #466, #467 );
#407 = CARTESIAN_POINT( '', ( 3.00000000000000, -0.899999999999999, -2.86181760425084 ) );
#408 = CARTESIAN_POINT( '', ( 35.0000000000000, -0.899999999999999, -2.86181760425084 ) );
#409 = VECTOR( '', #468, 1000.00000000000 );
#410 = CARTESIAN_POINT( '', ( 3.00000000000000, 0.900000000000001, -2.86181760425084 ) );
#411 = AXIS2_PLACEMENT_3D( '', #469, #470, #471 );
#412 = CARTESIAN_POINT( '', ( 35.0000000000000, 0.900000000000001, -2.86181760425084 ) );
#413 = VECTOR( '', #472, 1000.00000000000 );
#414 = CARTESIAN_POINT( '', ( 3.00000000000000, 0.900000000000001, 2.86181760425084 ) );
#415 = CARTESIAN_POINT( '', ( 35.0000000000000, 0.900000000000001, 2.86181760425084 ) );
#416 = VECTOR( '', #473, 1000.00000000000 );
#417 = CARTESIAN_POINT( '', ( 3.00000000000000, -0.899999999999999, 2.86181760425084 ) );
#418 = AXIS2_PLACEMENT_3D( '', #474, #475, #476 );
#419 = CARTESIAN_POINT( '', ( 35.0000000000000, -0.899999999999999, 2.86181760425084 ) );
#420 = VECTOR( '', #477, 1000.00000000000 );
#421 = COLOUR_RGB( '', 0.689999997600000, 0.689999997600000, 0.689999997600000 );
#422 = COLOUR_RGB( '', 0.689999997600000, 0.689999997600000, 0.689999997600000 );
#423 = CARTESIAN_POINT( '', ( 0.613500000000003, -0.899999999999999, 2.86181760425084 ) );
#424 = CARTESIAN_POINT( '', ( 0.407595119446492, -0.899999999999999, 2.64597064015955 ) );
#425 = CARTESIAN_POINT( '', ( 0.202709233475277, -0.899999999999999, 2.42915980917548 ) );
#426 = CARTESIAN_POINT( '', ( -3.83957656086282E-16, -0.899999999999999, 2.21029008277194 ) );
#427 = CARTESIAN_POINT( '', ( -1.06495352453503E-15, -0.899999999999999, -2.21029008277194 ) );
#428 = CARTESIAN_POINT( '', ( 0.202635101633544, -0.899999999999999, -2.42907976735578 ) );
#429 = CARTESIAN_POINT( '', ( 0.407562831349364, -0.899999999999999, -2.64593679303693 ) );
#430 = CARTESIAN_POINT( '', ( 0.613500000000004, -0.899999999999999, -2.86181760425084 ) );
#431 = COLOUR_RGB( '', 0.689999997600000, 0.689999997600000, 0.689999997600000 );
#432 = CARTESIAN_POINT( '', ( 3.00000000000000, 0.900000000000001, 10.5000000000000 ) );
#433 = VECTOR( '', #478, 1000.00000000000 );
#434 = COLOUR_RGB( '', 0.689999997600000, 0.689999997600000, 0.689999997600000 );
#435 = COLOUR_RGB( '', 0.689999997600000, 0.689999997600000, 0.689999997600000 );
#436 = CARTESIAN_POINT( '', ( 3.00000000000000, -0.899999999999999, -10.5000000000000 ) );
#437 = VECTOR( '', #479, 1000.00000000000 );
#438 = COLOUR_RGB( '', 0.689999997600000, 0.689999997600000, 0.689999997600000 );
#439 = CARTESIAN_POINT( '', ( 0.000000000000000, 1.25495347880774E-15, 0.000000000000000 ) );
#440 = DIRECTION( '', ( 1.00000000000000, -6.12323399573677E-17, -0.000000000000000 ) );
#441 = DIRECTION( '', ( 6.12323399573676E-17, 1.00000000000000, 0.000000000000000 ) );
#442 = CARTESIAN_POINT( '', ( 0.613500000000003, 1.21738743824390E-15, 0.000000000000000 ) );
#443 = DIRECTION( '', ( 1.00000000000000, -6.12323399573677E-17, -0.000000000000000 ) );
#444 = DIRECTION( '', ( 6.12323399573677E-17, 1.00000000000000, 0.000000000000000 ) );
#445 = DIRECTION( '', ( 0.000000000000000, 0.000000000000000, -1.00000000000000 ) );
#446 = CARTESIAN_POINT( '', ( 34.2559833671144, -8.42620540301337E-16, 0.000000000000000 ) );
#447 = DIRECTION( '', ( 1.00000000000000, -6.12323399573676E-17, -0.000000000000000 ) );
#448 = DIRECTION( '', ( 6.12323399573676E-17, 1.00000000000000, 0.000000000000000 ) );
#449 = CARTESIAN_POINT( '', ( 0.000000000000000, 1.25495347880774E-15, 0.000000000000000 ) );
#450 = DIRECTION( '', ( 1.00000000000000, -6.12323399573677E-17, -0.000000000000000 ) );
#451 = DIRECTION( '', ( 6.12323399573676E-17, 1.00000000000000, 0.000000000000000 ) );
#452 = DIRECTION( '', ( 0.000000000000000, 0.000000000000000, 1.00000000000000 ) );
#453 = CARTESIAN_POINT( '', ( 32.5000000000000, -7.35097569806706E-16, 0.000000000000000 ) );
#454 = DIRECTION( '', ( 1.00000000000000, -6.12323399573676E-17, -0.000000000000000 ) );
#455 = DIRECTION( '', ( 6.12323399573676E-17, 1.00000000000000, 0.000000000000000 ) );
#456 = CARTESIAN_POINT( '', ( 32.5000000000000, -7.35097569806706E-16, 0.000000000000000 ) );
#457 = DIRECTION( '', ( 1.00000000000000, -6.12323399573677E-17, -0.000000000000000 ) );
#458 = DIRECTION( '', ( 6.12323399573677E-17, 1.00000000000000, 0.000000000000000 ) );
#459 = CARTESIAN_POINT( '', ( 29.5773800000000, -5.56138708400504E-16, 0.000000000000000 ) );
#460 = DIRECTION( '', ( 1.00000000000000, -6.12323399573677E-17, -0.000000000000000 ) );
#461 = DIRECTION( '', ( 6.12323399573677E-17, 1.00000000000000, 0.000000000000000 ) );
#462 = CARTESIAN_POINT( '', ( 29.0000000000000, -5.20784379955919E-16, 0.000000000000000 ) );
#463 = DIRECTION( '', ( 1.00000000000000, -6.12323399573677E-17, -0.000000000000000 ) );
#464 = DIRECTION( '', ( 6.12323399573677E-17, 1.00000000000000, 0.000000000000000 ) );
#465 = CARTESIAN_POINT( '', ( 0.613500000000003, 1.21738743824390E-15, 0.000000000000000 ) );
#466 = DIRECTION( '', ( 1.00000000000000, -6.12323399573677E-17, -0.000000000000000 ) );
#467 = DIRECTION( '', ( 6.12323399573677E-17, 1.00000000000000, 0.000000000000000 ) );
#468 = DIRECTION( '', ( 1.00000000000000, -6.12323399573677E-17, -0.000000000000000 ) );
#469 = CARTESIAN_POINT( '', ( 3.00000000000000, 1.07125645893564E-15, 0.000000000000000 ) );
#470 = DIRECTION( '', ( -1.00000000000000, 0.000000000000000, 0.000000000000000 ) );
#471 = DIRECTION( '', ( 0.000000000000000, 0.000000000000000, 1.00000000000000 ) );
#472 = DIRECTION( '', ( 1.00000000000000, -6.12323399573677E-17, -0.000000000000000 ) );
#473 = DIRECTION( '', ( 1.00000000000000, -6.12323399573677E-17, -0.000000000000000 ) );
#474 = CARTESIAN_POINT( '', ( 3.00000000000000, 1.07125645893564E-15, 0.000000000000000 ) );
#475 = DIRECTION( '', ( -1.00000000000000, 0.000000000000000, 0.000000000000000 ) );
#476 = DIRECTION( '', ( 0.000000000000000, 0.000000000000000, 1.00000000000000 ) );
#477 = DIRECTION( '', ( 1.00000000000000, -6.12323399573677E-17, -0.000000000000000 ) );
#478 = DIRECTION( '', ( 0.000000000000000, 0.000000000000000, -1.00000000000000 ) );
#479 = DIRECTION( '', ( 0.000000000000000, 0.000000000000000, 1.00000000000000 ) );
ENDSEC;
END-ISO-10303-21;
