ISO-10303-21;
HEADER;
FILE_DESCRIPTION( ( 'STEP AP214' ), '1' );
FILE_NAME( '//goodhand-server/Shared Folders/GoodHand Data/Kipp CAD/K0390/K0390.06X35.stp', '2020-12-07T10:14:12', ( '' ), ( '' ), ' ', 'PARTsolutions', ' ' );
FILE_SCHEMA( ( 'AUTOMOTIVE_DESIGN { 1 0 10303 214 1 1 1 1 }' ) );
ENDSEC;
DATA;
#1 = MECHANICAL_DESIGN_GEOMETRIC_PRESENTATION_REPRESENTATION( ' ', ( #10, #11, #12, #13, #14, #15, #16, #17, #18, #19, #20, #21, #22 ), #6 );
#2 = PRODUCT_DEFINITION_CONTEXT( '', #23, 'design' );
#3 = APPLICATION_PROTOCOL_DEFINITION( 'international standard', 'automotive_design', 2001, #23 );
#4 = PRODUCT_CATEGORY_RELATIONSHIP( 'NONE', 'NONE', #24, #25 );
#5 = SHAPE_DEFINITION_REPRESENTATION( #26, #27 );
#6 =  ( GEOMETRIC_REPRESENTATION_CONTEXT( 3 )GLOBAL_UNCERTAINTY_ASSIGNED_CONTEXT( ( #30 ) )GLOBAL_UNIT_ASSIGNED_CONTEXT( ( #32, #33, #34 ) )REPRESENTATION_CONTEXT( 'NONE', 'WORKSPACE' ) );
#10 = STYLED_ITEM( '', ( #36 ), #37 );
#11 = STYLED_ITEM( '', ( #38 ), #39 );
#12 = STYLED_ITEM( '', ( #40 ), #41 );
#13 = STYLED_ITEM( '', ( #42 ), #43 );
#14 = STYLED_ITEM( '', ( #44 ), #45 );
#15 = STYLED_ITEM( '', ( #46 ), #47 );
#16 = STYLED_ITEM( '', ( #48 ), #49 );
#17 = STYLED_ITEM( '', ( #50 ), #51 );
#18 = STYLED_ITEM( '', ( #52 ), #53 );
#19 = STYLED_ITEM( '', ( #54 ), #55 );
#20 = STYLED_ITEM( '', ( #56 ), #57 );
#21 = STYLED_ITEM( '', ( #58 ), #59 );
#22 = STYLED_ITEM( '', ( #60 ), #61 );
#23 = APPLICATION_CONTEXT( 'core data for automotive mechanical design processes' );
#24 = PRODUCT_CATEGORY( 'part', 'NONE' );
#25 = PRODUCT_RELATED_PRODUCT_CATEGORY( 'detail', ' ', ( #62 ) );
#26 = PRODUCT_DEFINITION_SHAPE( 'NONE', 'NONE', #63 );
#27 = ADVANCED_BREP_SHAPE_REPRESENTATION( '_K0390.06X35', ( #64, #65 ), #6 );
#30 = UNCERTAINTY_MEASURE_WITH_UNIT( LENGTH_MEASURE( 0.00100000000000000 ), #32, '', '' );
#32 =  ( CONVERSION_BASED_UNIT( 'MILLIMETRE', #68 )LENGTH_UNIT(  )NAMED_UNIT( #71 ) );
#33 =  ( NAMED_UNIT( #73 )PLANE_ANGLE_UNIT(  )SI_UNIT( $, .RADIAN. ) );
#34 =  ( NAMED_UNIT( #73 )SI_UNIT( $, .STERADIAN. )SOLID_ANGLE_UNIT(  ) );
#36 = PRESENTATION_STYLE_ASSIGNMENT( ( #79 ) );
#37 = ADVANCED_FACE( '', ( #80 ), #81, .F. );
#38 = PRESENTATION_STYLE_ASSIGNMENT( ( #82 ) );
#39 = ADVANCED_FACE( '', ( #83, #84 ), #85, .T. );
#40 = PRESENTATION_STYLE_ASSIGNMENT( ( #86 ) );
#41 = ADVANCED_FACE( '', ( #87, #88 ), #89, .F. );
#42 = PRESENTATION_STYLE_ASSIGNMENT( ( #90 ) );
#43 = ADVANCED_FACE( '', ( #91 ), #92, .F. );
#44 = PRESENTATION_STYLE_ASSIGNMENT( ( #93 ) );
#45 = ADVANCED_FACE( '', ( #94 ), #95, .T. );
#46 = PRESENTATION_STYLE_ASSIGNMENT( ( #96 ) );
#47 = ADVANCED_FACE( '', ( #97 ), #98, .F. );
#48 = PRESENTATION_STYLE_ASSIGNMENT( ( #99 ) );
#49 = ADVANCED_FACE( '', ( #100 ), #101, .T. );
#50 = PRESENTATION_STYLE_ASSIGNMENT( ( #102 ) );
#51 = ADVANCED_FACE( '', ( #103, #104 ), #105, .T. );
#52 = PRESENTATION_STYLE_ASSIGNMENT( ( #106 ) );
#53 = ADVANCED_FACE( '', ( #107, #108 ), #109, .T. );
#54 = PRESENTATION_STYLE_ASSIGNMENT( ( #110 ) );
#55 = ADVANCED_FACE( '', ( #111 ), #112, .T. );
#56 = PRESENTATION_STYLE_ASSIGNMENT( ( #113 ) );
#57 = ADVANCED_FACE( '', ( #114, #115 ), #116, .T. );
#58 = PRESENTATION_STYLE_ASSIGNMENT( ( #117 ) );
#59 = ADVANCED_FACE( '', ( #118 ), #119, .F. );
#60 = PRESENTATION_STYLE_ASSIGNMENT( ( #120 ) );
#61 = ADVANCED_FACE( '', ( #121, #122 ), #123, .T. );
#62 = PRODUCT( '_K0390.06X35', '_K0390.06X35', 'PART-_K0390.06X35-DESC', ( #124 ) );
#63 = PRODUCT_DEFINITION( 'NONE', 'NONE', #125, #2 );
#64 = MANIFOLD_SOLID_BREP( '_K0390.06X35', #126 );
#65 = AXIS2_PLACEMENT_3D( '', #127, #128, #129 );
#68 = LENGTH_MEASURE_WITH_UNIT( LENGTH_MEASURE( 1.00000000000000 ), #130 );
#71 = DIMENSIONAL_EXPONENTS( 1.00000000000000, 0.000000000000000, 0.000000000000000, 0.000000000000000, 0.000000000000000, 0.000000000000000, 0.000000000000000 );
#73 = DIMENSIONAL_EXPONENTS( 0.000000000000000, 0.000000000000000, 0.000000000000000, 0.000000000000000, 0.000000000000000, 0.000000000000000, 0.000000000000000 );
#79 = SURFACE_STYLE_USAGE( .BOTH., #131 );
#80 = FACE_OUTER_BOUND( '', #132, .T. );
#81 = PLANE( '', #133 );
#82 = SURFACE_STYLE_USAGE( .BOTH., #134 );
#83 = FACE_OUTER_BOUND( '', #135, .T. );
#84 = FACE_OUTER_BOUND( '', #136, .T. );
#85 = CYLINDRICAL_SURFACE( '', #137, 2.25000000000000 );
#86 = SURFACE_STYLE_USAGE( .BOTH., #138 );
#87 = FACE_OUTER_BOUND( '', #139, .T. );
#88 = FACE_BOUND( '', #140, .T. );
#89 = PLANE( '', #141 );
#90 = SURFACE_STYLE_USAGE( .BOTH., #142 );
#91 = FACE_OUTER_BOUND( '', #143, .T. );
#92 = PLANE( '', #144 );
#93 = SURFACE_STYLE_USAGE( .BOTH., #145 );
#94 = FACE_OUTER_BOUND( '', #146, .T. );
#95 = CONICAL_SURFACE( '', #147, 2.38650000000000, 0.785398163400000 );
#96 = SURFACE_STYLE_USAGE( .BOTH., #148 );
#97 = FACE_OUTER_BOUND( '', #149, .T. );
#98 = PLANE( '', #150 );
#99 = SURFACE_STYLE_USAGE( .BOTH., #151 );
#100 = FACE_OUTER_BOUND( '', #152, .T. );
#101 = CONICAL_SURFACE( '', #153, 2.38650000000000, 0.785398163400000 );
#102 = SURFACE_STYLE_USAGE( .BOTH., #154 );
#103 = FACE_BOUND( '', #155, .T. );
#104 = FACE_OUTER_BOUND( '', #156, .T. );
#105 = SPHERICAL_SURFACE( '', #157, 3.77415000000000 );
#106 = SURFACE_STYLE_USAGE( .BOTH., #158 );
#107 = FACE_OUTER_BOUND( '', #159, .T. );
#108 = FACE_OUTER_BOUND( '', #160, .T. );
#109 = CYLINDRICAL_SURFACE( '', #161, 3.00000000000000 );
#110 = SURFACE_STYLE_USAGE( .BOTH., #162 );
#111 = FACE_OUTER_BOUND( '', #163, .T. );
#112 = PLANE( '', #164 );
#113 = SURFACE_STYLE_USAGE( .BOTH., #165 );
#114 = FACE_OUTER_BOUND( '', #166, .T. );
#115 = FACE_OUTER_BOUND( '', #167, .T. );
#116 = CYLINDRICAL_SURFACE( '', #168, 2.00000000000000 );
#117 = SURFACE_STYLE_USAGE( .BOTH., #169 );
#118 = FACE_OUTER_BOUND( '', #170, .T. );
#119 = PLANE( '', #171 );
#120 = SURFACE_STYLE_USAGE( .BOTH., #172 );
#121 = FACE_BOUND( '', #173, .T. );
#122 = FACE_OUTER_BOUND( '', #174, .T. );
#123 = CONICAL_SURFACE( '', #175, 3.00000000000000, 1.04717525340000 );
#124 = PRODUCT_CONTEXT( '', #23, 'mechanical' );
#125 = PRODUCT_DEFINITION_FORMATION_WITH_SPECIFIED_SOURCE( ' ', 'NONE', #62, .NOT_KNOWN. );
#126 = CLOSED_SHELL( '', ( #59, #37, #51, #39, #41, #57, #61, #53, #45, #47, #49, #43, #55 ) );
#127 = CARTESIAN_POINT( '', ( 0.000000000000000, 0.000000000000000, 0.000000000000000 ) );
#128 = DIRECTION( '', ( 0.000000000000000, 0.000000000000000, 1.00000000000000 ) );
#129 = DIRECTION( '', ( 1.00000000000000, 0.000000000000000, 0.000000000000000 ) );
#130 =  ( LENGTH_UNIT(  )NAMED_UNIT( #71 )SI_UNIT( .MILLI., .METRE. ) );
#131 = SURFACE_SIDE_STYLE( '', ( #177 ) );
#132 = EDGE_LOOP( '', ( #178, #179, #180, #181, #182, #183 ) );
#133 = AXIS2_PLACEMENT_3D( '', #184, #185, #186 );
#134 = SURFACE_SIDE_STYLE( '', ( #187 ) );
#135 = EDGE_LOOP( '', ( #188 ) );
#136 = EDGE_LOOP( '', ( #189 ) );
#137 = AXIS2_PLACEMENT_3D( '', #190, #191, #192 );
#138 = SURFACE_SIDE_STYLE( '', ( #193 ) );
#139 = EDGE_LOOP( '', ( #194 ) );
#140 = EDGE_LOOP( '', ( #195 ) );
#141 = AXIS2_PLACEMENT_3D( '', #196, #197, #198 );
#142 = SURFACE_SIDE_STYLE( '', ( #199 ) );
#143 = EDGE_LOOP( '', ( #200, #201 ) );
#144 = AXIS2_PLACEMENT_3D( '', #202, #203, #204 );
#145 = SURFACE_SIDE_STYLE( '', ( #205 ) );
#146 = EDGE_LOOP( '', ( #206, #207, #208, #209 ) );
#147 = AXIS2_PLACEMENT_3D( '', #210, #211, #212 );
#148 = SURFACE_SIDE_STYLE( '', ( #213 ) );
#149 = EDGE_LOOP( '', ( #214, #215 ) );
#150 = AXIS2_PLACEMENT_3D( '', #216, #217, #218 );
#151 = SURFACE_SIDE_STYLE( '', ( #219 ) );
#152 = EDGE_LOOP( '', ( #220, #221, #222, #223 ) );
#153 = AXIS2_PLACEMENT_3D( '', #224, #225, #226 );
#154 = SURFACE_SIDE_STYLE( '', ( #227 ) );
#155 = VERTEX_LOOP( '', #228 );
#156 = EDGE_LOOP( '', ( #229 ) );
#157 = AXIS2_PLACEMENT_3D( '', #230, #231, #232 );
#158 = SURFACE_SIDE_STYLE( '', ( #233 ) );
#159 = EDGE_LOOP( '', ( #234 ) );
#160 = EDGE_LOOP( '', ( #235, #236, #237, #238, #239, #240, #241, #242 ) );
#161 = AXIS2_PLACEMENT_3D( '', #243, #244, #245 );
#162 = SURFACE_SIDE_STYLE( '', ( #246 ) );
#163 = EDGE_LOOP( '', ( #247, #248, #249, #250 ) );
#164 = AXIS2_PLACEMENT_3D( '', #251, #252, #253 );
#165 = SURFACE_SIDE_STYLE( '', ( #254 ) );
#166 = EDGE_LOOP( '', ( #255 ) );
#167 = EDGE_LOOP( '', ( #256 ) );
#168 = AXIS2_PLACEMENT_3D( '', #257, #258, #259 );
#169 = SURFACE_SIDE_STYLE( '', ( #260 ) );
#170 = EDGE_LOOP( '', ( #261, #262, #263, #264, #265, #266 ) );
#171 = AXIS2_PLACEMENT_3D( '', #267, #268, #269 );
#172 = SURFACE_SIDE_STYLE( '', ( #270 ) );
#173 = EDGE_LOOP( '', ( #271 ) );
#174 = EDGE_LOOP( '', ( #272 ) );
#175 = AXIS2_PLACEMENT_3D( '', #273, #274, #275 );
#177 = SURFACE_STYLE_FILL_AREA( #276 );
#178 = ORIENTED_EDGE( '', *, *, #277, .T. );
#179 = ORIENTED_EDGE( '', *, *, #278, .F. );
#180 = ORIENTED_EDGE( '', *, *, #279, .F. );
#181 = ORIENTED_EDGE( '', *, *, #280, .F. );
#182 = ORIENTED_EDGE( '', *, *, #281, .F. );
#183 = ORIENTED_EDGE( '', *, *, #282, .F. );
#184 = CARTESIAN_POINT( '', ( 3.00000000000000, -0.899999999999999, -10.5000000000000 ) );
#185 = DIRECTION( '', ( 0.000000000000000, -1.00000000000000, 0.000000000000000 ) );
#186 = DIRECTION( '', ( 0.000000000000000, 0.000000000000000, -1.00000000000000 ) );
#187 = SURFACE_STYLE_FILL_AREA( #283 );
#188 = ORIENTED_EDGE( '', *, *, #284, .F. );
#189 = ORIENTED_EDGE( '', *, *, #285, .T. );
#190 = CARTESIAN_POINT( '', ( 35.0000000000000, -8.88178419700125E-16, 0.000000000000000 ) );
#191 = DIRECTION( '', ( -1.00000000000000, 6.12323399573676E-17, 0.000000000000000 ) );
#192 = DIRECTION( '', ( 6.12323399573676E-17, 1.00000000000000, 0.000000000000000 ) );
#193 = SURFACE_STYLE_FILL_AREA( #286 );
#194 = ORIENTED_EDGE( '', *, *, #285, .F. );
#195 = ORIENTED_EDGE( '', *, *, #287, .T. );
#196 = CARTESIAN_POINT( '', ( 32.5000000000000, 2.00000000000000, 0.000000000000000 ) );
#197 = DIRECTION( '', ( 1.00000000000000, -6.12323399573677E-17, -0.000000000000000 ) );
#198 = DIRECTION( '', ( 6.12323399573677E-17, 1.00000000000000, 0.000000000000000 ) );
#199 = SURFACE_STYLE_FILL_AREA( #288 );
#200 = ORIENTED_EDGE( '', *, *, #289, .F. );
#201 = ORIENTED_EDGE( '', *, *, #290, .F. );
#202 = CARTESIAN_POINT( '', ( -7.30654896541289E-17, 1.25495347880774E-15, 0.000000000000000 ) );
#203 = DIRECTION( '', ( 1.00000000000000, -6.12323399573677E-17, -0.000000000000000 ) );
#204 = DIRECTION( '', ( 6.12323399573677E-17, 1.00000000000000, 0.000000000000000 ) );
#205 = SURFACE_STYLE_FILL_AREA( #291 );
#206 = ORIENTED_EDGE( '', *, *, #289, .T. );
#207 = ORIENTED_EDGE( '', *, *, #292, .T. );
#208 = ORIENTED_EDGE( '', *, *, #293, .F. );
#209 = ORIENTED_EDGE( '', *, *, #294, .T. );
#210 = CARTESIAN_POINT( '', ( 0.000000000000000, 1.25495347880774E-15, 0.000000000000000 ) );
#211 = DIRECTION( '', ( 1.00000000000000, -6.12323399573677E-17, -0.000000000000000 ) );
#212 = DIRECTION( '', ( 6.12323399573676E-17, 1.00000000000000, 0.000000000000000 ) );
#213 = SURFACE_STYLE_FILL_AREA( #295 );
#214 = ORIENTED_EDGE( '', *, *, #296, .F. );
#215 = ORIENTED_EDGE( '', *, *, #277, .F. );
#216 = CARTESIAN_POINT( '', ( -7.30654896541289E-17, 1.25495347880774E-15, 0.000000000000000 ) );
#217 = DIRECTION( '', ( 1.00000000000000, -6.12323399573677E-17, -0.000000000000000 ) );
#218 = DIRECTION( '', ( 6.12323399573677E-17, 1.00000000000000, 0.000000000000000 ) );
#219 = SURFACE_STYLE_FILL_AREA( #297 );
#220 = ORIENTED_EDGE( '', *, *, #298, .F. );
#221 = ORIENTED_EDGE( '', *, *, #278, .T. );
#222 = ORIENTED_EDGE( '', *, *, #296, .T. );
#223 = ORIENTED_EDGE( '', *, *, #282, .T. );
#224 = CARTESIAN_POINT( '', ( 0.000000000000000, 1.25495347880774E-15, 0.000000000000000 ) );
#225 = DIRECTION( '', ( 1.00000000000000, -6.12323399573677E-17, -0.000000000000000 ) );
#226 = DIRECTION( '', ( 6.12323399573676E-17, 1.00000000000000, 0.000000000000000 ) );
#227 = SURFACE_STYLE_FILL_AREA( #299 );
#228 = VERTEX_POINT( '', #300 );
#229 = ORIENTED_EDGE( '', *, *, #284, .T. );
#230 = CARTESIAN_POINT( '', ( 31.2258500000000, 1.51788304147971E-15, 0.000000000000000 ) );
#231 = DIRECTION( '', ( 1.00000000000000, 0.000000000000000, 0.000000000000000 ) );
#232 = DIRECTION( '', ( 0.000000000000000, -1.00000000000000, 0.000000000000000 ) );
#233 = SURFACE_STYLE_FILL_AREA( #301 );
#234 = ORIENTED_EDGE( '', *, *, #302, .F. );
#235 = ORIENTED_EDGE( '', *, *, #298, .T. );
#236 = ORIENTED_EDGE( '', *, *, #281, .T. );
#237 = ORIENTED_EDGE( '', *, *, #303, .F. );
#238 = ORIENTED_EDGE( '', *, *, #304, .T. );
#239 = ORIENTED_EDGE( '', *, *, #293, .T. );
#240 = ORIENTED_EDGE( '', *, *, #305, .T. );
#241 = ORIENTED_EDGE( '', *, *, #306, .F. );
#242 = ORIENTED_EDGE( '', *, *, #279, .T. );
#243 = CARTESIAN_POINT( '', ( 35.0000000000000, -8.88178419700125E-16, 0.000000000000000 ) );
#244 = DIRECTION( '', ( -1.00000000000000, 6.12323399573677E-17, 0.000000000000000 ) );
#245 = DIRECTION( '', ( 6.12323399573677E-17, 1.00000000000000, 0.000000000000000 ) );
#246 = SURFACE_STYLE_FILL_AREA( #307 );
#247 = ORIENTED_EDGE( '', *, *, #303, .T. );
#248 = ORIENTED_EDGE( '', *, *, #280, .T. );
#249 = ORIENTED_EDGE( '', *, *, #306, .T. );
#250 = ORIENTED_EDGE( '', *, *, #308, .T. );
#251 = CARTESIAN_POINT( '', ( 3.00000000000000, 0.000000000000000, 0.000000000000000 ) );
#252 = DIRECTION( '', ( -1.00000000000000, 0.000000000000000, 0.000000000000000 ) );
#253 = DIRECTION( '', ( 0.000000000000000, 0.000000000000000, 1.00000000000000 ) );
#254 = SURFACE_STYLE_FILL_AREA( #309 );
#255 = ORIENTED_EDGE( '', *, *, #287, .F. );
#256 = ORIENTED_EDGE( '', *, *, #310, .T. );
#257 = CARTESIAN_POINT( '', ( 35.0000000000000, -8.88178419700125E-16, 0.000000000000000 ) );
#258 = DIRECTION( '', ( -1.00000000000000, 6.12323399573677E-17, 0.000000000000000 ) );
#259 = DIRECTION( '', ( 6.12323399573677E-17, 1.00000000000000, 0.000000000000000 ) );
#260 = SURFACE_STYLE_FILL_AREA( #311 );
#261 = ORIENTED_EDGE( '', *, *, #292, .F. );
#262 = ORIENTED_EDGE( '', *, *, #290, .T. );
#263 = ORIENTED_EDGE( '', *, *, #294, .F. );
#264 = ORIENTED_EDGE( '', *, *, #304, .F. );
#265 = ORIENTED_EDGE( '', *, *, #308, .F. );
#266 = ORIENTED_EDGE( '', *, *, #305, .F. );
#267 = CARTESIAN_POINT( '', ( 3.00000000000000, 0.900000000000001, 10.5000000000000 ) );
#268 = DIRECTION( '', ( 0.000000000000000, 1.00000000000000, 0.000000000000000 ) );
#269 = DIRECTION( '', ( 0.000000000000000, -0.000000000000000, 1.00000000000000 ) );
#270 = SURFACE_STYLE_FILL_AREA( #312 );
#271 = ORIENTED_EDGE( '', *, *, #310, .F. );
#272 = ORIENTED_EDGE( '', *, *, #302, .T. );
#273 = CARTESIAN_POINT( '', ( 29.0000000000000, -5.20784379955919E-16, 0.000000000000000 ) );
#274 = DIRECTION( '', ( -1.00000000000000, 6.12323399573677E-17, -0.000000000000000 ) );
#275 = DIRECTION( '', ( -6.12323399573677E-17, -1.00000000000000, 0.000000000000000 ) );
#276 = FILL_AREA_STYLE( '', ( #313 ) );
#277 = EDGE_CURVE( '', #314, #315, #316, .T. );
#278 = EDGE_CURVE( '', #317, #315, #318, .T. );
#279 = EDGE_CURVE( '', #319, #317, #320, .F. );
#280 = EDGE_CURVE( '', #321, #319, #322, .T. );
#281 = EDGE_CURVE( '', #323, #321, #324, .T. );
#282 = EDGE_CURVE( '', #314, #323, #325, .T. );
#283 = FILL_AREA_STYLE( '', ( #326 ) );
#284 = EDGE_CURVE( '', #327, #327, #328, .T. );
#285 = EDGE_CURVE( '', #329, #329, #330, .T. );
#286 = FILL_AREA_STYLE( '', ( #331 ) );
#287 = EDGE_CURVE( '', #332, #332, #333, .T. );
#288 = FILL_AREA_STYLE( '', ( #334 ) );
#289 = EDGE_CURVE( '', #335, #336, #337, .T. );
#290 = EDGE_CURVE( '', #336, #335, #338, .T. );
#291 = FILL_AREA_STYLE( '', ( #339 ) );
#292 = EDGE_CURVE( '', #336, #340, #341, .T. );
#293 = EDGE_CURVE( '', #342, #340, #343, .T. );
#294 = EDGE_CURVE( '', #342, #335, #344, .T. );
#295 = FILL_AREA_STYLE( '', ( #345 ) );
#296 = EDGE_CURVE( '', #315, #314, #346, .T. );
#297 = FILL_AREA_STYLE( '', ( #347 ) );
#298 = EDGE_CURVE( '', #317, #323, #348, .T. );
#299 = FILL_AREA_STYLE( '', ( #349 ) );
#300 = CARTESIAN_POINT( '', ( 35.0000000000000, 1.05568296977951E-15, 0.000000000000000 ) );
#301 = FILL_AREA_STYLE( '', ( #350 ) );
#302 = EDGE_CURVE( '', #351, #351, #352, .T. );
#303 = EDGE_CURVE( '', #353, #321, #354, .T. );
#304 = EDGE_CURVE( '', #353, #342, #355, .F. );
#305 = EDGE_CURVE( '', #340, #356, #357, .T. );
#306 = EDGE_CURVE( '', #319, #356, #358, .T. );
#307 = FILL_AREA_STYLE( '', ( #359 ) );
#308 = EDGE_CURVE( '', #356, #353, #360, .T. );
#309 = FILL_AREA_STYLE( '', ( #361 ) );
#310 = EDGE_CURVE( '', #362, #362, #363, .T. );
#311 = FILL_AREA_STYLE( '', ( #364 ) );
#312 = FILL_AREA_STYLE( '', ( #365 ) );
#313 = FILL_AREA_STYLE_COLOUR( '', #366 );
#314 = VERTEX_POINT( '', #367 );
#315 = VERTEX_POINT( '', #368 );
#316 = LINE( '', #369, #370 );
#317 = VERTEX_POINT( '', #371 );
#318 = B_SPLINE_CURVE_WITH_KNOTS( '', 3, ( #372, #373, #374, #375 ), .UNSPECIFIED., .F., .F., ( 4, 4 ), ( 0.00517174792821181, 0.00606665925501704 ), .UNSPECIFIED. );
#319 = VERTEX_POINT( '', #376 );
#320 = LINE( '', #377, #378 );
#321 = VERTEX_POINT( '', #379 );
#322 = LINE( '', #380, #381 );
#323 = VERTEX_POINT( '', #382 );
#324 = LINE( '', #383, #384 );
#325 = B_SPLINE_CURVE_WITH_KNOTS( '', 3, ( #385, #386, #387, #388 ), .UNSPECIFIED., .F., .F., ( 4, 4 ), ( 0.0114683889299691, 0.0123621468805004 ), .UNSPECIFIED. );
#326 = FILL_AREA_STYLE_COLOUR( '', #389 );
#327 = VERTEX_POINT( '', #390 );
#328 = CIRCLE( '', #391, 2.25000000000000 );
#329 = VERTEX_POINT( '', #392 );
#330 = CIRCLE( '', #393, 2.25000000000000 );
#331 = FILL_AREA_STYLE_COLOUR( '', #394 );
#332 = VERTEX_POINT( '', #395 );
#333 = CIRCLE( '', #396, 2.00000000000000 );
#334 = FILL_AREA_STYLE_COLOUR( '', #397 );
#335 = VERTEX_POINT( '', #398 );
#336 = VERTEX_POINT( '', #399 );
#337 = CIRCLE( '', #400, 2.38650000000000 );
#338 = LINE( '', #401, #402 );
#339 = FILL_AREA_STYLE_COLOUR( '', #403 );
#340 = VERTEX_POINT( '', #404 );
#341 = B_SPLINE_CURVE_WITH_KNOTS( '', 3, ( #405, #406, #407, #408 ), .UNSPECIFIED., .F., .F., ( 4, 4 ), ( 0.0114683889299691, 0.0123621468805004 ), .UNSPECIFIED. );
#342 = VERTEX_POINT( '', #409 );
#343 = CIRCLE( '', #410, 3.00000000000000 );
#344 = B_SPLINE_CURVE_WITH_KNOTS( '', 3, ( #411, #412, #413, #414 ), .UNSPECIFIED., .F., .F., ( 4, 4 ), ( 0.00517174792821181, 0.00606665925501704 ), .UNSPECIFIED. );
#345 = FILL_AREA_STYLE_COLOUR( '', #415 );
#346 = CIRCLE( '', #416, 2.38650000000000 );
#347 = FILL_AREA_STYLE_COLOUR( '', #417 );
#348 = CIRCLE( '', #418, 3.00000000000000 );
#349 = FILL_AREA_STYLE_COLOUR( '', #419 );
#350 = FILL_AREA_STYLE_COLOUR( '', #420 );
#351 = VERTEX_POINT( '', #421 );
#352 = CIRCLE( '', #422, 3.00000000000000 );
#353 = VERTEX_POINT( '', #423 );
#354 = CIRCLE( '', #424, 3.00000000000000 );
#355 = LINE( '', #425, #426 );
#356 = VERTEX_POINT( '', #427 );
#357 = LINE( '', #428, #429 );
#358 = CIRCLE( '', #430, 3.00000000000000 );
#359 = FILL_AREA_STYLE_COLOUR( '', #431 );
#360 = LINE( '', #432, #433 );
#361 = FILL_AREA_STYLE_COLOUR( '', #434 );
#362 = VERTEX_POINT( '', #435 );
#363 = CIRCLE( '', #436, 2.00000000000000 );
#364 = FILL_AREA_STYLE_COLOUR( '', #437 );
#365 = FILL_AREA_STYLE_COLOUR( '', #438 );
#366 = COLOUR_RGB( '', 0.689999997600000, 0.689999997600000, 0.689999997600000 );
#367 = CARTESIAN_POINT( '', ( 0.000000000000000, -0.899999999999999, -2.21029008277194 ) );
#368 = CARTESIAN_POINT( '', ( 0.000000000000000, -0.899999999999999, 2.21029008277194 ) );
#369 = CARTESIAN_POINT( '', ( 0.000000000000000, -0.899999999999999, -10.5000000000000 ) );
#370 = VECTOR( '', #439, 1000.00000000000 );
#371 = CARTESIAN_POINT( '', ( 0.613500000000003, -0.899999999999997, 2.86181760425084 ) );
#372 = CARTESIAN_POINT( '', ( 0.613500000000003, -0.899999999999999, 2.86181760425084 ) );
#373 = CARTESIAN_POINT( '', ( 0.407595119446492, -0.899999999999999, 2.64597064015955 ) );
#374 = CARTESIAN_POINT( '', ( 0.202709233475277, -0.899999999999999, 2.42915980917548 ) );
#375 = CARTESIAN_POINT( '', ( -3.83957656086282E-16, -0.899999999999999, 2.21029008277194 ) );
#376 = CARTESIAN_POINT( '', ( 3.00000000000000, -0.899999999999999, 2.86181760425084 ) );
#377 = CARTESIAN_POINT( '', ( 35.0000000000000, -0.899999999999999, 2.86181760425084 ) );
#378 = VECTOR( '', #440, 1000.00000000000 );
#379 = CARTESIAN_POINT( '', ( 3.00000000000000, -0.899999999999999, -2.86181760425084 ) );
#380 = CARTESIAN_POINT( '', ( 3.00000000000000, -0.899999999999999, -10.5000000000000 ) );
#381 = VECTOR( '', #441, 1000.00000000000 );
#382 = CARTESIAN_POINT( '', ( 0.613500000000003, -0.899999999999997, -2.86181760425084 ) );
#383 = CARTESIAN_POINT( '', ( 35.0000000000000, -0.899999999999999, -2.86181760425084 ) );
#384 = VECTOR( '', #442, 1000.00000000000 );
#385 = CARTESIAN_POINT( '', ( -1.06495352453503E-15, -0.899999999999999, -2.21029008277194 ) );
#386 = CARTESIAN_POINT( '', ( 0.202635101633544, -0.899999999999999, -2.42907976735578 ) );
#387 = CARTESIAN_POINT( '', ( 0.407562831349364, -0.899999999999999, -2.64593679303693 ) );
#388 = CARTESIAN_POINT( '', ( 0.613500000000004, -0.899999999999999, -2.86181760425084 ) );
#389 = COLOUR_RGB( '', 0.689999997600000, 0.689999997600000, 0.689999997600000 );
#390 = CARTESIAN_POINT( '', ( 34.2559833671144, 2.25000000000000, 0.000000000000000 ) );
#391 = AXIS2_PLACEMENT_3D( '', #443, #444, #445 );
#392 = CARTESIAN_POINT( '', ( 32.5000000000000, 2.25000000000000, 0.000000000000000 ) );
#393 = AXIS2_PLACEMENT_3D( '', #446, #447, #448 );
#394 = COLOUR_RGB( '', 0.689999997600000, 0.689999997600000, 0.689999997600000 );
#395 = CARTESIAN_POINT( '', ( 32.5000000000000, 2.00000000000000, 0.000000000000000 ) );
#396 = AXIS2_PLACEMENT_3D( '', #449, #450, #451 );
#397 = COLOUR_RGB( '', 0.689999997600000, 0.689999997600000, 0.689999997600000 );
#398 = CARTESIAN_POINT( '', ( 0.000000000000000, 0.900000000000001, -2.21029008277194 ) );
#399 = CARTESIAN_POINT( '', ( 0.000000000000000, 0.900000000000001, 2.21029008277194 ) );
#400 = AXIS2_PLACEMENT_3D( '', #452, #453, #454 );
#401 = CARTESIAN_POINT( '', ( 0.000000000000000, 0.900000000000001, 10.5000000000000 ) );
#402 = VECTOR( '', #455, 1000.00000000000 );
#403 = COLOUR_RGB( '', 0.689999997600000, 0.689999997600000, 0.689999997600000 );
#404 = CARTESIAN_POINT( '', ( 0.613500000000003, 0.900000000000003, 2.86181760425084 ) );
#405 = CARTESIAN_POINT( '', ( -1.25453026698814E-15, 0.900000000000001, 2.21029008277194 ) );
#406 = CARTESIAN_POINT( '', ( 0.202635101633543, 0.900000000000001, 2.42907976735578 ) );
#407 = CARTESIAN_POINT( '', ( 0.407562831349363, 0.900000000000001, 2.64593679303693 ) );
#408 = CARTESIAN_POINT( '', ( 0.613500000000002, 0.900000000000001, 2.86181760425084 ) );
#409 = CARTESIAN_POINT( '', ( 0.613500000000003, 0.900000000000003, -2.86181760425084 ) );
#410 = AXIS2_PLACEMENT_3D( '', #456, #457, #458 );
#411 = CARTESIAN_POINT( '', ( 0.613500000000002, 0.900000000000001, -2.86181760425084 ) );
#412 = CARTESIAN_POINT( '', ( 0.407595119446491, 0.900000000000001, -2.64597064015955 ) );
#413 = CARTESIAN_POINT( '', ( 0.202709233475277, 0.900000000000001, -2.42915980917548 ) );
#414 = CARTESIAN_POINT( '', ( -3.31094482839699E-16, 0.900000000000001, -2.21029008277194 ) );
#415 = COLOUR_RGB( '', 0.689999997600000, 0.689999997600000, 0.689999997600000 );
#416 = AXIS2_PLACEMENT_3D( '', #459, #460, #461 );
#417 = COLOUR_RGB( '', 0.689999997600000, 0.689999997600000, 0.689999997600000 );
#418 = AXIS2_PLACEMENT_3D( '', #462, #463, #464 );
#419 = COLOUR_RGB( '', 0.689999997600000, 0.689999997600000, 0.689999997600000 );
#420 = COLOUR_RGB( '', 0.689999997600000, 0.689999997600000, 0.689999997600000 );
#421 = CARTESIAN_POINT( '', ( 29.0000000000000, 3.00000000000000, 0.000000000000000 ) );
#422 = AXIS2_PLACEMENT_3D( '', #465, #466, #467 );
#423 = CARTESIAN_POINT( '', ( 3.00000000000000, 0.900000000000001, -2.86181760425084 ) );
#424 = AXIS2_PLACEMENT_3D( '', #468, #469, #470 );
#425 = CARTESIAN_POINT( '', ( 35.0000000000000, 0.900000000000001, -2.86181760425084 ) );
#426 = VECTOR( '', #471, 1000.00000000000 );
#427 = CARTESIAN_POINT( '', ( 3.00000000000000, 0.900000000000001, 2.86181760425084 ) );
#428 = CARTESIAN_POINT( '', ( 35.0000000000000, 0.900000000000001, 2.86181760425084 ) );
#429 = VECTOR( '', #472, 1000.00000000000 );
#430 = AXIS2_PLACEMENT_3D( '', #473, #474, #475 );
#431 = COLOUR_RGB( '', 0.689999997600000, 0.689999997600000, 0.689999997600000 );
#432 = CARTESIAN_POINT( '', ( 3.00000000000000, 0.900000000000001, 10.5000000000000 ) );
#433 = VECTOR( '', #476, 1000.00000000000 );
#434 = COLOUR_RGB( '', 0.689999997600000, 0.689999997600000, 0.689999997600000 );
#435 = CARTESIAN_POINT( '', ( 29.5773800000000, 2.00000000000000, 0.000000000000000 ) );
#436 = AXIS2_PLACEMENT_3D( '', #477, #478, #479 );
#437 = COLOUR_RGB( '', 0.689999997600000, 0.689999997600000, 0.689999997600000 );
#438 = COLOUR_RGB( '', 0.689999997600000, 0.689999997600000, 0.689999997600000 );
#439 = DIRECTION( '', ( 0.000000000000000, 0.000000000000000, 1.00000000000000 ) );
#440 = DIRECTION( '', ( 1.00000000000000, -6.12323399573677E-17, -0.000000000000000 ) );
#441 = DIRECTION( '', ( 0.000000000000000, 0.000000000000000, 1.00000000000000 ) );
#442 = DIRECTION( '', ( 1.00000000000000, -6.12323399573677E-17, -0.000000000000000 ) );
#443 = CARTESIAN_POINT( '', ( 34.2559833671144, -8.42620540301337E-16, 0.000000000000000 ) );
#444 = DIRECTION( '', ( 1.00000000000000, -6.12323399573676E-17, -0.000000000000000 ) );
#445 = DIRECTION( '', ( 6.12323399573676E-17, 1.00000000000000, 0.000000000000000 ) );
#446 = CARTESIAN_POINT( '', ( 32.5000000000000, -7.35097569806706E-16, 0.000000000000000 ) );
#447 = DIRECTION( '', ( 1.00000000000000, -6.12323399573676E-17, -0.000000000000000 ) );
#448 = DIRECTION( '', ( 6.12323399573676E-17, 1.00000000000000, 0.000000000000000 ) );
#449 = CARTESIAN_POINT( '', ( 32.5000000000000, -7.35097569806706E-16, 0.000000000000000 ) );
#450 = DIRECTION( '', ( 1.00000000000000, -6.12323399573677E-17, -0.000000000000000 ) );
#451 = DIRECTION( '', ( 6.12323399573677E-17, 1.00000000000000, 0.000000000000000 ) );
#452 = CARTESIAN_POINT( '', ( 0.000000000000000, 1.25495347880774E-15, 0.000000000000000 ) );
#453 = DIRECTION( '', ( 1.00000000000000, -6.12323399573677E-17, -0.000000000000000 ) );
#454 = DIRECTION( '', ( 6.12323399573676E-17, 1.00000000000000, 0.000000000000000 ) );
#455 = DIRECTION( '', ( 0.000000000000000, 0.000000000000000, -1.00000000000000 ) );
#456 = CARTESIAN_POINT( '', ( 0.613500000000003, 1.21738743824390E-15, 0.000000000000000 ) );
#457 = DIRECTION( '', ( 1.00000000000000, -6.12323399573677E-17, -0.000000000000000 ) );
#458 = DIRECTION( '', ( 6.12323399573677E-17, 1.00000000000000, 0.000000000000000 ) );
#459 = CARTESIAN_POINT( '', ( 0.000000000000000, 1.25495347880774E-15, 0.000000000000000 ) );
#460 = DIRECTION( '', ( 1.00000000000000, -6.12323399573677E-17, -0.000000000000000 ) );
#461 = DIRECTION( '', ( 6.12323399573676E-17, 1.00000000000000, 0.000000000000000 ) );
#462 = CARTESIAN_POINT( '', ( 0.613500000000003, 1.21738743824390E-15, 0.000000000000000 ) );
#463 = DIRECTION( '', ( 1.00000000000000, -6.12323399573677E-17, -0.000000000000000 ) );
#464 = DIRECTION( '', ( 6.12323399573677E-17, 1.00000000000000, 0.000000000000000 ) );
#465 = CARTESIAN_POINT( '', ( 29.0000000000000, -5.20784379955919E-16, 0.000000000000000 ) );
#466 = DIRECTION( '', ( 1.00000000000000, -6.12323399573677E-17, -0.000000000000000 ) );
#467 = DIRECTION( '', ( 6.12323399573677E-17, 1.00000000000000, 0.000000000000000 ) );
#468 = CARTESIAN_POINT( '', ( 3.00000000000000, 1.07125645893564E-15, 0.000000000000000 ) );
#469 = DIRECTION( '', ( -1.00000000000000, 0.000000000000000, 0.000000000000000 ) );
#470 = DIRECTION( '', ( 0.000000000000000, 0.000000000000000, 1.00000000000000 ) );
#471 = DIRECTION( '', ( 1.00000000000000, -6.12323399573677E-17, -0.000000000000000 ) );
#472 = DIRECTION( '', ( 1.00000000000000, -6.12323399573677E-17, -0.000000000000000 ) );
#473 = CARTESIAN_POINT( '', ( 3.00000000000000, 1.07125645893564E-15, 0.000000000000000 ) );
#474 = DIRECTION( '', ( -1.00000000000000, 0.000000000000000, 0.000000000000000 ) );
#475 = DIRECTION( '', ( 0.000000000000000, 0.000000000000000, 1.00000000000000 ) );
#476 = DIRECTION( '', ( 0.000000000000000, 0.000000000000000, -1.00000000000000 ) );
#477 = CARTESIAN_POINT( '', ( 29.5773800000000, -5.56138708400504E-16, 0.000000000000000 ) );
#478 = DIRECTION( '', ( 1.00000000000000, -6.12323399573677E-17, -0.000000000000000 ) );
#479 = DIRECTION( '', ( 6.12323399573677E-17, 1.00000000000000, 0.000000000000000 ) );
ENDSEC;
END-ISO-10303-21;
