ISO-10303-21;
HEADER;
FILE_DESCRIPTION( ( 'STEP AP214' ), '1' );
FILE_NAME( '//goodhand-server/Shared Folders/GoodHand Data/Kipp CAD/K0170/K0170.1206008.stp', '2020-11-26T10:50:41', ( '' ), ( '' ), ' ', 'PARTsolutions', ' ' );
FILE_SCHEMA( ( 'AUTOMOTIVE_DESIGN { 1 0 10303 214 1 1 1 1 }' ) );
ENDSEC;
DATA;
#1 = MECHANICAL_DESIGN_GEOMETRIC_PRESENTATION_REPRESENTATION( ' ', ( #10, #11, #12, #13, #14, #15, #16, #17, #18, #19, #20, #21, #22 ), #6 );
#2 = PRODUCT_DEFINITION_CONTEXT( '', #23, 'design' );
#3 = APPLICATION_PROTOCOL_DEFINITION( 'international standard', 'automotive_design', 2001, #23 );
#4 = PRODUCT_CATEGORY_RELATIONSHIP( 'NONE', 'NONE', #24, #25 );
#5 = SHAPE_DEFINITION_REPRESENTATION( #26, #27 );
#6 =  ( GEOMETRIC_REPRESENTATION_CONTEXT( 3 )GLOBAL_UNCERTAINTY_ASSIGNED_CONTEXT( ( #30 ) )GLOBAL_UNIT_ASSIGNED_CONTEXT( ( #32, #33, #34 ) )REPRESENTATION_CONTEXT( 'NONE', 'WORKSPACE' ) );
#10 = STYLED_ITEM( '', ( #36 ), #37 );
#11 = STYLED_ITEM( '', ( #38 ), #39 );
#12 = STYLED_ITEM( '', ( #40 ), #41 );
#13 = STYLED_ITEM( '', ( #42 ), #43 );
#14 = STYLED_ITEM( '', ( #44 ), #45 );
#15 = STYLED_ITEM( '', ( #46 ), #47 );
#16 = STYLED_ITEM( '', ( #48 ), #49 );
#17 = STYLED_ITEM( '', ( #50 ), #51 );
#18 = STYLED_ITEM( '', ( #52 ), #53 );
#19 = STYLED_ITEM( '', ( #54 ), #55 );
#20 = STYLED_ITEM( '', ( #56 ), #57 );
#21 = STYLED_ITEM( '', ( #58 ), #59 );
#22 = STYLED_ITEM( '', ( #60 ), #61 );
#23 = APPLICATION_CONTEXT( 'core data for automotive mechanical design processes' );
#24 = PRODUCT_CATEGORY( 'part', 'NONE' );
#25 = PRODUCT_RELATED_PRODUCT_CATEGORY( 'detail', ' ', ( #62 ) );
#26 = PRODUCT_DEFINITION_SHAPE( 'NONE', 'NONE', #63 );
#27 = ADVANCED_BREP_SHAPE_REPRESENTATION( '_K0170.1206008', ( #64, #65 ), #6 );
#30 = UNCERTAINTY_MEASURE_WITH_UNIT( LENGTH_MEASURE( 0.00100000000000000 ), #32, '', '' );
#32 =  ( CONVERSION_BASED_UNIT( 'MILLIMETRE', #68 )LENGTH_UNIT(  )NAMED_UNIT( #71 ) );
#33 =  ( NAMED_UNIT( #73 )PLANE_ANGLE_UNIT(  )SI_UNIT( $, .RADIAN. ) );
#34 =  ( NAMED_UNIT( #73 )SI_UNIT( $, .STERADIAN. )SOLID_ANGLE_UNIT(  ) );
#36 = PRESENTATION_STYLE_ASSIGNMENT( ( #79 ) );
#37 = ADVANCED_FACE( '', ( #80, #81 ), #82, .T. );
#38 = PRESENTATION_STYLE_ASSIGNMENT( ( #83 ) );
#39 = ADVANCED_FACE( '', ( #84, #85 ), #86, .F. );
#40 = PRESENTATION_STYLE_ASSIGNMENT( ( #87 ) );
#41 = ADVANCED_FACE( '', ( #88, #89 ), #90, .T. );
#42 = PRESENTATION_STYLE_ASSIGNMENT( ( #91 ) );
#43 = ADVANCED_FACE( '', ( #92 ), #93, .T. );
#44 = PRESENTATION_STYLE_ASSIGNMENT( ( #94 ) );
#45 = ADVANCED_FACE( '', ( #95 ), #96, .F. );
#46 = PRESENTATION_STYLE_ASSIGNMENT( ( #97 ) );
#47 = ADVANCED_FACE( '', ( #98 ), #99, .T. );
#48 = PRESENTATION_STYLE_ASSIGNMENT( ( #100 ) );
#49 = ADVANCED_FACE( '', ( #101, #102 ), #103, .T. );
#50 = PRESENTATION_STYLE_ASSIGNMENT( ( #104 ) );
#51 = ADVANCED_FACE( '', ( #105, #106 ), #107, .T. );
#52 = PRESENTATION_STYLE_ASSIGNMENT( ( #108 ) );
#53 = ADVANCED_FACE( '', ( #109, #110 ), #111, .T. );
#54 = PRESENTATION_STYLE_ASSIGNMENT( ( #112 ) );
#55 = ADVANCED_FACE( '', ( #113, #114 ), #115, .T. );
#56 = PRESENTATION_STYLE_ASSIGNMENT( ( #116 ) );
#57 = ADVANCED_FACE( '', ( #117 ), #118, .F. );
#58 = PRESENTATION_STYLE_ASSIGNMENT( ( #119 ) );
#59 = ADVANCED_FACE( '', ( #120, #121 ), #122, .T. );
#60 = PRESENTATION_STYLE_ASSIGNMENT( ( #123 ) );
#61 = ADVANCED_FACE( '', ( #124 ), #125, .F. );
#62 = PRODUCT( '_K0170.1206008', '_K0170.1206008', 'PART-_K0170.1206008-DESC', ( #126 ) );
#63 = PRODUCT_DEFINITION( 'NONE', 'NONE', #127, #2 );
#64 = MANIFOLD_SOLID_BREP( '_K0170.1206008', #128 );
#65 = AXIS2_PLACEMENT_3D( '', #129, #130, #131 );
#68 = LENGTH_MEASURE_WITH_UNIT( LENGTH_MEASURE( 1.00000000000000 ), #132 );
#71 = DIMENSIONAL_EXPONENTS( 1.00000000000000, 0.000000000000000, 0.000000000000000, 0.000000000000000, 0.000000000000000, 0.000000000000000, 0.000000000000000 );
#73 = DIMENSIONAL_EXPONENTS( 0.000000000000000, 0.000000000000000, 0.000000000000000, 0.000000000000000, 0.000000000000000, 0.000000000000000, 0.000000000000000 );
#79 = SURFACE_STYLE_USAGE( .BOTH., #133 );
#80 = FACE_OUTER_BOUND( '', #134, .T. );
#81 = FACE_BOUND( '', #135, .T. );
#82 = ( BOUNDED_SURFACE(  )B_SPLINE_SURFACE( 3, 3, ( ( #138, #139, #140, #141, #142, #143, #144 ), ( #145, #146, #147, #148, #149, #150, #151 ), ( #152, #153, #154, #155, #156, #157, #158 ), ( #159, #160, #161, #162, #163, #164, #165 ) ), .UNSPECIFIED., .F., .T., .F. )B_SPLINE_SURFACE_WITH_KNOTS( ( 4, 4 ), ( 4, 3, 4 ), ( 0.000000000000000, 6.28318530717959 ), ( 1.25591055740434, 1.39716026198008, 1.53840996655582 ), .UNSPECIFIED. )GEOMETRIC_REPRESENTATION_ITEM(  )RATIONAL_B_SPLINE_SURFACE( ( ( 1.00000000000000, 0.333333333333333, 0.333333333333333, 1.00000000000000, 0.333333333333333, 0.333333333333333, 1.00000000000000 ), ( 0.993360556899082, 0.331120185633027, 0.331120185633027, 0.993360556899082, 0.331120185633027, 0.331120185633027, 0.993360556899082 ), ( 0.993360556899082, 0.331120185633027, 0.331120185633027, 0.993360556899082, 0.331120185633027, 0.331120185633027, 0.993360556899082 ), ( 1.00000000000000, 0.333333333333333, 0.333333333333333, 1.00000000000000, 0.333333333333333, 0.333333333333333, 1.00000000000000 ) ) )REPRESENTATION_ITEM( '' )SURFACE(  ) );
#83 = SURFACE_STYLE_USAGE( .BOTH., #171 );
#84 = FACE_OUTER_BOUND( '', #172, .T. );
#85 = FACE_BOUND( '', #173, .T. );
#86 = PLANE( '', #174 );
#87 = SURFACE_STYLE_USAGE( .BOTH., #175 );
#88 = FACE_OUTER_BOUND( '', #176, .T. );
#89 = FACE_BOUND( '', #177, .T. );
#90 = CONICAL_SURFACE( '', #178, 2.38650000000000, 0.785398163400000 );
#91 = SURFACE_STYLE_USAGE( .BOTH., #179 );
#92 = FACE_OUTER_BOUND( '', #180, .T. );
#93 = PLANE( '', #181 );
#94 = SURFACE_STYLE_USAGE( .BOTH., #182 );
#95 = FACE_OUTER_BOUND( '', #183, .T. );
#96 = PLANE( '', #184 );
#97 = SURFACE_STYLE_USAGE( .BOTH., #185 );
#98 = FACE_OUTER_BOUND( '', #186, .T. );
#99 = PLANE( '', #187 );
#100 = SURFACE_STYLE_USAGE( .BOTH., #188 );
#101 = FACE_OUTER_BOUND( '', #189, .T. );
#102 = FACE_OUTER_BOUND( '', #190, .T. );
#103 = TOROIDAL_SURFACE( '', #191, 8.50000000000000, 3.00000000000000 );
#104 = SURFACE_STYLE_USAGE( .BOTH., #192 );
#105 = FACE_OUTER_BOUND( '', #193, .T. );
#106 = FACE_OUTER_BOUND( '', #194, .T. );
#107 = CYLINDRICAL_SURFACE( '', #195, 11.5000000000000 );
#108 = SURFACE_STYLE_USAGE( .BOTH., #196 );
#109 = FACE_OUTER_BOUND( '', #197, .T. );
#110 = FACE_OUTER_BOUND( '', #198, .T. );
#111 = CYLINDRICAL_SURFACE( '', #199, 9.00000000000000 );
#112 = SURFACE_STYLE_USAGE( .BOTH., #200 );
#113 = FACE_OUTER_BOUND( '', #201, .T. );
#114 = FACE_BOUND( '', #202, .T. );
#115 = CONICAL_SURFACE( '', #203, 9.00000000000000, 0.0794502389000000 );
#116 = SURFACE_STYLE_USAGE( .BOTH., #204 );
#117 = FACE_OUTER_BOUND( '', #205, .T. );
#118 = PLANE( '', #206 );
#119 = SURFACE_STYLE_USAGE( .BOTH., #207 );
#120 = FACE_OUTER_BOUND( '', #208, .T. );
#121 = FACE_OUTER_BOUND( '', #209, .T. );
#122 = CYLINDRICAL_SURFACE( '', #210, 3.00000000000000 );
#123 = SURFACE_STYLE_USAGE( .BOTH., #211 );
#124 = FACE_OUTER_BOUND( '', #212, .T. );
#125 = PLANE( '', #213 );
#126 = PRODUCT_CONTEXT( '', #23, 'mechanical' );
#127 = PRODUCT_DEFINITION_FORMATION_WITH_SPECIFIED_SOURCE( ' ', 'NONE', #62, .NOT_KNOWN. );
#128 = CLOSED_SHELL( '', ( #61, #43, #47, #39, #53, #59, #41, #57, #55, #51, #49, #37, #45 ) );
#129 = CARTESIAN_POINT( '', ( 0.000000000000000, 0.000000000000000, 0.000000000000000 ) );
#130 = DIRECTION( '', ( 0.000000000000000, 0.000000000000000, 1.00000000000000 ) );
#131 = DIRECTION( '', ( 1.00000000000000, 0.000000000000000, 0.000000000000000 ) );
#132 =  ( LENGTH_UNIT(  )NAMED_UNIT( #71 )SI_UNIT( .MILLI., .METRE. ) );
#133 = SURFACE_SIDE_STYLE( '', ( #215 ) );
#134 = EDGE_LOOP( '', ( #216 ) );
#135 = VERTEX_LOOP( '', #217 );
#138 = CARTESIAN_POINT( '', ( 68.0000000000000, 0.000000000000000, 2.16840434497101E-16 ) );
#139 = CARTESIAN_POINT( '', ( 68.0000000000000, -4.33680868994202E-16, 2.16840434497101E-16 ) );
#140 = CARTESIAN_POINT( '', ( 68.0000000000000, -4.33680868994202E-16, -2.16840434497101E-16 ) );
#141 = CARTESIAN_POINT( '', ( 68.0000000000000, 0.000000000000000, -2.16840434497101E-16 ) );
#142 = CARTESIAN_POINT( '', ( 68.0000000000000, 4.33680868994202E-16, -2.16840434497101E-16 ) );
#143 = CARTESIAN_POINT( '', ( 68.0000000000000, 4.33680868994202E-16, 2.16840434497101E-16 ) );
#144 = CARTESIAN_POINT( '', ( 68.0000000000000, 0.000000000000000, 2.16840434497101E-16 ) );
#145 = CARTESIAN_POINT( '', ( 67.8959817803656, 0.000000000000000, -3.21066797588164 ) );
#146 = CARTESIAN_POINT( '', ( 67.8959817803656, 6.42133595176329, -3.21066797588164 ) );
#147 = CARTESIAN_POINT( '', ( 67.8959817803656, 6.42133595176329, 3.21066797588164 ) );
#148 = CARTESIAN_POINT( '', ( 67.8959817803656, 0.000000000000000, 3.21066797588164 ) );
#149 = CARTESIAN_POINT( '', ( 67.8959817803656, -6.42133595176329, 3.21066797588164 ) );
#150 = CARTESIAN_POINT( '', ( 67.8959817803656, -6.42133595176329, -3.21066797588164 ) );
#151 = CARTESIAN_POINT( '', ( 67.8959817803656, 0.000000000000000, -3.21066797588164 ) );
#152 = CARTESIAN_POINT( '', ( 67.3410001074975, 0.000000000000000, -6.37471664556868 ) );
#153 = CARTESIAN_POINT( '', ( 67.3410001074975, 12.7494332911374, -6.37471664556868 ) );
#154 = CARTESIAN_POINT( '', ( 67.3410001074975, 12.7494332911374, 6.37471664556868 ) );
#155 = CARTESIAN_POINT( '', ( 67.3410001074975, 0.000000000000000, 6.37471664556868 ) );
#156 = CARTESIAN_POINT( '', ( 67.3410001074975, -12.7494332911374, 6.37471664556868 ) );
#157 = CARTESIAN_POINT( '', ( 67.3410001074975, -12.7494332911374, -6.37471664556868 ) );
#158 = CARTESIAN_POINT( '', ( 67.3410001074975, 0.000000000000000, -6.37471664556868 ) );
#159 = CARTESIAN_POINT( '', ( 66.3461092891128, 0.000000000000000, -9.42912344572836 ) );
#160 = CARTESIAN_POINT( '', ( 66.3461092891128, 18.8582468914567, -9.42912344572836 ) );
#161 = CARTESIAN_POINT( '', ( 66.3461092891128, 18.8582468914567, 9.42912344572836 ) );
#162 = CARTESIAN_POINT( '', ( 66.3461092891128, 0.000000000000000, 9.42912344572836 ) );
#163 = CARTESIAN_POINT( '', ( 66.3461092891128, -18.8582468914567, 9.42912344572836 ) );
#164 = CARTESIAN_POINT( '', ( 66.3461092891128, -18.8582468914567, -9.42912344572836 ) );
#165 = CARTESIAN_POINT( '', ( 66.3461092891128, 0.000000000000000, -9.42912344572836 ) );
#171 = SURFACE_SIDE_STYLE( '', ( #218 ) );
#172 = EDGE_LOOP( '', ( #219, #220, #221, #222 ) );
#173 = EDGE_LOOP( '', ( #223 ) );
#174 = AXIS2_PLACEMENT_3D( '', #224, #225, #226 );
#175 = SURFACE_SIDE_STYLE( '', ( #227 ) );
#176 = EDGE_LOOP( '', ( #228 ) );
#177 = EDGE_LOOP( '', ( #229 ) );
#178 = AXIS2_PLACEMENT_3D( '', #230, #231, #232 );
#179 = SURFACE_SIDE_STYLE( '', ( #233 ) );
#180 = EDGE_LOOP( '', ( #234, #235, #236, #237 ) );
#181 = AXIS2_PLACEMENT_3D( '', #238, #239, #240 );
#182 = SURFACE_SIDE_STYLE( '', ( #241 ) );
#183 = EDGE_LOOP( '', ( #242, #243 ) );
#184 = AXIS2_PLACEMENT_3D( '', #244, #245, #246 );
#185 = SURFACE_SIDE_STYLE( '', ( #247 ) );
#186 = EDGE_LOOP( '', ( #248, #249, #250, #251 ) );
#187 = AXIS2_PLACEMENT_3D( '', #252, #253, #254 );
#188 = SURFACE_SIDE_STYLE( '', ( #255 ) );
#189 = EDGE_LOOP( '', ( #256 ) );
#190 = EDGE_LOOP( '', ( #257 ) );
#191 = AXIS2_PLACEMENT_3D( '', #258, #259, #260 );
#192 = SURFACE_SIDE_STYLE( '', ( #261 ) );
#193 = EDGE_LOOP( '', ( #262 ) );
#194 = EDGE_LOOP( '', ( #263 ) );
#195 = AXIS2_PLACEMENT_3D( '', #264, #265, #266 );
#196 = SURFACE_SIDE_STYLE( '', ( #267 ) );
#197 = EDGE_LOOP( '', ( #268 ) );
#198 = EDGE_LOOP( '', ( #269, #270, #271, #272, #273, #274, #275, #276 ) );
#199 = AXIS2_PLACEMENT_3D( '', #277, #278, #279 );
#200 = SURFACE_SIDE_STYLE( '', ( #280 ) );
#201 = EDGE_LOOP( '', ( #281 ) );
#202 = EDGE_LOOP( '', ( #282 ) );
#203 = AXIS2_PLACEMENT_3D( '', #283, #284, #285 );
#204 = SURFACE_SIDE_STYLE( '', ( #286 ) );
#205 = EDGE_LOOP( '', ( #287 ) );
#206 = AXIS2_PLACEMENT_3D( '', #288, #289, #290 );
#207 = SURFACE_SIDE_STYLE( '', ( #291 ) );
#208 = EDGE_LOOP( '', ( #292 ) );
#209 = EDGE_LOOP( '', ( #293 ) );
#210 = AXIS2_PLACEMENT_3D( '', #294, #295, #296 );
#211 = SURFACE_SIDE_STYLE( '', ( #297 ) );
#212 = EDGE_LOOP( '', ( #298, #299 ) );
#213 = AXIS2_PLACEMENT_3D( '', #300, #301, #302 );
#215 = SURFACE_STYLE_FILL_AREA( #303 );
#216 = ORIENTED_EDGE( '', *, *, #304, .T. );
#217 = VERTEX_POINT( '', #305 );
#218 = SURFACE_STYLE_FILL_AREA( #306 );
#219 = ORIENTED_EDGE( '', *, *, #307, .F. );
#220 = ORIENTED_EDGE( '', *, *, #308, .F. );
#221 = ORIENTED_EDGE( '', *, *, #309, .F. );
#222 = ORIENTED_EDGE( '', *, *, #310, .F. );
#223 = ORIENTED_EDGE( '', *, *, #311, .T. );
#224 = CARTESIAN_POINT( '', ( 0.000000000000000, 3.00000000000000, 0.000000000000000 ) );
#225 = DIRECTION( '', ( 1.00000000000000, 0.000000000000000, -0.000000000000000 ) );
#226 = DIRECTION( '', ( -0.000000000000000, 0.000000000000000, -1.00000000000000 ) );
#227 = SURFACE_STYLE_FILL_AREA( #312 );
#228 = ORIENTED_EDGE( '', *, *, #313, .F. );
#229 = ORIENTED_EDGE( '', *, *, #314, .T. );
#230 = CARTESIAN_POINT( '', ( -8.00000000000001, 0.000000000000000, 0.000000000000000 ) );
#231 = DIRECTION( '', ( 1.00000000000000, -0.000000000000000, -0.000000000000000 ) );
#232 = DIRECTION( '', ( -0.000000000000000, 0.000000000000000, -1.00000000000000 ) );
#233 = SURFACE_STYLE_FILL_AREA( #315 );
#234 = ORIENTED_EDGE( '', *, *, #316, .T. );
#235 = ORIENTED_EDGE( '', *, *, #317, .T. );
#236 = ORIENTED_EDGE( '', *, *, #318, .T. );
#237 = ORIENTED_EDGE( '', *, *, #309, .T. );
#238 = CARTESIAN_POINT( '', ( 5.99000000000000, -8.00000000000000, -23.0000000000000 ) );
#239 = DIRECTION( '', ( 0.000000000000000, -1.00000000000000, 0.000000000000000 ) );
#240 = DIRECTION( '', ( 0.000000000000000, 0.000000000000000, -1.00000000000000 ) );
#241 = SURFACE_STYLE_FILL_AREA( #319 );
#242 = ORIENTED_EDGE( '', *, *, #317, .F. );
#243 = ORIENTED_EDGE( '', *, *, #320, .F. );
#244 = CARTESIAN_POINT( '', ( 5.99000000000000, 0.000000000000000, 0.000000000000000 ) );
#245 = DIRECTION( '', ( 1.00000000000000, 0.000000000000000, -0.000000000000000 ) );
#246 = DIRECTION( '', ( -0.000000000000000, 0.000000000000000, -1.00000000000000 ) );
#247 = SURFACE_STYLE_FILL_AREA( #321 );
#248 = ORIENTED_EDGE( '', *, *, #322, .T. );
#249 = ORIENTED_EDGE( '', *, *, #323, .T. );
#250 = ORIENTED_EDGE( '', *, *, #324, .T. );
#251 = ORIENTED_EDGE( '', *, *, #307, .T. );
#252 = CARTESIAN_POINT( '', ( 5.99000000000000, 8.00000000000000, 23.0000000000000 ) );
#253 = DIRECTION( '', ( -0.000000000000000, 1.00000000000000, 0.000000000000000 ) );
#254 = DIRECTION( '', ( 0.000000000000000, -0.000000000000000, 1.00000000000000 ) );
#255 = SURFACE_STYLE_FILL_AREA( #325 );
#256 = ORIENTED_EDGE( '', *, *, #326, .T. );
#257 = ORIENTED_EDGE( '', *, *, #304, .F. );
#258 = CARTESIAN_POINT( '', ( 63.4936139564965, 0.000000000000000, 0.000000000000000 ) );
#259 = DIRECTION( '', ( 1.00000000000000, 0.000000000000000, -0.000000000000000 ) );
#260 = DIRECTION( '', ( -0.000000000000000, 0.000000000000000, -1.00000000000000 ) );
#261 = SURFACE_STYLE_FILL_AREA( #327 );
#262 = ORIENTED_EDGE( '', *, *, #326, .F. );
#263 = ORIENTED_EDGE( '', *, *, #328, .T. );
#264 = CARTESIAN_POINT( '', ( 68.0000000000000, 0.000000000000000, 0.000000000000000 ) );
#265 = DIRECTION( '', ( -1.00000000000000, -0.000000000000000, 0.000000000000000 ) );
#266 = DIRECTION( '', ( -0.000000000000000, 0.000000000000000, -1.00000000000000 ) );
#267 = SURFACE_STYLE_FILL_AREA( #329 );
#268 = ORIENTED_EDGE( '', *, *, #330, .F. );
#269 = ORIENTED_EDGE( '', *, *, #316, .F. );
#270 = ORIENTED_EDGE( '', *, *, #308, .T. );
#271 = ORIENTED_EDGE( '', *, *, #324, .F. );
#272 = ORIENTED_EDGE( '', *, *, #331, .T. );
#273 = ORIENTED_EDGE( '', *, *, #322, .F. );
#274 = ORIENTED_EDGE( '', *, *, #310, .T. );
#275 = ORIENTED_EDGE( '', *, *, #318, .F. );
#276 = ORIENTED_EDGE( '', *, *, #320, .T. );
#277 = CARTESIAN_POINT( '', ( 68.0000000000000, 0.000000000000000, 0.000000000000000 ) );
#278 = DIRECTION( '', ( -1.00000000000000, -0.000000000000000, 0.000000000000000 ) );
#279 = DIRECTION( '', ( -0.000000000000000, 0.000000000000000, -1.00000000000000 ) );
#280 = SURFACE_STYLE_FILL_AREA( #332 );
#281 = ORIENTED_EDGE( '', *, *, #328, .F. );
#282 = ORIENTED_EDGE( '', *, *, #330, .T. );
#283 = CARTESIAN_POINT( '', ( 6.00000000000000, 0.000000000000000, 0.000000000000000 ) );
#284 = DIRECTION( '', ( 1.00000000000000, -0.000000000000000, -0.000000000000000 ) );
#285 = DIRECTION( '', ( -0.000000000000000, 0.000000000000000, -1.00000000000000 ) );
#286 = SURFACE_STYLE_FILL_AREA( #333 );
#287 = ORIENTED_EDGE( '', *, *, #314, .F. );
#288 = CARTESIAN_POINT( '', ( -8.00000000000000, 0.000000000000000, 0.000000000000000 ) );
#289 = DIRECTION( '', ( 1.00000000000000, 0.000000000000000, -0.000000000000000 ) );
#290 = DIRECTION( '', ( -0.000000000000000, 0.000000000000000, -1.00000000000000 ) );
#291 = SURFACE_STYLE_FILL_AREA( #334 );
#292 = ORIENTED_EDGE( '', *, *, #311, .F. );
#293 = ORIENTED_EDGE( '', *, *, #313, .T. );
#294 = CARTESIAN_POINT( '', ( 68.0000000000000, 0.000000000000000, 0.000000000000000 ) );
#295 = DIRECTION( '', ( -1.00000000000000, -0.000000000000000, 0.000000000000000 ) );
#296 = DIRECTION( '', ( -0.000000000000000, 0.000000000000000, -1.00000000000000 ) );
#297 = SURFACE_STYLE_FILL_AREA( #335 );
#298 = ORIENTED_EDGE( '', *, *, #323, .F. );
#299 = ORIENTED_EDGE( '', *, *, #331, .F. );
#300 = CARTESIAN_POINT( '', ( 5.99000000000000, 0.000000000000000, 0.000000000000000 ) );
#301 = DIRECTION( '', ( 1.00000000000000, 0.000000000000000, 0.000000000000000 ) );
#302 = DIRECTION( '', ( 0.000000000000000, 0.000000000000000, -1.00000000000000 ) );
#303 = FILL_AREA_STYLE( '', ( #336 ) );
#304 = EDGE_CURVE( '', #337, #337, #338, .T. );
#305 = CARTESIAN_POINT( '', ( 68.0000000000000, 0.000000000000000, 0.000000000000000 ) );
#306 = FILL_AREA_STYLE( '', ( #339 ) );
#307 = EDGE_CURVE( '', #340, #341, #342, .T. );
#308 = EDGE_CURVE( '', #343, #340, #344, .T. );
#309 = EDGE_CURVE( '', #345, #343, #346, .T. );
#310 = EDGE_CURVE( '', #341, #345, #347, .T. );
#311 = EDGE_CURVE( '', #348, #348, #349, .T. );
#312 = FILL_AREA_STYLE( '', ( #350 ) );
#313 = EDGE_CURVE( '', #351, #351, #352, .T. );
#314 = EDGE_CURVE( '', #353, #353, #354, .T. );
#315 = FILL_AREA_STYLE( '', ( #355 ) );
#316 = EDGE_CURVE( '', #343, #356, #357, .T. );
#317 = EDGE_CURVE( '', #356, #358, #359, .T. );
#318 = EDGE_CURVE( '', #358, #345, #360, .F. );
#319 = FILL_AREA_STYLE( '', ( #361 ) );
#320 = EDGE_CURVE( '', #358, #356, #362, .T. );
#321 = FILL_AREA_STYLE( '', ( #363 ) );
#322 = EDGE_CURVE( '', #341, #364, #365, .T. );
#323 = EDGE_CURVE( '', #364, #366, #367, .T. );
#324 = EDGE_CURVE( '', #366, #340, #368, .F. );
#325 = FILL_AREA_STYLE( '', ( #369 ) );
#326 = EDGE_CURVE( '', #370, #370, #371, .T. );
#327 = FILL_AREA_STYLE( '', ( #372 ) );
#328 = EDGE_CURVE( '', #373, #373, #374, .T. );
#329 = FILL_AREA_STYLE( '', ( #375 ) );
#330 = EDGE_CURVE( '', #376, #376, #377, .T. );
#331 = EDGE_CURVE( '', #366, #364, #378, .T. );
#332 = FILL_AREA_STYLE( '', ( #379 ) );
#333 = FILL_AREA_STYLE( '', ( #380 ) );
#334 = FILL_AREA_STYLE( '', ( #381 ) );
#335 = FILL_AREA_STYLE( '', ( #382 ) );
#336 = FILL_AREA_STYLE_COLOUR( '', #383 );
#337 = VERTEX_POINT( '', #384 );
#338 = CIRCLE( '', #385, 9.42912344570000 );
#339 = FILL_AREA_STYLE_COLOUR( '', #386 );
#340 = VERTEX_POINT( '', #387 );
#341 = VERTEX_POINT( '', #388 );
#342 = LINE( '', #389, #390 );
#343 = VERTEX_POINT( '', #391 );
#344 = CIRCLE( '', #392, 9.00000000000000 );
#345 = VERTEX_POINT( '', #393 );
#346 = LINE( '', #394, #395 );
#347 = CIRCLE( '', #396, 9.00000000000000 );
#348 = VERTEX_POINT( '', #397 );
#349 = CIRCLE( '', #398, 3.00000000000000 );
#350 = FILL_AREA_STYLE_COLOUR( '', #399 );
#351 = VERTEX_POINT( '', #400 );
#352 = CIRCLE( '', #401, 3.00000000000000 );
#353 = VERTEX_POINT( '', #402 );
#354 = CIRCLE( '', #403, 2.38650000000000 );
#355 = FILL_AREA_STYLE_COLOUR( '', #404 );
#356 = VERTEX_POINT( '', #405 );
#357 = LINE( '', #406, #407 );
#358 = VERTEX_POINT( '', #408 );
#359 = LINE( '', #409, #410 );
#360 = LINE( '', #411, #412 );
#361 = FILL_AREA_STYLE_COLOUR( '', #413 );
#362 = CIRCLE( '', #414, 9.00000000000000 );
#363 = FILL_AREA_STYLE_COLOUR( '', #415 );
#364 = VERTEX_POINT( '', #416 );
#365 = LINE( '', #417, #418 );
#366 = VERTEX_POINT( '', #419 );
#367 = LINE( '', #420, #421 );
#368 = LINE( '', #422, #423 );
#369 = FILL_AREA_STYLE_COLOUR( '', #424 );
#370 = VERTEX_POINT( '', #425 );
#371 = CIRCLE( '', #426, 11.5000000000000 );
#372 = FILL_AREA_STYLE_COLOUR( '', #427 );
#373 = VERTEX_POINT( '', #428 );
#374 = CIRCLE( '', #429, 11.5000000000000 );
#375 = FILL_AREA_STYLE_COLOUR( '', #430 );
#376 = VERTEX_POINT( '', #431 );
#377 = CIRCLE( '', #432, 9.00000000000000 );
#378 = CIRCLE( '', #433, 9.00000000000000 );
#379 = FILL_AREA_STYLE_COLOUR( '', #434 );
#380 = FILL_AREA_STYLE_COLOUR( '', #435 );
#381 = FILL_AREA_STYLE_COLOUR( '', #436 );
#382 = FILL_AREA_STYLE_COLOUR( '', #437 );
#383 = COLOUR_RGB( '', 0.689999997600000, 0.689999997600000, 0.689999997600000 );
#384 = CARTESIAN_POINT( '', ( 66.3461092891128, 0.000000000000000, -9.42912344572835 ) );
#385 = AXIS2_PLACEMENT_3D( '', #438, #439, #440 );
#386 = COLOUR_RGB( '', 0.689999997600000, 0.689999997600000, 0.689999997600000 );
#387 = CARTESIAN_POINT( '', ( 0.000000000000000, 8.00000000000000, -4.12310562561766 ) );
#388 = CARTESIAN_POINT( '', ( 0.000000000000000, 8.00000000000000, 4.12310562561766 ) );
#389 = CARTESIAN_POINT( '', ( 0.000000000000000, 8.00000000000000, 0.000000000000000 ) );
#390 = VECTOR( '', #441, 1000.00000000000 );
#391 = CARTESIAN_POINT( '', ( 0.000000000000000, -8.00000000000000, -4.12310562561766 ) );
#392 = AXIS2_PLACEMENT_3D( '', #442, #443, #444 );
#393 = CARTESIAN_POINT( '', ( 0.000000000000000, -8.00000000000000, 4.12310562561766 ) );
#394 = CARTESIAN_POINT( '', ( 0.000000000000000, -8.00000000000000, 0.000000000000000 ) );
#395 = VECTOR( '', #445, 1000.00000000000 );
#396 = AXIS2_PLACEMENT_3D( '', #446, #447, #448 );
#397 = CARTESIAN_POINT( '', ( 0.000000000000000, 0.000000000000000, -3.00000000000000 ) );
#398 = AXIS2_PLACEMENT_3D( '', #449, #450, #451 );
#399 = COLOUR_RGB( '', 0.689999997600000, 0.689999997600000, 0.689999997600000 );
#400 = CARTESIAN_POINT( '', ( -7.38650000000000, 0.000000000000000, -3.00000000000000 ) );
#401 = AXIS2_PLACEMENT_3D( '', #452, #453, #454 );
#402 = CARTESIAN_POINT( '', ( -8.00000000000001, 0.000000000000000, -2.38650000000000 ) );
#403 = AXIS2_PLACEMENT_3D( '', #455, #456, #457 );
#404 = COLOUR_RGB( '', 0.689999997600000, 0.689999997600000, 0.689999997600000 );
#405 = CARTESIAN_POINT( '', ( 5.99000000000000, -8.00000000000000, -4.12310562561766 ) );
#406 = CARTESIAN_POINT( '', ( 68.0000000000000, -8.00000000000000, -4.12310562561766 ) );
#407 = VECTOR( '', #458, 1000.00000000000 );
#408 = CARTESIAN_POINT( '', ( 5.99000000000000, -8.00000000000000, 4.12310562561766 ) );
#409 = CARTESIAN_POINT( '', ( 5.99000000000000, -8.00000000000000, -23.0000000000000 ) );
#410 = VECTOR( '', #459, 1000.00000000000 );
#411 = CARTESIAN_POINT( '', ( 68.0000000000000, -8.00000000000000, 4.12310562561766 ) );
#412 = VECTOR( '', #460, 1000.00000000000 );
#413 = COLOUR_RGB( '', 0.689999997600000, 0.689999997600000, 0.689999997600000 );
#414 = AXIS2_PLACEMENT_3D( '', #461, #462, #463 );
#415 = COLOUR_RGB( '', 0.689999997600000, 0.689999997600000, 0.689999997600000 );
#416 = CARTESIAN_POINT( '', ( 5.99000000000000, 8.00000000000000, 4.12310562561766 ) );
#417 = CARTESIAN_POINT( '', ( 68.0000000000000, 8.00000000000000, 4.12310562561766 ) );
#418 = VECTOR( '', #464, 1000.00000000000 );
#419 = CARTESIAN_POINT( '', ( 5.99000000000000, 8.00000000000000, -4.12310562561766 ) );
#420 = CARTESIAN_POINT( '', ( 5.99000000000000, 8.00000000000000, 23.0000000000000 ) );
#421 = VECTOR( '', #465, 1000.00000000000 );
#422 = CARTESIAN_POINT( '', ( 68.0000000000000, 8.00000000000000, -4.12310562561766 ) );
#423 = VECTOR( '', #466, 1000.00000000000 );
#424 = COLOUR_RGB( '', 0.689999997600000, 0.689999997600000, 0.689999997600000 );
#425 = CARTESIAN_POINT( '', ( 63.4936139564965, 0.000000000000000, -11.5000000000000 ) );
#426 = AXIS2_PLACEMENT_3D( '', #467, #468, #469 );
#427 = COLOUR_RGB( '', 0.689999997600000, 0.689999997600000, 0.689999997600000 );
#428 = CARTESIAN_POINT( '', ( 37.4000000000000, 0.000000000000000, -11.5000000000000 ) );
#429 = AXIS2_PLACEMENT_3D( '', #470, #471, #472 );
#430 = COLOUR_RGB( '', 0.689999997600000, 0.689999997600000, 0.689999997600000 );
#431 = CARTESIAN_POINT( '', ( 6.00000000000000, 0.000000000000000, -9.00000000000000 ) );
#432 = AXIS2_PLACEMENT_3D( '', #473, #474, #475 );
#433 = AXIS2_PLACEMENT_3D( '', #476, #477, #478 );
#434 = COLOUR_RGB( '', 0.689999997600000, 0.689999997600000, 0.689999997600000 );
#435 = COLOUR_RGB( '', 0.689999997600000, 0.689999997600000, 0.689999997600000 );
#436 = COLOUR_RGB( '', 0.689999997600000, 0.689999997600000, 0.689999997600000 );
#437 = COLOUR_RGB( '', 0.689999997600000, 0.689999997600000, 0.689999997600000 );
#438 = CARTESIAN_POINT( '', ( 66.3461092891128, 0.000000000000000, 0.000000000000000 ) );
#439 = DIRECTION( '', ( 1.00000000000000, 0.000000000000000, -0.000000000000000 ) );
#440 = DIRECTION( '', ( -0.000000000000000, 0.000000000000000, -1.00000000000000 ) );
#441 = DIRECTION( '', ( 0.000000000000000, 0.000000000000000, 1.00000000000000 ) );
#442 = CARTESIAN_POINT( '', ( 0.000000000000000, 0.000000000000000, 0.000000000000000 ) );
#443 = DIRECTION( '', ( 1.00000000000000, 0.000000000000000, -0.000000000000000 ) );
#444 = DIRECTION( '', ( -0.000000000000000, 0.000000000000000, -1.00000000000000 ) );
#445 = DIRECTION( '', ( 0.000000000000000, 0.000000000000000, -1.00000000000000 ) );
#446 = CARTESIAN_POINT( '', ( 0.000000000000000, 0.000000000000000, 0.000000000000000 ) );
#447 = DIRECTION( '', ( 1.00000000000000, 0.000000000000000, -0.000000000000000 ) );
#448 = DIRECTION( '', ( -0.000000000000000, 0.000000000000000, -1.00000000000000 ) );
#449 = CARTESIAN_POINT( '', ( 0.000000000000000, 0.000000000000000, 0.000000000000000 ) );
#450 = DIRECTION( '', ( 1.00000000000000, 0.000000000000000, -0.000000000000000 ) );
#451 = DIRECTION( '', ( -0.000000000000000, 0.000000000000000, -1.00000000000000 ) );
#452 = CARTESIAN_POINT( '', ( -7.38650000000000, 0.000000000000000, 0.000000000000000 ) );
#453 = DIRECTION( '', ( 1.00000000000000, 0.000000000000000, -0.000000000000000 ) );
#454 = DIRECTION( '', ( -0.000000000000000, 0.000000000000000, -1.00000000000000 ) );
#455 = CARTESIAN_POINT( '', ( -8.00000000000001, 0.000000000000000, 0.000000000000000 ) );
#456 = DIRECTION( '', ( 1.00000000000000, 0.000000000000000, -0.000000000000000 ) );
#457 = DIRECTION( '', ( -0.000000000000000, 0.000000000000000, -1.00000000000000 ) );
#458 = DIRECTION( '', ( 1.00000000000000, -0.000000000000000, -0.000000000000000 ) );
#459 = DIRECTION( '', ( 0.000000000000000, 0.000000000000000, 1.00000000000000 ) );
#460 = DIRECTION( '', ( 1.00000000000000, -0.000000000000000, -0.000000000000000 ) );
#461 = CARTESIAN_POINT( '', ( 5.99000000000000, 0.000000000000000, 0.000000000000000 ) );
#462 = DIRECTION( '', ( 1.00000000000000, 0.000000000000000, -0.000000000000000 ) );
#463 = DIRECTION( '', ( -0.000000000000000, 0.000000000000000, -1.00000000000000 ) );
#464 = DIRECTION( '', ( 1.00000000000000, -0.000000000000000, -0.000000000000000 ) );
#465 = DIRECTION( '', ( 0.000000000000000, 0.000000000000000, -1.00000000000000 ) );
#466 = DIRECTION( '', ( 1.00000000000000, -0.000000000000000, -0.000000000000000 ) );
#467 = CARTESIAN_POINT( '', ( 63.4936139564965, 0.000000000000000, 0.000000000000000 ) );
#468 = DIRECTION( '', ( 1.00000000000000, 0.000000000000000, -0.000000000000000 ) );
#469 = DIRECTION( '', ( -0.000000000000000, 0.000000000000000, -1.00000000000000 ) );
#470 = CARTESIAN_POINT( '', ( 37.4000000000000, 0.000000000000000, 0.000000000000000 ) );
#471 = DIRECTION( '', ( 1.00000000000000, 0.000000000000000, -0.000000000000000 ) );
#472 = DIRECTION( '', ( -0.000000000000000, 0.000000000000000, -1.00000000000000 ) );
#473 = CARTESIAN_POINT( '', ( 6.00000000000000, 0.000000000000000, 0.000000000000000 ) );
#474 = DIRECTION( '', ( 1.00000000000000, 0.000000000000000, -0.000000000000000 ) );
#475 = DIRECTION( '', ( -0.000000000000000, 0.000000000000000, -1.00000000000000 ) );
#476 = CARTESIAN_POINT( '', ( 5.99000000000000, 0.000000000000000, 0.000000000000000 ) );
#477 = DIRECTION( '', ( 1.00000000000000, 0.000000000000000, 0.000000000000000 ) );
#478 = DIRECTION( '', ( 0.000000000000000, 0.000000000000000, -1.00000000000000 ) );
ENDSEC;
END-ISO-10303-21;
