ISO-10303-21;
HEADER;
FILE_DESCRIPTION( ( 'STEP AP214' ), '1' );
FILE_NAME( '//goodhand-server/Shared Folders/GoodHand Data/Kipp CAD/K0163/K0163.1360X28.stp', '2020-11-26T10:30:02', ( '' ), ( '' ), ' ', 'PARTsolutions', ' ' );
FILE_SCHEMA( ( 'AUTOMOTIVE_DESIGN { 1 0 10303 214 1 1 1 1 }' ) );
ENDSEC;
DATA;
#1 = MECHANICAL_DESIGN_GEOMETRIC_PRESENTATION_REPRESENTATION( ' ', ( #10, #11, #12, #13, #14, #15, #16, #17, #18, #19, #20, #21, #22, #23, #24 ), #6 );
#2 = PRODUCT_DEFINITION_CONTEXT( '', #25, 'design' );
#3 = APPLICATION_PROTOCOL_DEFINITION( 'international standard', 'automotive_design', 2001, #25 );
#4 = PRODUCT_CATEGORY_RELATIONSHIP( 'NONE', 'NONE', #26, #27 );
#5 = SHAPE_DEFINITION_REPRESENTATION( #28, #29 );
#6 =  ( GEOMETRIC_REPRESENTATION_CONTEXT( 3 )GLOBAL_UNCERTAINTY_ASSIGNED_CONTEXT( ( #32 ) )GLOBAL_UNIT_ASSIGNED_CONTEXT( ( #34, #35, #36 ) )REPRESENTATION_CONTEXT( 'NONE', 'WORKSPACE' ) );
#10 = STYLED_ITEM( '', ( #38 ), #39 );
#11 = STYLED_ITEM( '', ( #40 ), #41 );
#12 = STYLED_ITEM( '', ( #42 ), #43 );
#13 = STYLED_ITEM( '', ( #44 ), #45 );
#14 = STYLED_ITEM( '', ( #46 ), #47 );
#15 = STYLED_ITEM( '', ( #48 ), #49 );
#16 = STYLED_ITEM( '', ( #50 ), #51 );
#17 = STYLED_ITEM( '', ( #52 ), #53 );
#18 = STYLED_ITEM( '', ( #54 ), #55 );
#19 = STYLED_ITEM( '', ( #56 ), #57 );
#20 = STYLED_ITEM( '', ( #58 ), #59 );
#21 = STYLED_ITEM( '', ( #60 ), #61 );
#22 = STYLED_ITEM( '', ( #62 ), #63 );
#23 = STYLED_ITEM( '', ( #64 ), #65 );
#24 = STYLED_ITEM( '', ( #66 ), #67 );
#25 = APPLICATION_CONTEXT( 'core data for automotive mechanical design processes' );
#26 = PRODUCT_CATEGORY( 'part', 'NONE' );
#27 = PRODUCT_RELATED_PRODUCT_CATEGORY( 'detail', ' ', ( #68 ) );
#28 = PRODUCT_DEFINITION_SHAPE( 'NONE', 'NONE', #69 );
#29 = ADVANCED_BREP_SHAPE_REPRESENTATION( '_K0163.1360X28', ( #70, #71 ), #6 );
#32 = UNCERTAINTY_MEASURE_WITH_UNIT( LENGTH_MEASURE( 0.00100000000000000 ), #34, '', '' );
#34 =  ( CONVERSION_BASED_UNIT( 'MILLIMETRE', #74 )LENGTH_UNIT(  )NAMED_UNIT( #77 ) );
#35 =  ( NAMED_UNIT( #79 )PLANE_ANGLE_UNIT(  )SI_UNIT( $, .RADIAN. ) );
#36 =  ( NAMED_UNIT( #79 )SI_UNIT( $, .STERADIAN. )SOLID_ANGLE_UNIT(  ) );
#38 = PRESENTATION_STYLE_ASSIGNMENT( ( #85 ) );
#39 = ADVANCED_FACE( '', ( #86, #87 ), #88, .T. );
#40 = PRESENTATION_STYLE_ASSIGNMENT( ( #89 ) );
#41 = ADVANCED_FACE( '', ( #90, #91 ), #92, .T. );
#42 = PRESENTATION_STYLE_ASSIGNMENT( ( #93 ) );
#43 = ADVANCED_FACE( '', ( #94, #95 ), #96, .F. );
#44 = PRESENTATION_STYLE_ASSIGNMENT( ( #97 ) );
#45 = ADVANCED_FACE( '', ( #98, #99, #100 ), #101, .T. );
#46 = PRESENTATION_STYLE_ASSIGNMENT( ( #102 ) );
#47 = ADVANCED_FACE( '', ( #103 ), #104, .F. );
#48 = PRESENTATION_STYLE_ASSIGNMENT( ( #105 ) );
#49 = ADVANCED_FACE( '', ( #106, #107 ), #108, .F. );
#50 = PRESENTATION_STYLE_ASSIGNMENT( ( #109 ) );
#51 = ADVANCED_FACE( '', ( #110, #111 ), #112, .F. );
#52 = PRESENTATION_STYLE_ASSIGNMENT( ( #113 ) );
#53 = ADVANCED_FACE( '', ( #114, #115 ), #116, .T. );
#54 = PRESENTATION_STYLE_ASSIGNMENT( ( #117 ) );
#55 = ADVANCED_FACE( '', ( #118 ), #119, .T. );
#56 = PRESENTATION_STYLE_ASSIGNMENT( ( #120 ) );
#57 = ADVANCED_FACE( '', ( #121, #122 ), #123, .T. );
#58 = PRESENTATION_STYLE_ASSIGNMENT( ( #124 ) );
#59 = ADVANCED_FACE( '', ( #125, #126 ), #127, .F. );
#60 = PRESENTATION_STYLE_ASSIGNMENT( ( #128 ) );
#61 = ADVANCED_FACE( '', ( #129, #130 ), #131, .F. );
#62 = PRESENTATION_STYLE_ASSIGNMENT( ( #132 ) );
#63 = ADVANCED_FACE( '', ( #133 ), #134, .T. );
#64 = PRESENTATION_STYLE_ASSIGNMENT( ( #135 ) );
#65 = ADVANCED_FACE( '', ( #136 ), #137, .T. );
#66 = PRESENTATION_STYLE_ASSIGNMENT( ( #138 ) );
#67 = ADVANCED_FACE( '', ( #139, #140 ), #141, .F. );
#68 = PRODUCT( '_K0163.1360X28', '_K0163.1360X28', 'PART-_K0163.1360X28-DESC', ( #142 ) );
#69 = PRODUCT_DEFINITION( 'NONE', 'NONE', #143, #2 );
#70 = MANIFOLD_SOLID_BREP( '_K0163.1360X28', #144 );
#71 = AXIS2_PLACEMENT_3D( '', #145, #146, #147 );
#74 = LENGTH_MEASURE_WITH_UNIT( LENGTH_MEASURE( 1.00000000000000 ), #148 );
#77 = DIMENSIONAL_EXPONENTS( 1.00000000000000, 0.000000000000000, 0.000000000000000, 0.000000000000000, 0.000000000000000, 0.000000000000000, 0.000000000000000 );
#79 = DIMENSIONAL_EXPONENTS( 0.000000000000000, 0.000000000000000, 0.000000000000000, 0.000000000000000, 0.000000000000000, 0.000000000000000, 0.000000000000000 );
#85 = SURFACE_STYLE_USAGE( .BOTH., #149 );
#86 = FACE_BOUND( '', #150, .T. );
#87 = FACE_OUTER_BOUND( '', #151, .T. );
#88 = CONICAL_SURFACE( '', #152, 151.000000000000, 1.28973576920000 );
#89 = SURFACE_STYLE_USAGE( .BOTH., #153 );
#90 = FACE_OUTER_BOUND( '', #154, .T. );
#91 = FACE_OUTER_BOUND( '', #155, .T. );
#92 = TOROIDAL_SURFACE( '', #156, 162.235754524500, 15.0000000000000 );
#93 = SURFACE_STYLE_USAGE( .BOTH., #157 );
#94 = FACE_OUTER_BOUND( '', #158, .T. );
#95 = FACE_BOUND( '', #159, .T. );
#96 = CONICAL_SURFACE( '', #160, 31.5000000000000, 1.31179052760000 );
#97 = SURFACE_STYLE_USAGE( .BOTH., #161 );
#98 = FACE_BOUND( '', #162, .T. );
#99 = FACE_OUTER_BOUND( '', #163, .T. );
#100 = FACE_OUTER_BOUND( '', #164, .T. );
#101 = TOROIDAL_SURFACE( '', #165, 162.750000000000, 17.2500000000000 );
#102 = SURFACE_STYLE_USAGE( .BOTH., #166 );
#103 = FACE_OUTER_BOUND( '', #167, .T. );
#104 = CYLINDRICAL_SURFACE( '', #168, 14.0000000000000 );
#105 = SURFACE_STYLE_USAGE( .BOTH., #169 );
#106 = FACE_BOUND( '', #170, .T. );
#107 = FACE_OUTER_BOUND( '', #171, .T. );
#108 = CONICAL_SURFACE( '', #172, 159.500000000000, 0.636508215800000 );
#109 = SURFACE_STYLE_USAGE( .BOTH., #173 );
#110 = FACE_OUTER_BOUND( '', #174, .T. );
#111 = FACE_BOUND( '', #175, .T. );
#112 = PLANE( '', #176 );
#113 = SURFACE_STYLE_USAGE( .BOTH., #177 );
#114 = FACE_OUTER_BOUND( '', #178, .T. );
#115 = FACE_OUTER_BOUND( '', #179, .T. );
#116 = CYLINDRICAL_SURFACE( '', #180, 31.5000000000000 );
#117 = SURFACE_STYLE_USAGE( .BOTH., #181 );
#118 = FACE_OUTER_BOUND( '', #182, .T. );
#119 = PLANE( '', #183 );
#120 = SURFACE_STYLE_USAGE( .BOTH., #184 );
#121 = FACE_OUTER_BOUND( '', #185, .T. );
#122 = FACE_OUTER_BOUND( '', #186, .T. );
#123 = CYLINDRICAL_SURFACE( '', #187, 31.5000000000000 );
#124 = SURFACE_STYLE_USAGE( .BOTH., #188 );
#125 = FACE_BOUND( '', #189, .T. );
#126 = FACE_OUTER_BOUND( '', #190, .T. );
#127 = CONICAL_SURFACE( '', #191, 162.000000000000, 0.560437519600000 );
#128 = SURFACE_STYLE_USAGE( .BOTH., #192 );
#129 = FACE_OUTER_BOUND( '', #193, .T. );
#130 = FACE_BOUND( '', #194, .T. );
#131 = CONICAL_SURFACE( '', #195, 158.500000000000, 0.478830845400000 );
#132 = SURFACE_STYLE_USAGE( .BOTH., #196 );
#133 = FACE_OUTER_BOUND( '', #197, .T. );
#134 = PLANE( '', #198 );
#135 = SURFACE_STYLE_USAGE( .BOTH., #199 );
#136 = FACE_OUTER_BOUND( '', #200, .T. );
#137 = PLANE( '', #201 );
#138 = SURFACE_STYLE_USAGE( .BOTH., #202 );
#139 = FACE_BOUND( '', #203, .T. );
#140 = FACE_OUTER_BOUND( '', #204, .T. );
#141 = PLANE( '', #205 );
#142 = PRODUCT_CONTEXT( '', #25, 'mechanical' );
#143 = PRODUCT_DEFINITION_FORMATION_WITH_SPECIFIED_SOURCE( ' ', 'NONE', #68, .NOT_KNOWN. );
#144 = CLOSED_SHELL( '', ( #51, #55, #63, #47, #65, #67, #57, #39, #49, #59, #45, #61, #41, #43, #53 ) );
#145 = CARTESIAN_POINT( '', ( 0.000000000000000, 0.000000000000000, 0.000000000000000 ) );
#146 = DIRECTION( '', ( 0.000000000000000, 0.000000000000000, 1.00000000000000 ) );
#147 = DIRECTION( '', ( 1.00000000000000, 0.000000000000000, 0.000000000000000 ) );
#148 =  ( LENGTH_UNIT(  )NAMED_UNIT( #77 )SI_UNIT( .MILLI., .METRE. ) );
#149 = SURFACE_SIDE_STYLE( '', ( #207 ) );
#150 = EDGE_LOOP( '', ( #208 ) );
#151 = EDGE_LOOP( '', ( #209 ) );
#152 = AXIS2_PLACEMENT_3D( '', #210, #211, #212 );
#153 = SURFACE_SIDE_STYLE( '', ( #213 ) );
#154 = EDGE_LOOP( '', ( #214 ) );
#155 = EDGE_LOOP( '', ( #215 ) );
#156 = AXIS2_PLACEMENT_3D( '', #216, #217, #218 );
#157 = SURFACE_SIDE_STYLE( '', ( #219 ) );
#158 = EDGE_LOOP( '', ( #220 ) );
#159 = EDGE_LOOP( '', ( #221 ) );
#160 = AXIS2_PLACEMENT_3D( '', #222, #223, #224 );
#161 = SURFACE_SIDE_STYLE( '', ( #225 ) );
#162 = VERTEX_LOOP( '', #226 );
#163 = EDGE_LOOP( '', ( #227 ) );
#164 = EDGE_LOOP( '', ( #228 ) );
#165 = AXIS2_PLACEMENT_3D( '', #229, #230, #231 );
#166 = SURFACE_SIDE_STYLE( '', ( #232 ) );
#167 = EDGE_LOOP( '', ( #233, #234, #235, #236 ) );
#168 = AXIS2_PLACEMENT_3D( '', #237, #238, #239 );
#169 = SURFACE_SIDE_STYLE( '', ( #240 ) );
#170 = EDGE_LOOP( '', ( #241 ) );
#171 = EDGE_LOOP( '', ( #242 ) );
#172 = AXIS2_PLACEMENT_3D( '', #243, #244, #245 );
#173 = SURFACE_SIDE_STYLE( '', ( #246 ) );
#174 = EDGE_LOOP( '', ( #247 ) );
#175 = EDGE_LOOP( '', ( #248, #249, #250, #251 ) );
#176 = AXIS2_PLACEMENT_3D( '', #252, #253, #254 );
#177 = SURFACE_SIDE_STYLE( '', ( #255 ) );
#178 = EDGE_LOOP( '', ( #256 ) );
#179 = EDGE_LOOP( '', ( #257 ) );
#180 = AXIS2_PLACEMENT_3D( '', #258, #259, #260 );
#181 = SURFACE_SIDE_STYLE( '', ( #261 ) );
#182 = EDGE_LOOP( '', ( #262, #263, #264, #265 ) );
#183 = AXIS2_PLACEMENT_3D( '', #266, #267, #268 );
#184 = SURFACE_SIDE_STYLE( '', ( #269 ) );
#185 = EDGE_LOOP( '', ( #270 ) );
#186 = EDGE_LOOP( '', ( #271 ) );
#187 = AXIS2_PLACEMENT_3D( '', #272, #273, #274 );
#188 = SURFACE_SIDE_STYLE( '', ( #275 ) );
#189 = EDGE_LOOP( '', ( #276 ) );
#190 = EDGE_LOOP( '', ( #277 ) );
#191 = AXIS2_PLACEMENT_3D( '', #278, #279, #280 );
#192 = SURFACE_SIDE_STYLE( '', ( #281 ) );
#193 = EDGE_LOOP( '', ( #282 ) );
#194 = EDGE_LOOP( '', ( #283 ) );
#195 = AXIS2_PLACEMENT_3D( '', #284, #285, #286 );
#196 = SURFACE_SIDE_STYLE( '', ( #287 ) );
#197 = EDGE_LOOP( '', ( #288, #289, #290, #291 ) );
#198 = AXIS2_PLACEMENT_3D( '', #292, #293, #294 );
#199 = SURFACE_SIDE_STYLE( '', ( #295 ) );
#200 = EDGE_LOOP( '', ( #296, #297, #298, #299 ) );
#201 = AXIS2_PLACEMENT_3D( '', #300, #301, #302 );
#202 = SURFACE_SIDE_STYLE( '', ( #303 ) );
#203 = EDGE_LOOP( '', ( #304, #305, #306, #307 ) );
#204 = EDGE_LOOP( '', ( #308 ) );
#205 = AXIS2_PLACEMENT_3D( '', #309, #310, #311 );
#207 = SURFACE_STYLE_FILL_AREA( #312 );
#208 = ORIENTED_EDGE( '', *, *, #313, .F. );
#209 = ORIENTED_EDGE( '', *, *, #314, .T. );
#210 = CARTESIAN_POINT( '', ( 54.0000000000000, 0.000000000000000, 0.000000000000000 ) );
#211 = DIRECTION( '', ( 1.00000000000000, -0.000000000000000, 0.000000000000000 ) );
#212 = DIRECTION( '', ( 0.000000000000000, 0.000000000000000, -1.00000000000000 ) );
#213 = SURFACE_STYLE_FILL_AREA( #315 );
#214 = ORIENTED_EDGE( '', *, *, #316, .T. );
#215 = ORIENTED_EDGE( '', *, *, #317, .F. );
#216 = CARTESIAN_POINT( '', ( 54.4726417359203, 0.000000000000000, 0.000000000000000 ) );
#217 = DIRECTION( '', ( -1.00000000000000, 0.000000000000000, 0.000000000000000 ) );
#218 = DIRECTION( '', ( 0.000000000000000, 0.000000000000000, 1.00000000000000 ) );
#219 = SURFACE_STYLE_FILL_AREA( #318 );
#220 = ORIENTED_EDGE( '', *, *, #316, .F. );
#221 = ORIENTED_EDGE( '', *, *, #319, .T. );
#222 = CARTESIAN_POINT( '', ( 29.5000000000000, 0.000000000000000, 0.000000000000000 ) );
#223 = DIRECTION( '', ( 1.00000000000000, -0.000000000000000, 0.000000000000000 ) );
#224 = DIRECTION( '', ( 0.000000000000000, 0.000000000000000, -1.00000000000000 ) );
#225 = SURFACE_STYLE_FILL_AREA( #320 );
#226 = VERTEX_POINT( '', #321 );
#227 = ORIENTED_EDGE( '', *, *, #322, .T. );
#228 = ORIENTED_EDGE( '', *, *, #323, .F. );
#229 = CARTESIAN_POINT( '', ( 55.7500000000000, 0.000000000000000, 0.000000000000000 ) );
#230 = DIRECTION( '', ( -1.00000000000000, 0.000000000000000, 0.000000000000000 ) );
#231 = DIRECTION( '', ( 0.000000000000000, 0.000000000000000, 1.00000000000000 ) );
#232 = SURFACE_STYLE_FILL_AREA( #324 );
#233 = ORIENTED_EDGE( '', *, *, #325, .T. );
#234 = ORIENTED_EDGE( '', *, *, #326, .T. );
#235 = ORIENTED_EDGE( '', *, *, #327, .T. );
#236 = ORIENTED_EDGE( '', *, *, #328, .F. );
#237 = CARTESIAN_POINT( '', ( 52.5000000000000, 3.79470760369927E-16, 0.000000000000000 ) );
#238 = DIRECTION( '', ( 1.00000000000000, -0.000000000000000, -0.000000000000000 ) );
#239 = DIRECTION( '', ( 0.000000000000000, 0.000000000000000, 1.00000000000000 ) );
#240 = SURFACE_STYLE_FILL_AREA( #329 );
#241 = ORIENTED_EDGE( '', *, *, #314, .F. );
#242 = ORIENTED_EDGE( '', *, *, #330, .T. );
#243 = CARTESIAN_POINT( '', ( 42.5000000000000, 0.000000000000000, 0.000000000000000 ) );
#244 = DIRECTION( '', ( -1.00000000000000, -0.000000000000000, -0.000000000000000 ) );
#245 = DIRECTION( '', ( 0.000000000000000, 0.000000000000000, 1.00000000000000 ) );
#246 = SURFACE_STYLE_FILL_AREA( #331 );
#247 = ORIENTED_EDGE( '', *, *, #332, .F. );
#248 = ORIENTED_EDGE( '', *, *, #333, .F. );
#249 = ORIENTED_EDGE( '', *, *, #334, .F. );
#250 = ORIENTED_EDGE( '', *, *, #335, .F. );
#251 = ORIENTED_EDGE( '', *, *, #325, .F. );
#252 = CARTESIAN_POINT( '', ( 35.0000000000000, 0.000000000000000, 0.000000000000000 ) );
#253 = DIRECTION( '', ( -1.00000000000000, 0.000000000000000, 0.000000000000000 ) );
#254 = DIRECTION( '', ( 0.000000000000000, 0.000000000000000, 1.00000000000000 ) );
#255 = SURFACE_STYLE_FILL_AREA( #336 );
#256 = ORIENTED_EDGE( '', *, *, #319, .F. );
#257 = ORIENTED_EDGE( '', *, *, #332, .T. );
#258 = CARTESIAN_POINT( '', ( 0.000000000000000, 0.000000000000000, 0.000000000000000 ) );
#259 = DIRECTION( '', ( 1.00000000000000, -0.000000000000000, -0.000000000000000 ) );
#260 = DIRECTION( '', ( 0.000000000000000, 0.000000000000000, 1.00000000000000 ) );
#261 = SURFACE_STYLE_FILL_AREA( #337 );
#262 = ORIENTED_EDGE( '', *, *, #334, .T. );
#263 = ORIENTED_EDGE( '', *, *, #338, .T. );
#264 = ORIENTED_EDGE( '', *, *, #339, .F. );
#265 = ORIENTED_EDGE( '', *, *, #340, .F. );
#266 = CARTESIAN_POINT( '', ( 52.5000000000000, 17.3000000000000, -4.00000000000000 ) );
#267 = DIRECTION( '', ( 0.000000000000000, -1.00000000000000, 0.000000000000000 ) );
#268 = DIRECTION( '', ( 0.000000000000000, 0.000000000000000, -1.00000000000000 ) );
#269 = SURFACE_STYLE_FILL_AREA( #341 );
#270 = ORIENTED_EDGE( '', *, *, #342, .F. );
#271 = ORIENTED_EDGE( '', *, *, #313, .T. );
#272 = CARTESIAN_POINT( '', ( 0.000000000000000, 0.000000000000000, 0.000000000000000 ) );
#273 = DIRECTION( '', ( 1.00000000000000, -0.000000000000000, -0.000000000000000 ) );
#274 = DIRECTION( '', ( 0.000000000000000, 0.000000000000000, 1.00000000000000 ) );
#275 = SURFACE_STYLE_FILL_AREA( #343 );
#276 = ORIENTED_EDGE( '', *, *, #330, .F. );
#277 = ORIENTED_EDGE( '', *, *, #323, .T. );
#278 = CARTESIAN_POINT( '', ( 38.5163120603859, 0.000000000000000, 0.000000000000000 ) );
#279 = DIRECTION( '', ( -1.00000000000000, -0.000000000000000, -0.000000000000000 ) );
#280 = DIRECTION( '', ( 0.000000000000000, 0.000000000000000, 1.00000000000000 ) );
#281 = SURFACE_STYLE_FILL_AREA( #344 );
#282 = ORIENTED_EDGE( '', *, *, #322, .F. );
#283 = ORIENTED_EDGE( '', *, *, #317, .T. );
#284 = CARTESIAN_POINT( '', ( 69.0000000000000, 0.000000000000000, 0.000000000000000 ) );
#285 = DIRECTION( '', ( 1.00000000000000, -0.000000000000000, 0.000000000000000 ) );
#286 = DIRECTION( '', ( 0.000000000000000, 0.000000000000000, -1.00000000000000 ) );
#287 = SURFACE_STYLE_FILL_AREA( #345 );
#288 = ORIENTED_EDGE( '', *, *, #335, .T. );
#289 = ORIENTED_EDGE( '', *, *, #340, .T. );
#290 = ORIENTED_EDGE( '', *, *, #346, .F. );
#291 = ORIENTED_EDGE( '', *, *, #326, .F. );
#292 = CARTESIAN_POINT( '', ( 52.5000000000000, 13.4164078649987, -4.00000000000000 ) );
#293 = DIRECTION( '', ( 0.000000000000000, 0.000000000000000, 1.00000000000000 ) );
#294 = DIRECTION( '', ( 1.00000000000000, 0.000000000000000, -0.000000000000000 ) );
#295 = SURFACE_STYLE_FILL_AREA( #347 );
#296 = ORIENTED_EDGE( '', *, *, #333, .T. );
#297 = ORIENTED_EDGE( '', *, *, #328, .T. );
#298 = ORIENTED_EDGE( '', *, *, #348, .F. );
#299 = ORIENTED_EDGE( '', *, *, #338, .F. );
#300 = CARTESIAN_POINT( '', ( 52.5000000000000, 17.3000000000000, 4.00000000000001 ) );
#301 = DIRECTION( '', ( 0.000000000000000, 1.78672055733396E-15, -1.00000000000000 ) );
#302 = DIRECTION( '', ( 0.000000000000000, 1.00000000000000, 1.78672055733396E-15 ) );
#303 = SURFACE_STYLE_FILL_AREA( #349 );
#304 = ORIENTED_EDGE( '', *, *, #348, .T. );
#305 = ORIENTED_EDGE( '', *, *, #327, .F. );
#306 = ORIENTED_EDGE( '', *, *, #346, .T. );
#307 = ORIENTED_EDGE( '', *, *, #339, .T. );
#308 = ORIENTED_EDGE( '', *, *, #342, .T. );
#309 = CARTESIAN_POINT( '', ( 0.000000000000000, -31.5000000000000, 0.000000000000000 ) );
#310 = DIRECTION( '', ( 1.00000000000000, 0.000000000000000, 0.000000000000000 ) );
#311 = DIRECTION( '', ( 0.000000000000000, 0.000000000000000, -1.00000000000000 ) );
#312 = FILL_AREA_STYLE( '', ( #350 ) );
#313 = EDGE_CURVE( '', #351, #351, #352, .T. );
#314 = EDGE_CURVE( '', #353, #353, #354, .T. );
#315 = FILL_AREA_STYLE( '', ( #355 ) );
#316 = EDGE_CURVE( '', #356, #356, #357, .T. );
#317 = EDGE_CURVE( '', #358, #358, #359, .T. );
#318 = FILL_AREA_STYLE( '', ( #360 ) );
#319 = EDGE_CURVE( '', #361, #361, #362, .T. );
#320 = FILL_AREA_STYLE( '', ( #363 ) );
#321 = CARTESIAN_POINT( '', ( 55.7500000000000, 0.000000000000000, 180.000000000000 ) );
#322 = EDGE_CURVE( '', #364, #364, #365, .T. );
#323 = EDGE_CURVE( '', #366, #366, #367, .T. );
#324 = FILL_AREA_STYLE( '', ( #368 ) );
#325 = EDGE_CURVE( '', #369, #370, #371, .F. );
#326 = EDGE_CURVE( '', #370, #372, #373, .T. );
#327 = EDGE_CURVE( '', #372, #374, #375, .F. );
#328 = EDGE_CURVE( '', #369, #374, #376, .T. );
#329 = FILL_AREA_STYLE( '', ( #377 ) );
#330 = EDGE_CURVE( '', #378, #378, #379, .T. );
#331 = FILL_AREA_STYLE( '', ( #380 ) );
#332 = EDGE_CURVE( '', #381, #381, #382, .T. );
#333 = EDGE_CURVE( '', #383, #369, #384, .T. );
#334 = EDGE_CURVE( '', #385, #383, #386, .T. );
#335 = EDGE_CURVE( '', #370, #385, #387, .T. );
#336 = FILL_AREA_STYLE( '', ( #388 ) );
#337 = FILL_AREA_STYLE( '', ( #389 ) );
#338 = EDGE_CURVE( '', #383, #390, #391, .T. );
#339 = EDGE_CURVE( '', #392, #390, #393, .T. );
#340 = EDGE_CURVE( '', #385, #392, #394, .T. );
#341 = FILL_AREA_STYLE( '', ( #395 ) );
#342 = EDGE_CURVE( '', #396, #396, #397, .T. );
#343 = FILL_AREA_STYLE( '', ( #398 ) );
#344 = FILL_AREA_STYLE( '', ( #399 ) );
#345 = FILL_AREA_STYLE( '', ( #400 ) );
#346 = EDGE_CURVE( '', #372, #392, #401, .T. );
#347 = FILL_AREA_STYLE( '', ( #402 ) );
#348 = EDGE_CURVE( '', #390, #374, #403, .T. );
#349 = FILL_AREA_STYLE( '', ( #404 ) );
#350 = FILL_AREA_STYLE_COLOUR( '', #405 );
#351 = VERTEX_POINT( '', #406 );
#352 = CIRCLE( '', #407, 31.5000000000000 );
#353 = VERTEX_POINT( '', #408 );
#354 = CIRCLE( '', #409, 151.000000000000 );
#355 = FILL_AREA_STYLE_COLOUR( '', #410 );
#356 = VERTEX_POINT( '', #411 );
#357 = CIRCLE( '', #412, 148.500000000000 );
#358 = VERTEX_POINT( '', #413 );
#359 = CIRCLE( '', #414, 158.500000000000 );
#360 = FILL_AREA_STYLE_COLOUR( '', #415 );
#361 = VERTEX_POINT( '', #416 );
#362 = CIRCLE( '', #417, 31.5000000000000 );
#363 = FILL_AREA_STYLE_COLOUR( '', #418 );
#364 = VERTEX_POINT( '', #419 );
#365 = CIRCLE( '', #420, 160.500000000000 );
#366 = VERTEX_POINT( '', #421 );
#367 = CIRCLE( '', #422, 162.000000000000 );
#368 = FILL_AREA_STYLE_COLOUR( '', #423 );
#369 = VERTEX_POINT( '', #424 );
#370 = VERTEX_POINT( '', #425 );
#371 = CIRCLE( '', #426, 14.0000000000000 );
#372 = VERTEX_POINT( '', #427 );
#373 = LINE( '', #428, #429 );
#374 = VERTEX_POINT( '', #430 );
#375 = CIRCLE( '', #431, 14.0000000000000 );
#376 = LINE( '', #432, #433 );
#377 = FILL_AREA_STYLE_COLOUR( '', #434 );
#378 = VERTEX_POINT( '', #435 );
#379 = CIRCLE( '', #436, 159.500000000000 );
#380 = FILL_AREA_STYLE_COLOUR( '', #437 );
#381 = VERTEX_POINT( '', #438 );
#382 = CIRCLE( '', #439, 31.5000000000000 );
#383 = VERTEX_POINT( '', #440 );
#384 = LINE( '', #441, #442 );
#385 = VERTEX_POINT( '', #443 );
#386 = LINE( '', #444, #445 );
#387 = LINE( '', #446, #447 );
#388 = FILL_AREA_STYLE_COLOUR( '', #448 );
#389 = FILL_AREA_STYLE_COLOUR( '', #449 );
#390 = VERTEX_POINT( '', #450 );
#391 = LINE( '', #451, #452 );
#392 = VERTEX_POINT( '', #453 );
#393 = LINE( '', #454, #455 );
#394 = LINE( '', #456, #457 );
#395 = FILL_AREA_STYLE_COLOUR( '', #458 );
#396 = VERTEX_POINT( '', #459 );
#397 = CIRCLE( '', #460, 31.5000000000000 );
#398 = FILL_AREA_STYLE_COLOUR( '', #461 );
#399 = FILL_AREA_STYLE_COLOUR( '', #462 );
#400 = FILL_AREA_STYLE_COLOUR( '', #463 );
#401 = LINE( '', #464, #465 );
#402 = FILL_AREA_STYLE_COLOUR( '', #466 );
#403 = LINE( '', #467, #468 );
#404 = FILL_AREA_STYLE_COLOUR( '', #469 );
#405 = COLOUR_RGB( '', 0.689999997600000, 0.689999997600000, 0.689999997600000 );
#406 = CARTESIAN_POINT( '', ( 19.5000000000000, 0.000000000000000, 31.5000000000000 ) );
#407 = AXIS2_PLACEMENT_3D( '', #470, #471, #472 );
#408 = CARTESIAN_POINT( '', ( 54.0000000000000, 0.000000000000000, 151.000000000000 ) );
#409 = AXIS2_PLACEMENT_3D( '', #473, #474, #475 );
#410 = COLOUR_RGB( '', 0.689999997600000, 0.689999997600000, 0.689999997600000 );
#411 = CARTESIAN_POINT( '', ( 60.5000000000000, 0.000000000000000, 148.500000000000 ) );
#412 = AXIS2_PLACEMENT_3D( '', #476, #477, #478 );
#413 = CARTESIAN_POINT( '', ( 69.0000000000000, 0.000000000000000, 158.500000000000 ) );
#414 = AXIS2_PLACEMENT_3D( '', #479, #480, #481 );
#415 = COLOUR_RGB( '', 0.689999997600000, 0.689999997600000, 0.689999997600000 );
#416 = CARTESIAN_POINT( '', ( 29.5000000000000, 0.000000000000000, 31.5000000000000 ) );
#417 = AXIS2_PLACEMENT_3D( '', #482, #483, #484 );
#418 = COLOUR_RGB( '', 0.689999997600000, 0.689999997600000, 0.689999997600000 );
#419 = CARTESIAN_POINT( '', ( 72.8526313764871, 0.000000000000000, 160.500000000000 ) );
#420 = AXIS2_PLACEMENT_3D( '', #485, #486, #487 );
#421 = CARTESIAN_POINT( '', ( 38.5163120603859, 0.000000000000000, 162.000000000000 ) );
#422 = AXIS2_PLACEMENT_3D( '', #488, #489, #490 );
#423 = COLOUR_RGB( '', 0.689999997600000, 0.689999997600000, 0.689999997600000 );
#424 = CARTESIAN_POINT( '', ( 35.0000000000000, 13.4164078649987, 4.00000000000000 ) );
#425 = CARTESIAN_POINT( '', ( 35.0000000000000, 13.4164078649987, -4.00000000000001 ) );
#426 = AXIS2_PLACEMENT_3D( '', #491, #492, #493 );
#427 = CARTESIAN_POINT( '', ( 0.000000000000000, 13.4164078649987, -4.00000000000001 ) );
#428 = CARTESIAN_POINT( '', ( 52.5000000000000, 13.4164078649987, -4.00000000000001 ) );
#429 = VECTOR( '', #494, 1000.00000000000 );
#430 = CARTESIAN_POINT( '', ( 0.000000000000000, 13.4164078649987, 4.00000000000000 ) );
#431 = AXIS2_PLACEMENT_3D( '', #495, #496, #497 );
#432 = CARTESIAN_POINT( '', ( 52.5000000000000, 13.4164078649987, 4.00000000000000 ) );
#433 = VECTOR( '', #498, 1000.00000000000 );
#434 = COLOUR_RGB( '', 0.689999997600000, 0.689999997600000, 0.689999997600000 );
#435 = CARTESIAN_POINT( '', ( 42.5000000000000, 0.000000000000000, 159.500000000000 ) );
#436 = AXIS2_PLACEMENT_3D( '', #499, #500, #501 );
#437 = COLOUR_RGB( '', 0.689999997600000, 0.689999997600000, 0.689999997600000 );
#438 = CARTESIAN_POINT( '', ( 35.0000000000000, 0.000000000000000, 31.5000000000000 ) );
#439 = AXIS2_PLACEMENT_3D( '', #502, #503, #504 );
#440 = CARTESIAN_POINT( '', ( 35.0000000000000, 17.3000000000000, 4.00000000000001 ) );
#441 = CARTESIAN_POINT( '', ( 35.0000000000000, -7.14688222933579E-15, 3.99999999999998 ) );
#442 = VECTOR( '', #505, 1000.00000000000 );
#443 = CARTESIAN_POINT( '', ( 35.0000000000000, 17.3000000000000, -4.00000000000000 ) );
#444 = CARTESIAN_POINT( '', ( 35.0000000000000, 17.3000000000000, 0.000000000000000 ) );
#445 = VECTOR( '', #506, 1000.00000000000 );
#446 = CARTESIAN_POINT( '', ( 35.0000000000000, 0.000000000000000, -4.00000000000000 ) );
#447 = VECTOR( '', #507, 1000.00000000000 );
#448 = COLOUR_RGB( '', 0.689999997600000, 0.689999997600000, 0.689999997600000 );
#449 = COLOUR_RGB( '', 0.689999997600000, 0.689999997600000, 0.689999997600000 );
#450 = CARTESIAN_POINT( '', ( 0.000000000000000, 17.3000000000000, 4.00000000000001 ) );
#451 = CARTESIAN_POINT( '', ( 52.5000000000000, 17.3000000000000, 4.00000000000001 ) );
#452 = VECTOR( '', #508, 1000.00000000000 );
#453 = CARTESIAN_POINT( '', ( 0.000000000000000, 17.3000000000000, -4.00000000000000 ) );
#454 = CARTESIAN_POINT( '', ( 0.000000000000000, 17.3000000000000, -4.00000000000000 ) );
#455 = VECTOR( '', #509, 1000.00000000000 );
#456 = CARTESIAN_POINT( '', ( 52.5000000000000, 17.3000000000000, -4.00000000000000 ) );
#457 = VECTOR( '', #510, 1000.00000000000 );
#458 = COLOUR_RGB( '', 0.689999997600000, 0.689999997600000, 0.689999997600000 );
#459 = CARTESIAN_POINT( '', ( 0.000000000000000, 0.000000000000000, 31.5000000000000 ) );
#460 = AXIS2_PLACEMENT_3D( '', #511, #512, #513 );
#461 = COLOUR_RGB( '', 0.689999997600000, 0.689999997600000, 0.689999997600000 );
#462 = COLOUR_RGB( '', 0.689999997600000, 0.689999997600000, 0.689999997600000 );
#463 = COLOUR_RGB( '', 0.689999997600000, 0.689999997600000, 0.689999997600000 );
#464 = CARTESIAN_POINT( '', ( 0.000000000000000, 13.4164078649987, -4.00000000000000 ) );
#465 = VECTOR( '', #514, 1000.00000000000 );
#466 = COLOUR_RGB( '', 0.689999997600000, 0.689999997600000, 0.689999997600000 );
#467 = CARTESIAN_POINT( '', ( 0.000000000000000, 17.3000000000000, 4.00000000000001 ) );
#468 = VECTOR( '', #515, 1000.00000000000 );
#469 = COLOUR_RGB( '', 0.689999997600000, 0.689999997600000, 0.689999997600000 );
#470 = CARTESIAN_POINT( '', ( 19.5000000000000, 0.000000000000000, 0.000000000000000 ) );
#471 = DIRECTION( '', ( -1.00000000000000, 0.000000000000000, 0.000000000000000 ) );
#472 = DIRECTION( '', ( 0.000000000000000, 0.000000000000000, 1.00000000000000 ) );
#473 = CARTESIAN_POINT( '', ( 54.0000000000000, 0.000000000000000, 0.000000000000000 ) );
#474 = DIRECTION( '', ( -1.00000000000000, 0.000000000000000, 0.000000000000000 ) );
#475 = DIRECTION( '', ( 0.000000000000000, 0.000000000000000, 1.00000000000000 ) );
#476 = CARTESIAN_POINT( '', ( 60.5000000000000, 0.000000000000000, 0.000000000000000 ) );
#477 = DIRECTION( '', ( -1.00000000000000, 0.000000000000000, 0.000000000000000 ) );
#478 = DIRECTION( '', ( 0.000000000000000, 0.000000000000000, 1.00000000000000 ) );
#479 = CARTESIAN_POINT( '', ( 69.0000000000000, 0.000000000000000, 0.000000000000000 ) );
#480 = DIRECTION( '', ( -1.00000000000000, 0.000000000000000, 0.000000000000000 ) );
#481 = DIRECTION( '', ( 0.000000000000000, 0.000000000000000, 1.00000000000000 ) );
#482 = CARTESIAN_POINT( '', ( 29.5000000000000, 0.000000000000000, 0.000000000000000 ) );
#483 = DIRECTION( '', ( -1.00000000000000, 0.000000000000000, 0.000000000000000 ) );
#484 = DIRECTION( '', ( 0.000000000000000, 0.000000000000000, 1.00000000000000 ) );
#485 = CARTESIAN_POINT( '', ( 72.8526313764871, 0.000000000000000, 0.000000000000000 ) );
#486 = DIRECTION( '', ( -1.00000000000000, 0.000000000000000, 0.000000000000000 ) );
#487 = DIRECTION( '', ( 0.000000000000000, 0.000000000000000, 1.00000000000000 ) );
#488 = CARTESIAN_POINT( '', ( 38.5163120603859, 0.000000000000000, 0.000000000000000 ) );
#489 = DIRECTION( '', ( -1.00000000000000, 0.000000000000000, 0.000000000000000 ) );
#490 = DIRECTION( '', ( 0.000000000000000, 0.000000000000000, 1.00000000000000 ) );
#491 = CARTESIAN_POINT( '', ( 35.0000000000000, 3.79470760369927E-16, 0.000000000000000 ) );
#492 = DIRECTION( '', ( -1.00000000000000, 0.000000000000000, 0.000000000000000 ) );
#493 = DIRECTION( '', ( 0.000000000000000, 0.000000000000000, 1.00000000000000 ) );
#494 = DIRECTION( '', ( -1.00000000000000, -0.000000000000000, -0.000000000000000 ) );
#495 = CARTESIAN_POINT( '', ( 0.000000000000000, 3.79470760369927E-16, 0.000000000000000 ) );
#496 = DIRECTION( '', ( 1.00000000000000, 0.000000000000000, 0.000000000000000 ) );
#497 = DIRECTION( '', ( 0.000000000000000, 0.000000000000000, -1.00000000000000 ) );
#498 = DIRECTION( '', ( -1.00000000000000, -0.000000000000000, -0.000000000000000 ) );
#499 = CARTESIAN_POINT( '', ( 42.5000000000000, 0.000000000000000, 0.000000000000000 ) );
#500 = DIRECTION( '', ( -1.00000000000000, 0.000000000000000, 0.000000000000000 ) );
#501 = DIRECTION( '', ( 0.000000000000000, 0.000000000000000, 1.00000000000000 ) );
#502 = CARTESIAN_POINT( '', ( 35.0000000000000, 0.000000000000000, 0.000000000000000 ) );
#503 = DIRECTION( '', ( -1.00000000000000, 0.000000000000000, 0.000000000000000 ) );
#504 = DIRECTION( '', ( 0.000000000000000, 0.000000000000000, 1.00000000000000 ) );
#505 = DIRECTION( '', ( 0.000000000000000, -1.00000000000000, -1.78672055733396E-15 ) );
#506 = DIRECTION( '', ( 0.000000000000000, 0.000000000000000, 1.00000000000000 ) );
#507 = DIRECTION( '', ( 0.000000000000000, 1.00000000000000, 0.000000000000000 ) );
#508 = DIRECTION( '', ( -1.00000000000000, -0.000000000000000, -0.000000000000000 ) );
#509 = DIRECTION( '', ( 0.000000000000000, 0.000000000000000, 1.00000000000000 ) );
#510 = DIRECTION( '', ( -1.00000000000000, -0.000000000000000, -0.000000000000000 ) );
#511 = CARTESIAN_POINT( '', ( 0.000000000000000, 0.000000000000000, 0.000000000000000 ) );
#512 = DIRECTION( '', ( -1.00000000000000, 0.000000000000000, 0.000000000000000 ) );
#513 = DIRECTION( '', ( 0.000000000000000, 0.000000000000000, 1.00000000000000 ) );
#514 = DIRECTION( '', ( 0.000000000000000, 1.00000000000000, 0.000000000000000 ) );
#515 = DIRECTION( '', ( 0.000000000000000, -1.00000000000000, -1.78672055733396E-15 ) );
ENDSEC;
END-ISO-10303-21;
