ISO-10303-21;
HEADER;
FILE_DESCRIPTION( ( 'STEP AP214' ), '1' );
FILE_NAME( '//goodhand-server/Shared Folders/GoodHand Data/Kipp CAD/K0334/K0335.206_0.stp', '2020-12-03T09:01:22', ( '' ), ( '' ), ' ', 'PARTsolutions', ' ' );
FILE_SCHEMA( ( 'AUTOMOTIVE_DESIGN { 1 0 10303 214 1 1 1 1 }' ) );
ENDSEC;
DATA;
#1 = MECHANICAL_DESIGN_GEOMETRIC_PRESENTATION_REPRESENTATION( ' ', ( #10, #11, #12, #13, #14, #15, #16, #17, #18 ), #6 );
#2 = PRODUCT_DEFINITION_CONTEXT( '', #19, 'design' );
#3 = APPLICATION_PROTOCOL_DEFINITION( 'international standard', 'automotive_design', 2001, #19 );
#4 = PRODUCT_CATEGORY_RELATIONSHIP( 'NONE', 'NONE', #20, #21 );
#5 = SHAPE_DEFINITION_REPRESENTATION( #22, #23 );
#6 =  ( GEOMETRIC_REPRESENTATION_CONTEXT( 3 )GLOBAL_UNCERTAINTY_ASSIGNED_CONTEXT( ( #26 ) )GLOBAL_UNIT_ASSIGNED_CONTEXT( ( #28, #29, #30 ) )REPRESENTATION_CONTEXT( 'NONE', 'WORKSPACE' ) );
#10 = STYLED_ITEM( '', ( #32 ), #33 );
#11 = STYLED_ITEM( '', ( #34 ), #35 );
#12 = STYLED_ITEM( '', ( #36 ), #37 );
#13 = STYLED_ITEM( '', ( #38 ), #39 );
#14 = STYLED_ITEM( '', ( #40 ), #41 );
#15 = STYLED_ITEM( '', ( #42 ), #43 );
#16 = STYLED_ITEM( '', ( #44 ), #45 );
#17 = STYLED_ITEM( '', ( #46 ), #47 );
#18 = STYLED_ITEM( '', ( #48 ), #49 );
#19 = APPLICATION_CONTEXT( 'core data for automotive mechanical design processes' );
#20 = PRODUCT_CATEGORY( 'part', 'NONE' );
#21 = PRODUCT_RELATED_PRODUCT_CATEGORY( 'detail', ' ', ( #50 ) );
#22 = PRODUCT_DEFINITION_SHAPE( 'NONE', 'NONE', #51 );
#23 = ADVANCED_BREP_SHAPE_REPRESENTATION( '_K0335.206_0', ( #52, #53 ), #6 );
#26 = UNCERTAINTY_MEASURE_WITH_UNIT( LENGTH_MEASURE( 0.00100000000000000 ), #28, '', '' );
#28 =  ( CONVERSION_BASED_UNIT( 'MILLIMETRE', #56 )LENGTH_UNIT(  )NAMED_UNIT( #59 ) );
#29 =  ( NAMED_UNIT( #61 )PLANE_ANGLE_UNIT(  )SI_UNIT( $, .RADIAN. ) );
#30 =  ( NAMED_UNIT( #61 )SI_UNIT( $, .STERADIAN. )SOLID_ANGLE_UNIT(  ) );
#32 = PRESENTATION_STYLE_ASSIGNMENT( ( #67 ) );
#33 = ADVANCED_FACE( '', ( #68, #69 ), #70, .T. );
#34 = PRESENTATION_STYLE_ASSIGNMENT( ( #71 ) );
#35 = ADVANCED_FACE( '', ( #72, #73 ), #74, .T. );
#36 = PRESENTATION_STYLE_ASSIGNMENT( ( #75 ) );
#37 = ADVANCED_FACE( '', ( #76, #77 ), #78, .T. );
#38 = PRESENTATION_STYLE_ASSIGNMENT( ( #79 ) );
#39 = ADVANCED_FACE( '', ( #80, #81 ), #82, .T. );
#40 = PRESENTATION_STYLE_ASSIGNMENT( ( #83 ) );
#41 = ADVANCED_FACE( '', ( #84 ), #85, .F. );
#42 = PRESENTATION_STYLE_ASSIGNMENT( ( #86 ) );
#43 = ADVANCED_FACE( '', ( #87 ), #88, .F. );
#44 = PRESENTATION_STYLE_ASSIGNMENT( ( #89 ) );
#45 = ADVANCED_FACE( '', ( #90, #91 ), #92, .F. );
#46 = PRESENTATION_STYLE_ASSIGNMENT( ( #93 ) );
#47 = ADVANCED_FACE( '', ( #94, #95 ), #96, .F. );
#48 = PRESENTATION_STYLE_ASSIGNMENT( ( #97 ) );
#49 = ADVANCED_FACE( '', ( #98, #99 ), #100, .F. );
#50 = PRODUCT( '_K0335.206_0', '_K0335.206_0', 'PART-_K0335.206_0-DESC', ( #101 ) );
#51 = PRODUCT_DEFINITION( 'NONE', 'NONE', #102, #2 );
#52 = BREP_WITH_VOIDS( '_K0335.206_0', #103, ( #104 ) );
#53 = AXIS2_PLACEMENT_3D( '', #105, #106, #107 );
#56 = LENGTH_MEASURE_WITH_UNIT( LENGTH_MEASURE( 1.00000000000000 ), #108 );
#59 = DIMENSIONAL_EXPONENTS( 1.00000000000000, 0.000000000000000, 0.000000000000000, 0.000000000000000, 0.000000000000000, 0.000000000000000, 0.000000000000000 );
#61 = DIMENSIONAL_EXPONENTS( 0.000000000000000, 0.000000000000000, 0.000000000000000, 0.000000000000000, 0.000000000000000, 0.000000000000000, 0.000000000000000 );
#67 = SURFACE_STYLE_USAGE( .BOTH., #109 );
#68 = FACE_OUTER_BOUND( '', #110, .T. );
#69 = FACE_BOUND( '', #111, .T. );
#70 = CONICAL_SURFACE( '', #112, 2.59585481160000, 0.523598775600000 );
#71 = SURFACE_STYLE_USAGE( .BOTH., #113 );
#72 = FACE_BOUND( '', #114, .T. );
#73 = FACE_OUTER_BOUND( '', #115, .T. );
#74 = SPHERICAL_SURFACE( '', #116, 2.50000000000000 );
#75 = SURFACE_STYLE_USAGE( .BOTH., #117 );
#76 = FACE_BOUND( '', #118, .T. );
#77 = FACE_OUTER_BOUND( '', #119, .T. );
#78 = SPHERICAL_SURFACE( '', #120, 2.50000000000000 );
#79 = SURFACE_STYLE_USAGE( .BOTH., #121 );
#80 = FACE_OUTER_BOUND( '', #122, .T. );
#81 = FACE_OUTER_BOUND( '', #123, .T. );
#82 = CYLINDRICAL_SURFACE( '', #124, 3.00000000000000 );
#83 = SURFACE_STYLE_USAGE( .BOTH., #125 );
#84 = FACE_OUTER_BOUND( '', #126, .T. );
#85 = PLANE( '', #127 );
#86 = SURFACE_STYLE_USAGE( .BOTH., #128 );
#87 = FACE_OUTER_BOUND( '', #129, .T. );
#88 = PLANE( '', #130 );
#89 = SURFACE_STYLE_USAGE( .BOTH., #131 );
#90 = FACE_OUTER_BOUND( '', #132, .T. );
#91 = FACE_OUTER_BOUND( '', #133, .T. );
#92 = CYLINDRICAL_SURFACE( '', #134, 2.49900000000000 );
#93 = SURFACE_STYLE_USAGE( .BOTH., #135 );
#94 = FACE_BOUND( '', #136, .T. );
#95 = FACE_OUTER_BOUND( '', #137, .T. );
#96 = PLANE( '', #138 );
#97 = SURFACE_STYLE_USAGE( .BOTH., #139 );
#98 = FACE_OUTER_BOUND( '', #140, .T. );
#99 = FACE_OUTER_BOUND( '', #141, .T. );
#100 = CYLINDRICAL_SURFACE( '', #142, 2.49900000000000 );
#101 = PRODUCT_CONTEXT( '', #19, 'mechanical' );
#102 = PRODUCT_DEFINITION_FORMATION_WITH_SPECIFIED_SOURCE( ' ', 'NONE', #50, .NOT_KNOWN. );
#103 = CLOSED_SHELL( '', ( #49, #41, #47, #39, #33, #37 ) );
#104 = ORIENTED_CLOSED_SHELL( '', *, #143, .T. );
#105 = CARTESIAN_POINT( '', ( 0.000000000000000, 0.000000000000000, 0.000000000000000 ) );
#106 = DIRECTION( '', ( 0.000000000000000, 0.000000000000000, 1.00000000000000 ) );
#107 = DIRECTION( '', ( 1.00000000000000, 0.000000000000000, 0.000000000000000 ) );
#108 =  ( LENGTH_UNIT(  )NAMED_UNIT( #59 )SI_UNIT( .MILLI., .METRE. ) );
#109 = SURFACE_SIDE_STYLE( '', ( #145 ) );
#110 = EDGE_LOOP( '', ( #146 ) );
#111 = EDGE_LOOP( '', ( #147 ) );
#112 = AXIS2_PLACEMENT_3D( '', #148, #149, #150 );
#113 = SURFACE_SIDE_STYLE( '', ( #151 ) );
#114 = VERTEX_LOOP( '', #152 );
#115 = EDGE_LOOP( '', ( #153 ) );
#116 = AXIS2_PLACEMENT_3D( '', #154, #155, #156 );
#117 = SURFACE_SIDE_STYLE( '', ( #157 ) );
#118 = VERTEX_LOOP( '', #158 );
#119 = EDGE_LOOP( '', ( #159 ) );
#120 = AXIS2_PLACEMENT_3D( '', #160, #161, #162 );
#121 = SURFACE_SIDE_STYLE( '', ( #163 ) );
#122 = EDGE_LOOP( '', ( #164 ) );
#123 = EDGE_LOOP( '', ( #165 ) );
#124 = AXIS2_PLACEMENT_3D( '', #166, #167, #168 );
#125 = SURFACE_SIDE_STYLE( '', ( #169 ) );
#126 = EDGE_LOOP( '', ( #170 ) );
#127 = AXIS2_PLACEMENT_3D( '', #171, #172, #173 );
#128 = SURFACE_SIDE_STYLE( '', ( #174 ) );
#129 = EDGE_LOOP( '', ( #175 ) );
#130 = AXIS2_PLACEMENT_3D( '', #176, #177, #178 );
#131 = SURFACE_SIDE_STYLE( '', ( #179 ) );
#132 = EDGE_LOOP( '', ( #180 ) );
#133 = EDGE_LOOP( '', ( #181 ) );
#134 = AXIS2_PLACEMENT_3D( '', #182, #183, #184 );
#135 = SURFACE_SIDE_STYLE( '', ( #185 ) );
#136 = EDGE_LOOP( '', ( #186 ) );
#137 = EDGE_LOOP( '', ( #187 ) );
#138 = AXIS2_PLACEMENT_3D( '', #188, #189, #190 );
#139 = SURFACE_SIDE_STYLE( '', ( #191 ) );
#140 = EDGE_LOOP( '', ( #192 ) );
#141 = EDGE_LOOP( '', ( #193 ) );
#142 = AXIS2_PLACEMENT_3D( '', #194, #195, #196 );
#143 = CLOSED_SHELL( '', ( #45, #35, #43 ) );
#145 = SURFACE_STYLE_FILL_AREA( #197 );
#146 = ORIENTED_EDGE( '', *, *, #198, .F. );
#147 = ORIENTED_EDGE( '', *, *, #199, .T. );
#148 = CARTESIAN_POINT( '', ( 0.000000000000000, 0.000000000000000, 0.000000000000000 ) );
#149 = DIRECTION( '', ( 1.00000000000000, -0.000000000000000, -0.000000000000000 ) );
#150 = DIRECTION( '', ( -0.000000000000000, 0.000000000000000, -1.00000000000000 ) );
#151 = SURFACE_STYLE_FILL_AREA( #200 );
#152 = VERTEX_POINT( '', #201 );
#153 = ORIENTED_EDGE( '', *, *, #202, .F. );
#154 = CARTESIAN_POINT( '', ( 11.5000000000000, 0.000000000000000, 0.000000000000000 ) );
#155 = DIRECTION( '', ( 1.00000000000000, 0.000000000000000, 0.000000000000000 ) );
#156 = DIRECTION( '', ( 0.000000000000000, -1.00000000000000, 0.000000000000000 ) );
#157 = SURFACE_STYLE_FILL_AREA( #203 );
#158 = VERTEX_POINT( '', #204 );
#159 = ORIENTED_EDGE( '', *, *, #205, .F. );
#160 = CARTESIAN_POINT( '', ( 11.5000000000000, 0.000000000000000, 0.000000000000000 ) );
#161 = DIRECTION( '', ( 1.00000000000000, 0.000000000000000, 0.000000000000000 ) );
#162 = DIRECTION( '', ( 0.000000000000000, -1.00000000000000, 0.000000000000000 ) );
#163 = SURFACE_STYLE_FILL_AREA( #206 );
#164 = ORIENTED_EDGE( '', *, *, #207, .F. );
#165 = ORIENTED_EDGE( '', *, *, #198, .T. );
#166 = CARTESIAN_POINT( '', ( 7.00000000000000, 0.000000000000000, 0.000000000000000 ) );
#167 = DIRECTION( '', ( -1.00000000000000, -0.000000000000000, 0.000000000000000 ) );
#168 = DIRECTION( '', ( -0.000000000000000, 0.000000000000000, -1.00000000000000 ) );
#169 = SURFACE_STYLE_FILL_AREA( #208 );
#170 = ORIENTED_EDGE( '', *, *, #199, .F. );
#171 = CARTESIAN_POINT( '', ( 0.000000000000000, 0.000000000000000, 0.000000000000000 ) );
#172 = DIRECTION( '', ( 1.00000000000000, 0.000000000000000, -0.000000000000000 ) );
#173 = DIRECTION( '', ( -0.000000000000000, 0.000000000000000, -1.00000000000000 ) );
#174 = SURFACE_STYLE_FILL_AREA( #209 );
#175 = ORIENTED_EDGE( '', *, *, #210, .T. );
#176 = CARTESIAN_POINT( '', ( 7.00000000000000, 2.49900000000000, 0.000000000000000 ) );
#177 = DIRECTION( '', ( -1.00000000000000, 0.000000000000000, 0.000000000000000 ) );
#178 = DIRECTION( '', ( 0.000000000000000, 0.000000000000000, 1.00000000000000 ) );
#179 = SURFACE_STYLE_FILL_AREA( #211 );
#180 = ORIENTED_EDGE( '', *, *, #210, .F. );
#181 = ORIENTED_EDGE( '', *, *, #202, .T. );
#182 = CARTESIAN_POINT( '', ( 7.00000000000000, 0.000000000000000, 0.000000000000000 ) );
#183 = DIRECTION( '', ( -1.00000000000000, -0.000000000000000, 0.000000000000000 ) );
#184 = DIRECTION( '', ( -0.000000000000000, 0.000000000000000, -1.00000000000000 ) );
#185 = SURFACE_STYLE_FILL_AREA( #212 );
#186 = ORIENTED_EDGE( '', *, *, #213, .F. );
#187 = ORIENTED_EDGE( '', *, *, #207, .T. );
#188 = CARTESIAN_POINT( '', ( 14.0000000000000, 3.00000000000000, 0.000000000000000 ) );
#189 = DIRECTION( '', ( -1.00000000000000, 0.000000000000000, 0.000000000000000 ) );
#190 = DIRECTION( '', ( 0.000000000000000, 0.000000000000000, 1.00000000000000 ) );
#191 = SURFACE_STYLE_FILL_AREA( #214 );
#192 = ORIENTED_EDGE( '', *, *, #205, .T. );
#193 = ORIENTED_EDGE( '', *, *, #213, .T. );
#194 = CARTESIAN_POINT( '', ( 7.00000000000000, 0.000000000000000, 0.000000000000000 ) );
#195 = DIRECTION( '', ( -1.00000000000000, -0.000000000000000, 0.000000000000000 ) );
#196 = DIRECTION( '', ( -0.000000000000000, 0.000000000000000, -1.00000000000000 ) );
#197 = FILL_AREA_STYLE( '', ( #215 ) );
#198 = EDGE_CURVE( '', #216, #216, #217, .T. );
#199 = EDGE_CURVE( '', #218, #218, #219, .T. );
#200 = FILL_AREA_STYLE( '', ( #220 ) );
#201 = CARTESIAN_POINT( '', ( 9.00000000000000, -1.53080849893419E-16, 0.000000000000000 ) );
#202 = EDGE_CURVE( '', #221, #221, #222, .T. );
#203 = FILL_AREA_STYLE( '', ( #223 ) );
#204 = CARTESIAN_POINT( '', ( 14.0000000000000, -1.53080849893419E-16, 0.000000000000000 ) );
#205 = EDGE_CURVE( '', #224, #224, #225, .T. );
#206 = FILL_AREA_STYLE( '', ( #226 ) );
#207 = EDGE_CURVE( '', #227, #227, #228, .T. );
#208 = FILL_AREA_STYLE( '', ( #229 ) );
#209 = FILL_AREA_STYLE( '', ( #230 ) );
#210 = EDGE_CURVE( '', #231, #231, #232, .T. );
#211 = FILL_AREA_STYLE( '', ( #233 ) );
#212 = FILL_AREA_STYLE( '', ( #234 ) );
#213 = EDGE_CURVE( '', #235, #235, #236, .T. );
#214 = FILL_AREA_STYLE( '', ( #237 ) );
#215 = FILL_AREA_STYLE_COLOUR( '', #238 );
#216 = VERTEX_POINT( '', #239 );
#217 = CIRCLE( '', #240, 3.00000000000000 );
#218 = VERTEX_POINT( '', #241 );
#219 = CIRCLE( '', #242, 2.59585481160000 );
#220 = FILL_AREA_STYLE_COLOUR( '', #243 );
#221 = VERTEX_POINT( '', #244 );
#222 = CIRCLE( '', #245, 2.49900000000000 );
#223 = FILL_AREA_STYLE_COLOUR( '', #246 );
#224 = VERTEX_POINT( '', #247 );
#225 = CIRCLE( '', #248, 2.49900000000000 );
#226 = FILL_AREA_STYLE_COLOUR( '', #249 );
#227 = VERTEX_POINT( '', #250 );
#228 = CIRCLE( '', #251, 3.00000000000000 );
#229 = FILL_AREA_STYLE_COLOUR( '', #252 );
#230 = FILL_AREA_STYLE_COLOUR( '', #253 );
#231 = VERTEX_POINT( '', #254 );
#232 = CIRCLE( '', #255, 2.49900000000000 );
#233 = FILL_AREA_STYLE_COLOUR( '', #256 );
#234 = FILL_AREA_STYLE_COLOUR( '', #257 );
#235 = VERTEX_POINT( '', #258 );
#236 = CIRCLE( '', #259, 2.49900000000000 );
#237 = FILL_AREA_STYLE_COLOUR( '', #260 );
#238 = COLOUR_RGB( '', 0.689999997600000, 0.689999997600000, 0.689999997600000 );
#239 = CARTESIAN_POINT( '', ( 0.700000000000000, 0.000000000000000, -3.00000000000000 ) );
#240 = AXIS2_PLACEMENT_3D( '', #261, #262, #263 );
#241 = CARTESIAN_POINT( '', ( 0.000000000000000, 0.000000000000000, -2.59585481156726 ) );
#242 = AXIS2_PLACEMENT_3D( '', #264, #265, #266 );
#243 = COLOUR_RGB( '', 0.689999997600000, 0.689999997600000, 0.689999997600000 );
#244 = CARTESIAN_POINT( '', ( 11.4292963933026, 0.000000000000000, -2.49900000000000 ) );
#245 = AXIS2_PLACEMENT_3D( '', #267, #268, #269 );
#246 = COLOUR_RGB( '', 0.689999997600000, 0.689999997600000, 0.689999997600000 );
#247 = CARTESIAN_POINT( '', ( 11.5707036066974, 0.000000000000000, 2.49900000000000 ) );
#248 = AXIS2_PLACEMENT_3D( '', #270, #271, #272 );
#249 = COLOUR_RGB( '', 0.689999997600000, 0.689999997600000, 0.689999997600000 );
#250 = CARTESIAN_POINT( '', ( 14.0000000000000, 0.000000000000000, -3.00000000000000 ) );
#251 = AXIS2_PLACEMENT_3D( '', #273, #274, #275 );
#252 = COLOUR_RGB( '', 0.689999997600000, 0.689999997600000, 0.689999997600000 );
#253 = COLOUR_RGB( '', 0.689999997600000, 0.689999997600000, 0.689999997600000 );
#254 = CARTESIAN_POINT( '', ( 6.99999999999999, 0.000000000000000, -2.49900000000000 ) );
#255 = AXIS2_PLACEMENT_3D( '', #276, #277, #278 );
#256 = COLOUR_RGB( '', 0.689999997600000, 0.689999997600000, 0.689999997600000 );
#257 = COLOUR_RGB( '', 0.689999997600000, 0.689999997600000, 0.689999997600000 );
#258 = CARTESIAN_POINT( '', ( 14.0000000000000, 0.000000000000000, -2.49900000000000 ) );
#259 = AXIS2_PLACEMENT_3D( '', #279, #280, #281 );
#260 = COLOUR_RGB( '', 0.689999997600000, 0.689999997600000, 0.689999997600000 );
#261 = CARTESIAN_POINT( '', ( 0.700000000000000, 0.000000000000000, 0.000000000000000 ) );
#262 = DIRECTION( '', ( 1.00000000000000, 0.000000000000000, -0.000000000000000 ) );
#263 = DIRECTION( '', ( -0.000000000000000, 0.000000000000000, -1.00000000000000 ) );
#264 = CARTESIAN_POINT( '', ( 0.000000000000000, 0.000000000000000, 0.000000000000000 ) );
#265 = DIRECTION( '', ( 1.00000000000000, 0.000000000000000, -0.000000000000000 ) );
#266 = DIRECTION( '', ( -0.000000000000000, 0.000000000000000, -1.00000000000000 ) );
#267 = CARTESIAN_POINT( '', ( 11.4292963933026, 0.000000000000000, 0.000000000000000 ) );
#268 = DIRECTION( '', ( 1.00000000000000, 0.000000000000000, -0.000000000000000 ) );
#269 = DIRECTION( '', ( -0.000000000000000, 0.000000000000000, -1.00000000000000 ) );
#270 = CARTESIAN_POINT( '', ( 11.5707036066974, 0.000000000000000, 0.000000000000000 ) );
#271 = DIRECTION( '', ( -1.00000000000000, 0.000000000000000, 0.000000000000000 ) );
#272 = DIRECTION( '', ( 0.000000000000000, 0.000000000000000, 1.00000000000000 ) );
#273 = CARTESIAN_POINT( '', ( 14.0000000000000, 0.000000000000000, 0.000000000000000 ) );
#274 = DIRECTION( '', ( 1.00000000000000, 0.000000000000000, -0.000000000000000 ) );
#275 = DIRECTION( '', ( -0.000000000000000, 0.000000000000000, -1.00000000000000 ) );
#276 = CARTESIAN_POINT( '', ( 6.99999999999999, 0.000000000000000, 0.000000000000000 ) );
#277 = DIRECTION( '', ( 1.00000000000000, 0.000000000000000, -0.000000000000000 ) );
#278 = DIRECTION( '', ( -0.000000000000000, 0.000000000000000, -1.00000000000000 ) );
#279 = CARTESIAN_POINT( '', ( 14.0000000000000, 0.000000000000000, 0.000000000000000 ) );
#280 = DIRECTION( '', ( 1.00000000000000, 0.000000000000000, -0.000000000000000 ) );
#281 = DIRECTION( '', ( -0.000000000000000, 0.000000000000000, -1.00000000000000 ) );
ENDSEC;
END-ISO-10303-21;
