ISO-10303-21;
HEADER;
FILE_DESCRIPTION( ( 'STEP AP214' ), '1' );
FILE_NAME( '//goodhand-server/Shared Folders/GoodHand Data/Kipp CAD/K0390/K0390.16X65.stp', '2020-12-07T10:14:53', ( '' ), ( '' ), ' ', 'PARTsolutions', ' ' );
FILE_SCHEMA( ( 'AUTOMOTIVE_DESIGN { 1 0 10303 214 1 1 1 1 }' ) );
ENDSEC;
DATA;
#1 = MECHANICAL_DESIGN_GEOMETRIC_PRESENTATION_REPRESENTATION( ' ', ( #10, #11, #12, #13, #14, #15, #16, #17, #18, #19, #20, #21, #22 ), #6 );
#2 = PRODUCT_DEFINITION_CONTEXT( '', #23, 'design' );
#3 = APPLICATION_PROTOCOL_DEFINITION( 'international standard', 'automotive_design', 2001, #23 );
#4 = PRODUCT_CATEGORY_RELATIONSHIP( 'NONE', 'NONE', #24, #25 );
#5 = SHAPE_DEFINITION_REPRESENTATION( #26, #27 );
#6 =  ( GEOMETRIC_REPRESENTATION_CONTEXT( 3 )GLOBAL_UNCERTAINTY_ASSIGNED_CONTEXT( ( #30 ) )GLOBAL_UNIT_ASSIGNED_CONTEXT( ( #32, #33, #34 ) )REPRESENTATION_CONTEXT( 'NONE', 'WORKSPACE' ) );
#10 = STYLED_ITEM( '', ( #36 ), #37 );
#11 = STYLED_ITEM( '', ( #38 ), #39 );
#12 = STYLED_ITEM( '', ( #40 ), #41 );
#13 = STYLED_ITEM( '', ( #42 ), #43 );
#14 = STYLED_ITEM( '', ( #44 ), #45 );
#15 = STYLED_ITEM( '', ( #46 ), #47 );
#16 = STYLED_ITEM( '', ( #48 ), #49 );
#17 = STYLED_ITEM( '', ( #50 ), #51 );
#18 = STYLED_ITEM( '', ( #52 ), #53 );
#19 = STYLED_ITEM( '', ( #54 ), #55 );
#20 = STYLED_ITEM( '', ( #56 ), #57 );
#21 = STYLED_ITEM( '', ( #58 ), #59 );
#22 = STYLED_ITEM( '', ( #60 ), #61 );
#23 = APPLICATION_CONTEXT( 'core data for automotive mechanical design processes' );
#24 = PRODUCT_CATEGORY( 'part', 'NONE' );
#25 = PRODUCT_RELATED_PRODUCT_CATEGORY( 'detail', ' ', ( #62 ) );
#26 = PRODUCT_DEFINITION_SHAPE( 'NONE', 'NONE', #63 );
#27 = ADVANCED_BREP_SHAPE_REPRESENTATION( '_K0390.16X65', ( #64, #65 ), #6 );
#30 = UNCERTAINTY_MEASURE_WITH_UNIT( LENGTH_MEASURE( 0.00100000000000000 ), #32, '', '' );
#32 =  ( CONVERSION_BASED_UNIT( 'MILLIMETRE', #68 )LENGTH_UNIT(  )NAMED_UNIT( #71 ) );
#33 =  ( NAMED_UNIT( #73 )PLANE_ANGLE_UNIT(  )SI_UNIT( $, .RADIAN. ) );
#34 =  ( NAMED_UNIT( #73 )SI_UNIT( $, .STERADIAN. )SOLID_ANGLE_UNIT(  ) );
#36 = PRESENTATION_STYLE_ASSIGNMENT( ( #79 ) );
#37 = ADVANCED_FACE( '', ( #80 ), #81, .T. );
#38 = PRESENTATION_STYLE_ASSIGNMENT( ( #82 ) );
#39 = ADVANCED_FACE( '', ( #83, #84 ), #85, .F. );
#40 = PRESENTATION_STYLE_ASSIGNMENT( ( #86 ) );
#41 = ADVANCED_FACE( '', ( #87, #88 ), #89, .T. );
#42 = PRESENTATION_STYLE_ASSIGNMENT( ( #90 ) );
#43 = ADVANCED_FACE( '', ( #91, #92 ), #93, .T. );
#44 = PRESENTATION_STYLE_ASSIGNMENT( ( #94 ) );
#45 = ADVANCED_FACE( '', ( #95 ), #96, .T. );
#46 = PRESENTATION_STYLE_ASSIGNMENT( ( #97 ) );
#47 = ADVANCED_FACE( '', ( #98 ), #99, .F. );
#48 = PRESENTATION_STYLE_ASSIGNMENT( ( #100 ) );
#49 = ADVANCED_FACE( '', ( #101 ), #102, .T. );
#50 = PRESENTATION_STYLE_ASSIGNMENT( ( #103 ) );
#51 = ADVANCED_FACE( '', ( #104, #105 ), #106, .T. );
#52 = PRESENTATION_STYLE_ASSIGNMENT( ( #107 ) );
#53 = ADVANCED_FACE( '', ( #108 ), #109, .F. );
#54 = PRESENTATION_STYLE_ASSIGNMENT( ( #110 ) );
#55 = ADVANCED_FACE( '', ( #111 ), #112, .F. );
#56 = PRESENTATION_STYLE_ASSIGNMENT( ( #113 ) );
#57 = ADVANCED_FACE( '', ( #114, #115 ), #116, .T. );
#58 = PRESENTATION_STYLE_ASSIGNMENT( ( #117 ) );
#59 = ADVANCED_FACE( '', ( #118 ), #119, .F. );
#60 = PRESENTATION_STYLE_ASSIGNMENT( ( #120 ) );
#61 = ADVANCED_FACE( '', ( #121, #122 ), #123, .T. );
#62 = PRODUCT( '_K0390.16X65', '_K0390.16X65', 'PART-_K0390.16X65-DESC', ( #124 ) );
#63 = PRODUCT_DEFINITION( 'NONE', 'NONE', #125, #2 );
#64 = MANIFOLD_SOLID_BREP( '_K0390.16X65', #126 );
#65 = AXIS2_PLACEMENT_3D( '', #127, #128, #129 );
#68 = LENGTH_MEASURE_WITH_UNIT( LENGTH_MEASURE( 1.00000000000000 ), #130 );
#71 = DIMENSIONAL_EXPONENTS( 1.00000000000000, 0.000000000000000, 0.000000000000000, 0.000000000000000, 0.000000000000000, 0.000000000000000, 0.000000000000000 );
#73 = DIMENSIONAL_EXPONENTS( 0.000000000000000, 0.000000000000000, 0.000000000000000, 0.000000000000000, 0.000000000000000, 0.000000000000000, 0.000000000000000 );
#79 = SURFACE_STYLE_USAGE( .BOTH., #131 );
#80 = FACE_OUTER_BOUND( '', #132, .T. );
#81 = CONICAL_SURFACE( '', #133, 6.77300000000000, 0.785398163400000 );
#82 = SURFACE_STYLE_USAGE( .BOTH., #134 );
#83 = FACE_OUTER_BOUND( '', #135, .T. );
#84 = FACE_BOUND( '', #136, .T. );
#85 = PLANE( '', #137 );
#86 = SURFACE_STYLE_USAGE( .BOTH., #138 );
#87 = FACE_BOUND( '', #139, .T. );
#88 = FACE_OUTER_BOUND( '', #140, .T. );
#89 = CONICAL_SURFACE( '', #141, 8.00000000000000, 1.13808724680000 );
#90 = SURFACE_STYLE_USAGE( .BOTH., #142 );
#91 = FACE_OUTER_BOUND( '', #143, .T. );
#92 = FACE_OUTER_BOUND( '', #144, .T. );
#93 = CYLINDRICAL_SURFACE( '', #145, 6.00000000000000 );
#94 = SURFACE_STYLE_USAGE( .BOTH., #146 );
#95 = FACE_OUTER_BOUND( '', #147, .T. );
#96 = CONICAL_SURFACE( '', #148, 6.77300000000000, 0.785398163400000 );
#97 = SURFACE_STYLE_USAGE( .BOTH., #149 );
#98 = FACE_OUTER_BOUND( '', #150, .T. );
#99 = PLANE( '', #151 );
#100 = SURFACE_STYLE_USAGE( .BOTH., #152 );
#101 = FACE_OUTER_BOUND( '', #153, .T. );
#102 = PLANE( '', #154 );
#103 = SURFACE_STYLE_USAGE( .BOTH., #155 );
#104 = FACE_OUTER_BOUND( '', #156, .T. );
#105 = FACE_OUTER_BOUND( '', #157, .T. );
#106 = CYLINDRICAL_SURFACE( '', #158, 5.50000000000000 );
#107 = SURFACE_STYLE_USAGE( .BOTH., #159 );
#108 = FACE_OUTER_BOUND( '', #160, .T. );
#109 = PLANE( '', #161 );
#110 = SURFACE_STYLE_USAGE( .BOTH., #162 );
#111 = FACE_OUTER_BOUND( '', #163, .T. );
#112 = PLANE( '', #164 );
#113 = SURFACE_STYLE_USAGE( .BOTH., #165 );
#114 = FACE_OUTER_BOUND( '', #166, .T. );
#115 = FACE_OUTER_BOUND( '', #167, .T. );
#116 = CYLINDRICAL_SURFACE( '', #168, 8.00000000000000 );
#117 = SURFACE_STYLE_USAGE( .BOTH., #169 );
#118 = FACE_OUTER_BOUND( '', #170, .T. );
#119 = PLANE( '', #171 );
#120 = SURFACE_STYLE_USAGE( .BOTH., #172 );
#121 = FACE_BOUND( '', #173, .T. );
#122 = FACE_OUTER_BOUND( '', #174, .T. );
#123 = SPHERICAL_SURFACE( '', #175, 10.0644000000000 );
#124 = PRODUCT_CONTEXT( '', #23, 'mechanical' );
#125 = PRODUCT_DEFINITION_FORMATION_WITH_SPECIFIED_SOURCE( ' ', 'NONE', #62, .NOT_KNOWN. );
#126 = CLOSED_SHELL( '', ( #55, #53, #61, #43, #39, #51, #41, #57, #37, #59, #45, #47, #49 ) );
#127 = CARTESIAN_POINT( '', ( 0.000000000000000, 0.000000000000000, 0.000000000000000 ) );
#128 = DIRECTION( '', ( 0.000000000000000, 0.000000000000000, 1.00000000000000 ) );
#129 = DIRECTION( '', ( 1.00000000000000, 0.000000000000000, 0.000000000000000 ) );
#130 =  ( LENGTH_UNIT(  )NAMED_UNIT( #71 )SI_UNIT( .MILLI., .METRE. ) );
#131 = SURFACE_SIDE_STYLE( '', ( #177 ) );
#132 = EDGE_LOOP( '', ( #178, #179, #180, #181 ) );
#133 = AXIS2_PLACEMENT_3D( '', #182, #183, #184 );
#134 = SURFACE_SIDE_STYLE( '', ( #185 ) );
#135 = EDGE_LOOP( '', ( #186 ) );
#136 = EDGE_LOOP( '', ( #187 ) );
#137 = AXIS2_PLACEMENT_3D( '', #188, #189, #190 );
#138 = SURFACE_SIDE_STYLE( '', ( #191 ) );
#139 = EDGE_LOOP( '', ( #192 ) );
#140 = EDGE_LOOP( '', ( #193 ) );
#141 = AXIS2_PLACEMENT_3D( '', #194, #195, #196 );
#142 = SURFACE_SIDE_STYLE( '', ( #197 ) );
#143 = EDGE_LOOP( '', ( #198 ) );
#144 = EDGE_LOOP( '', ( #199 ) );
#145 = AXIS2_PLACEMENT_3D( '', #200, #201, #202 );
#146 = SURFACE_SIDE_STYLE( '', ( #203 ) );
#147 = EDGE_LOOP( '', ( #204, #205, #206, #207 ) );
#148 = AXIS2_PLACEMENT_3D( '', #208, #209, #210 );
#149 = SURFACE_SIDE_STYLE( '', ( #211 ) );
#150 = EDGE_LOOP( '', ( #212, #213 ) );
#151 = AXIS2_PLACEMENT_3D( '', #214, #215, #216 );
#152 = SURFACE_SIDE_STYLE( '', ( #217 ) );
#153 = EDGE_LOOP( '', ( #218, #219, #220, #221 ) );
#154 = AXIS2_PLACEMENT_3D( '', #222, #223, #224 );
#155 = SURFACE_SIDE_STYLE( '', ( #225 ) );
#156 = EDGE_LOOP( '', ( #226 ) );
#157 = EDGE_LOOP( '', ( #227 ) );
#158 = AXIS2_PLACEMENT_3D( '', #228, #229, #230 );
#159 = SURFACE_SIDE_STYLE( '', ( #231 ) );
#160 = EDGE_LOOP( '', ( #232, #233, #234, #235, #236, #237 ) );
#161 = AXIS2_PLACEMENT_3D( '', #238, #239, #240 );
#162 = SURFACE_SIDE_STYLE( '', ( #241 ) );
#163 = EDGE_LOOP( '', ( #242, #243, #244, #245, #246, #247 ) );
#164 = AXIS2_PLACEMENT_3D( '', #248, #249, #250 );
#165 = SURFACE_SIDE_STYLE( '', ( #251 ) );
#166 = EDGE_LOOP( '', ( #252 ) );
#167 = EDGE_LOOP( '', ( #253, #254, #255, #256, #257, #258, #259, #260 ) );
#168 = AXIS2_PLACEMENT_3D( '', #261, #262, #263 );
#169 = SURFACE_SIDE_STYLE( '', ( #264 ) );
#170 = EDGE_LOOP( '', ( #265, #266 ) );
#171 = AXIS2_PLACEMENT_3D( '', #267, #268, #269 );
#172 = SURFACE_SIDE_STYLE( '', ( #270 ) );
#173 = VERTEX_LOOP( '', #271 );
#174 = EDGE_LOOP( '', ( #272 ) );
#175 = AXIS2_PLACEMENT_3D( '', #273, #274, #275 );
#177 = SURFACE_STYLE_FILL_AREA( #276 );
#178 = ORIENTED_EDGE( '', *, *, #277, .T. );
#179 = ORIENTED_EDGE( '', *, *, #278, .T. );
#180 = ORIENTED_EDGE( '', *, *, #279, .F. );
#181 = ORIENTED_EDGE( '', *, *, #280, .T. );
#182 = CARTESIAN_POINT( '', ( 0.000000000000000, 3.98010209722890E-15, 0.000000000000000 ) );
#183 = DIRECTION( '', ( 1.00000000000000, -6.12323399573676E-17, -0.000000000000000 ) );
#184 = DIRECTION( '', ( 6.12323399573676E-17, 1.00000000000000, 0.000000000000000 ) );
#185 = SURFACE_STYLE_FILL_AREA( #281 );
#186 = ORIENTED_EDGE( '', *, *, #282, .F. );
#187 = ORIENTED_EDGE( '', *, *, #283, .T. );
#188 = CARTESIAN_POINT( '', ( 60.0000000000000, 5.50000000000000, 0.000000000000000 ) );
#189 = DIRECTION( '', ( 1.00000000000000, -6.12323399573676E-17, -0.000000000000000 ) );
#190 = DIRECTION( '', ( 6.12323399573676E-17, 1.00000000000000, 0.000000000000000 ) );
#191 = SURFACE_STYLE_FILL_AREA( #284 );
#192 = ORIENTED_EDGE( '', *, *, #285, .F. );
#193 = ORIENTED_EDGE( '', *, *, #286, .T. );
#194 = CARTESIAN_POINT( '', ( 53.0000000000000, 7.34788079488412E-16, 0.000000000000000 ) );
#195 = DIRECTION( '', ( -1.00000000000000, 6.12323399573676E-17, -0.000000000000000 ) );
#196 = DIRECTION( '', ( -6.12323399573676E-17, -1.00000000000000, 0.000000000000000 ) );
#197 = SURFACE_STYLE_FILL_AREA( #287 );
#198 = ORIENTED_EDGE( '', *, *, #288, .F. );
#199 = ORIENTED_EDGE( '', *, *, #282, .T. );
#200 = CARTESIAN_POINT( '', ( 65.0000000000000, 0.000000000000000, 0.000000000000000 ) );
#201 = DIRECTION( '', ( -1.00000000000000, 6.12323399573677E-17, 0.000000000000000 ) );
#202 = DIRECTION( '', ( 6.12323399573677E-17, 1.00000000000000, 0.000000000000000 ) );
#203 = SURFACE_STYLE_FILL_AREA( #289 );
#204 = ORIENTED_EDGE( '', *, *, #290, .F. );
#205 = ORIENTED_EDGE( '', *, *, #291, .T. );
#206 = ORIENTED_EDGE( '', *, *, #292, .T. );
#207 = ORIENTED_EDGE( '', *, *, #293, .T. );
#208 = CARTESIAN_POINT( '', ( 0.000000000000000, 3.98010209722890E-15, 0.000000000000000 ) );
#209 = DIRECTION( '', ( 1.00000000000000, -6.12323399573676E-17, -0.000000000000000 ) );
#210 = DIRECTION( '', ( 6.12323399573676E-17, 1.00000000000000, 0.000000000000000 ) );
#211 = SURFACE_STYLE_FILL_AREA( #294 );
#212 = ORIENTED_EDGE( '', *, *, #277, .F. );
#213 = ORIENTED_EDGE( '', *, *, #295, .F. );
#214 = CARTESIAN_POINT( '', ( -2.07363319265625E-16, 3.98010209722890E-15, 0.000000000000000 ) );
#215 = DIRECTION( '', ( 1.00000000000000, -6.12323399573676E-17, -0.000000000000000 ) );
#216 = DIRECTION( '', ( 6.12323399573676E-17, 1.00000000000000, 0.000000000000000 ) );
#217 = SURFACE_STYLE_FILL_AREA( #296 );
#218 = ORIENTED_EDGE( '', *, *, #297, .T. );
#219 = ORIENTED_EDGE( '', *, *, #298, .T. );
#220 = ORIENTED_EDGE( '', *, *, #299, .T. );
#221 = ORIENTED_EDGE( '', *, *, #300, .T. );
#222 = CARTESIAN_POINT( '', ( 3.00000000000000, 0.000000000000000, 0.000000000000000 ) );
#223 = DIRECTION( '', ( -1.00000000000000, 0.000000000000000, 0.000000000000000 ) );
#224 = DIRECTION( '', ( 0.000000000000000, 0.000000000000000, 1.00000000000000 ) );
#225 = SURFACE_STYLE_FILL_AREA( #301 );
#226 = ORIENTED_EDGE( '', *, *, #283, .F. );
#227 = ORIENTED_EDGE( '', *, *, #285, .T. );
#228 = CARTESIAN_POINT( '', ( 65.0000000000000, 0.000000000000000, 0.000000000000000 ) );
#229 = DIRECTION( '', ( -1.00000000000000, 6.12323399573676E-17, 0.000000000000000 ) );
#230 = DIRECTION( '', ( 6.12323399573676E-17, 1.00000000000000, 0.000000000000000 ) );
#231 = SURFACE_STYLE_FILL_AREA( #302 );
#232 = ORIENTED_EDGE( '', *, *, #303, .T. );
#233 = ORIENTED_EDGE( '', *, *, #291, .F. );
#234 = ORIENTED_EDGE( '', *, *, #304, .F. );
#235 = ORIENTED_EDGE( '', *, *, #298, .F. );
#236 = ORIENTED_EDGE( '', *, *, #305, .F. );
#237 = ORIENTED_EDGE( '', *, *, #293, .F. );
#238 = CARTESIAN_POINT( '', ( 3.00000000000000, -0.899999999999996, -10.5000000000000 ) );
#239 = DIRECTION( '', ( 0.000000000000000, -1.00000000000000, 0.000000000000000 ) );
#240 = DIRECTION( '', ( 0.000000000000000, 0.000000000000000, -1.00000000000000 ) );
#241 = SURFACE_STYLE_FILL_AREA( #306 );
#242 = ORIENTED_EDGE( '', *, *, #278, .F. );
#243 = ORIENTED_EDGE( '', *, *, #295, .T. );
#244 = ORIENTED_EDGE( '', *, *, #280, .F. );
#245 = ORIENTED_EDGE( '', *, *, #307, .F. );
#246 = ORIENTED_EDGE( '', *, *, #300, .F. );
#247 = ORIENTED_EDGE( '', *, *, #308, .F. );
#248 = CARTESIAN_POINT( '', ( 3.00000000000000, 0.900000000000004, 10.5000000000000 ) );
#249 = DIRECTION( '', ( 0.000000000000000, 1.00000000000000, 0.000000000000000 ) );
#250 = DIRECTION( '', ( 0.000000000000000, -0.000000000000000, 1.00000000000000 ) );
#251 = SURFACE_STYLE_FILL_AREA( #309 );
#252 = ORIENTED_EDGE( '', *, *, #286, .F. );
#253 = ORIENTED_EDGE( '', *, *, #290, .T. );
#254 = ORIENTED_EDGE( '', *, *, #305, .T. );
#255 = ORIENTED_EDGE( '', *, *, #297, .F. );
#256 = ORIENTED_EDGE( '', *, *, #307, .T. );
#257 = ORIENTED_EDGE( '', *, *, #279, .T. );
#258 = ORIENTED_EDGE( '', *, *, #308, .T. );
#259 = ORIENTED_EDGE( '', *, *, #299, .F. );
#260 = ORIENTED_EDGE( '', *, *, #304, .T. );
#261 = CARTESIAN_POINT( '', ( 65.0000000000000, 0.000000000000000, 0.000000000000000 ) );
#262 = DIRECTION( '', ( -1.00000000000000, 6.12323399573676E-17, 0.000000000000000 ) );
#263 = DIRECTION( '', ( 6.12323399573676E-17, 1.00000000000000, 0.000000000000000 ) );
#264 = SURFACE_STYLE_FILL_AREA( #310 );
#265 = ORIENTED_EDGE( '', *, *, #292, .F. );
#266 = ORIENTED_EDGE( '', *, *, #303, .F. );
#267 = CARTESIAN_POINT( '', ( -2.07363319265625E-16, 3.98010209722890E-15, 0.000000000000000 ) );
#268 = DIRECTION( '', ( 1.00000000000000, -6.12323399573676E-17, -0.000000000000000 ) );
#269 = DIRECTION( '', ( 6.12323399573676E-17, 1.00000000000000, 0.000000000000000 ) );
#270 = SURFACE_STYLE_FILL_AREA( #311 );
#271 = VERTEX_POINT( '', #312 );
#272 = ORIENTED_EDGE( '', *, *, #288, .T. );
#273 = CARTESIAN_POINT( '', ( 54.9355999999999, -3.38271077815477E-14, 0.000000000000000 ) );
#274 = DIRECTION( '', ( 1.00000000000000, 0.000000000000000, 0.000000000000000 ) );
#275 = DIRECTION( '', ( 0.000000000000000, 1.00000000000000, 0.000000000000000 ) );
#276 = FILL_AREA_STYLE( '', ( #313 ) );
#277 = EDGE_CURVE( '', #314, #315, #316, .T. );
#278 = EDGE_CURVE( '', #315, #317, #318, .T. );
#279 = EDGE_CURVE( '', #319, #317, #320, .T. );
#280 = EDGE_CURVE( '', #319, #314, #321, .T. );
#281 = FILL_AREA_STYLE( '', ( #322 ) );
#282 = EDGE_CURVE( '', #323, #323, #324, .T. );
#283 = EDGE_CURVE( '', #325, #325, #326, .T. );
#284 = FILL_AREA_STYLE( '', ( #327 ) );
#285 = EDGE_CURVE( '', #328, #328, #329, .T. );
#286 = EDGE_CURVE( '', #330, #330, #331, .T. );
#287 = FILL_AREA_STYLE( '', ( #332 ) );
#288 = EDGE_CURVE( '', #333, #333, #334, .T. );
#289 = FILL_AREA_STYLE( '', ( #335 ) );
#290 = EDGE_CURVE( '', #336, #337, #338, .T. );
#291 = EDGE_CURVE( '', #336, #339, #340, .T. );
#292 = EDGE_CURVE( '', #339, #341, #342, .T. );
#293 = EDGE_CURVE( '', #341, #337, #343, .T. );
#294 = FILL_AREA_STYLE( '', ( #344 ) );
#295 = EDGE_CURVE( '', #315, #314, #345, .T. );
#296 = FILL_AREA_STYLE( '', ( #346 ) );
#297 = EDGE_CURVE( '', #347, #348, #349, .T. );
#298 = EDGE_CURVE( '', #348, #350, #351, .T. );
#299 = EDGE_CURVE( '', #350, #352, #353, .T. );
#300 = EDGE_CURVE( '', #352, #347, #354, .T. );
#301 = FILL_AREA_STYLE( '', ( #355 ) );
#302 = FILL_AREA_STYLE( '', ( #356 ) );
#303 = EDGE_CURVE( '', #341, #339, #357, .T. );
#304 = EDGE_CURVE( '', #350, #336, #358, .F. );
#305 = EDGE_CURVE( '', #337, #348, #359, .T. );
#306 = FILL_AREA_STYLE( '', ( #360 ) );
#307 = EDGE_CURVE( '', #347, #319, #361, .F. );
#308 = EDGE_CURVE( '', #317, #352, #362, .T. );
#309 = FILL_AREA_STYLE( '', ( #363 ) );
#310 = FILL_AREA_STYLE( '', ( #364 ) );
#311 = FILL_AREA_STYLE( '', ( #365 ) );
#312 = CARTESIAN_POINT( '', ( 65.0000000000000, -3.38271077815477E-14, 0.000000000000000 ) );
#313 = FILL_AREA_STYLE_COLOUR( '', #366 );
#314 = VERTEX_POINT( '', #367 );
#315 = VERTEX_POINT( '', #368 );
#316 = CIRCLE( '', #369, 6.77300000000000 );
#317 = VERTEX_POINT( '', #370 );
#318 = B_SPLINE_CURVE_WITH_KNOTS( '', 3, ( #371, #372, #373, #374 ), .UNSPECIFIED., .F., .F., ( 4, 4 ), ( 0.0333752047769191, 0.0351188466568865 ), .UNSPECIFIED. );
#319 = VERTEX_POINT( '', #375 );
#320 = CIRCLE( '', #376, 8.00000000000000 );
#321 = B_SPLINE_CURVE_WITH_KNOTS( '', 3, ( #377, #378, #379, #380 ), .UNSPECIFIED., .F., .F., ( 4, 4 ), ( 0.0136362270213630, 0.0153780387903499 ), .UNSPECIFIED. );
#322 = FILL_AREA_STYLE_COLOUR( '', #381 );
#323 = VERTEX_POINT( '', #382 );
#324 = CIRCLE( '', #383, 6.00000000000000 );
#325 = VERTEX_POINT( '', #384 );
#326 = CIRCLE( '', #385, 5.50000000000000 );
#327 = FILL_AREA_STYLE_COLOUR( '', #386 );
#328 = VERTEX_POINT( '', #387 );
#329 = CIRCLE( '', #388, 5.50000000000000 );
#330 = VERTEX_POINT( '', #389 );
#331 = CIRCLE( '', #390, 8.00000000000000 );
#332 = FILL_AREA_STYLE_COLOUR( '', #391 );
#333 = VERTEX_POINT( '', #392 );
#334 = CIRCLE( '', #393, 6.00000000000000 );
#335 = FILL_AREA_STYLE_COLOUR( '', #394 );
#336 = VERTEX_POINT( '', #395 );
#337 = VERTEX_POINT( '', #396 );
#338 = CIRCLE( '', #397, 8.00000000000000 );
#339 = VERTEX_POINT( '', #398 );
#340 = B_SPLINE_CURVE_WITH_KNOTS( '', 3, ( #399, #400, #401, #402 ), .UNSPECIFIED., .F., .F., ( 4, 4 ), ( 0.0136362270213630, 0.0153780387903499 ), .UNSPECIFIED. );
#341 = VERTEX_POINT( '', #403 );
#342 = CIRCLE( '', #404, 6.77300000000000 );
#343 = B_SPLINE_CURVE_WITH_KNOTS( '', 3, ( #405, #406, #407, #408 ), .UNSPECIFIED., .F., .F., ( 4, 4 ), ( 0.0333752047769191, 0.0351188466568865 ), .UNSPECIFIED. );
#344 = FILL_AREA_STYLE_COLOUR( '', #409 );
#345 = LINE( '', #410, #411 );
#346 = FILL_AREA_STYLE_COLOUR( '', #412 );
#347 = VERTEX_POINT( '', #413 );
#348 = VERTEX_POINT( '', #414 );
#349 = CIRCLE( '', #415, 8.00000000000000 );
#350 = VERTEX_POINT( '', #416 );
#351 = LINE( '', #417, #418 );
#352 = VERTEX_POINT( '', #419 );
#353 = CIRCLE( '', #420, 8.00000000000000 );
#354 = LINE( '', #421, #422 );
#355 = FILL_AREA_STYLE_COLOUR( '', #423 );
#356 = FILL_AREA_STYLE_COLOUR( '', #424 );
#357 = LINE( '', #425, #426 );
#358 = LINE( '', #427, #428 );
#359 = LINE( '', #429, #430 );
#360 = FILL_AREA_STYLE_COLOUR( '', #431 );
#361 = LINE( '', #432, #433 );
#362 = LINE( '', #434, #435 );
#363 = FILL_AREA_STYLE_COLOUR( '', #436 );
#364 = FILL_AREA_STYLE_COLOUR( '', #437 );
#365 = FILL_AREA_STYLE_COLOUR( '', #438 );
#366 = COLOUR_RGB( '', 0.689999997600000, 0.689999997600000, 0.689999997600000 );
#367 = CARTESIAN_POINT( '', ( 0.000000000000000, 0.900000000000004, -6.71293743453639 ) );
#368 = CARTESIAN_POINT( '', ( 0.000000000000000, 0.900000000000004, 6.71293743453639 ) );
#369 = AXIS2_PLACEMENT_3D( '', #439, #440, #441 );
#370 = CARTESIAN_POINT( '', ( 1.22700000000001, 0.900000000000008, 7.94921379760288 ) );
#371 = CARTESIAN_POINT( '', ( -1.91180558096030E-15, 0.900000000000004, 6.71293743453638 ) );
#372 = CARTESIAN_POINT( '', ( 0.408715634480825, 0.900000000000004, 7.12530996434677 ) );
#373 = CARTESIAN_POINT( '', ( 0.817759551175690, 0.900000000000004, 7.53735877974164 ) );
#374 = CARTESIAN_POINT( '', ( 1.22700000000001, 0.900000000000004, 7.94921379760288 ) );
#375 = CARTESIAN_POINT( '', ( 1.22700000000001, 0.900000000000008, -7.94921379760288 ) );
#376 = AXIS2_PLACEMENT_3D( '', #442, #443, #444 );
#377 = CARTESIAN_POINT( '', ( 1.22700000000001, 0.900000000000004, -7.94921379760288 ) );
#378 = CARTESIAN_POINT( '', ( 0.817760310665019, 0.900000000000004, -7.53735954408323 ) );
#379 = CARTESIAN_POINT( '', ( 0.408716531538593, 0.900000000000004, -7.12531086943078 ) );
#380 = CARTESIAN_POINT( '', ( 1.32947280463605E-15, 0.900000000000004, -6.71293743453639 ) );
#381 = COLOUR_RGB( '', 0.689999997600000, 0.689999997600000, 0.689999997600000 );
#382 = CARTESIAN_POINT( '', ( 60.0000000000000, 6.00000000000000, 0.000000000000000 ) );
#383 = AXIS2_PLACEMENT_3D( '', #445, #446, #447 );
#384 = CARTESIAN_POINT( '', ( 60.0000000000000, 5.50000000000000, 0.000000000000000 ) );
#385 = AXIS2_PLACEMENT_3D( '', #448, #449, #450 );
#386 = COLOUR_RGB( '', 0.689999997600000, 0.689999997600000, 0.689999997600000 );
#387 = CARTESIAN_POINT( '', ( 54.1547600000000, 5.50000000000000, 0.000000000000000 ) );
#388 = AXIS2_PLACEMENT_3D( '', #451, #452, #453 );
#389 = CARTESIAN_POINT( '', ( 53.0000000000000, 8.00000000000000, 0.000000000000000 ) );
#390 = AXIS2_PLACEMENT_3D( '', #454, #455, #456 );
#391 = COLOUR_RGB( '', 0.689999997600000, 0.689999997600000, 0.689999997600000 );
#392 = CARTESIAN_POINT( '', ( 63.0159556456384, 6.00000000000000, 0.000000000000000 ) );
#393 = AXIS2_PLACEMENT_3D( '', #457, #458, #459 );
#394 = COLOUR_RGB( '', 0.689999997600000, 0.689999997600000, 0.689999997600000 );
#395 = CARTESIAN_POINT( '', ( 1.22700000000001, -0.899999999999992, 7.94921379760288 ) );
#396 = CARTESIAN_POINT( '', ( 1.22700000000001, -0.899999999999992, -7.94921379760288 ) );
#397 = AXIS2_PLACEMENT_3D( '', #460, #461, #462 );
#398 = CARTESIAN_POINT( '', ( 0.000000000000000, -0.899999999999996, 6.71293743453639 ) );
#399 = CARTESIAN_POINT( '', ( 1.22700000000000, -0.899999999999996, 7.94921379760288 ) );
#400 = CARTESIAN_POINT( '', ( 0.817760310665015, -0.899999999999996, 7.53735954408322 ) );
#401 = CARTESIAN_POINT( '', ( 0.408716531538588, -0.899999999999996, 7.12531086943077 ) );
#402 = CARTESIAN_POINT( '', ( -3.49604246300842E-15, -0.899999999999996, 6.71293743453639 ) );
#403 = CARTESIAN_POINT( '', ( 0.000000000000000, -0.899999999999996, -6.71293743453639 ) );
#404 = AXIS2_PLACEMENT_3D( '', #463, #464, #465 );
#405 = CARTESIAN_POINT( '', ( 1.71177886388041E-15, -0.899999999999996, -6.71293743453639 ) );
#406 = CARTESIAN_POINT( '', ( 0.408715634480829, -0.899999999999996, -7.12530996434678 ) );
#407 = CARTESIAN_POINT( '', ( 0.817759551175692, -0.899999999999996, -7.53735877974165 ) );
#408 = CARTESIAN_POINT( '', ( 1.22700000000001, -0.899999999999996, -7.94921379760288 ) );
#409 = COLOUR_RGB( '', 0.689999997600000, 0.689999997600000, 0.689999997600000 );
#410 = CARTESIAN_POINT( '', ( 0.000000000000000, 0.900000000000004, 10.5000000000000 ) );
#411 = VECTOR( '', #466, 1000.00000000000 );
#412 = COLOUR_RGB( '', 0.689999997600000, 0.689999997600000, 0.689999997600000 );
#413 = CARTESIAN_POINT( '', ( 3.00000000000000, 0.900000000000004, -7.94921379760288 ) );
#414 = CARTESIAN_POINT( '', ( 3.00000000000000, -0.899999999999996, -7.94921379760288 ) );
#415 = AXIS2_PLACEMENT_3D( '', #467, #468, #469 );
#416 = CARTESIAN_POINT( '', ( 3.00000000000000, -0.899999999999996, 7.94921379760288 ) );
#417 = CARTESIAN_POINT( '', ( 3.00000000000000, -0.899999999999996, -10.5000000000000 ) );
#418 = VECTOR( '', #470, 1000.00000000000 );
#419 = CARTESIAN_POINT( '', ( 3.00000000000000, 0.900000000000004, 7.94921379760288 ) );
#420 = AXIS2_PLACEMENT_3D( '', #471, #472, #473 );
#421 = CARTESIAN_POINT( '', ( 3.00000000000000, 0.900000000000004, 10.5000000000000 ) );
#422 = VECTOR( '', #474, 1000.00000000000 );
#423 = COLOUR_RGB( '', 0.689999997600000, 0.689999997600000, 0.689999997600000 );
#424 = COLOUR_RGB( '', 0.689999997600000, 0.689999997600000, 0.689999997600000 );
#425 = CARTESIAN_POINT( '', ( 0.000000000000000, -0.899999999999996, -10.5000000000000 ) );
#426 = VECTOR( '', #475, 1000.00000000000 );
#427 = CARTESIAN_POINT( '', ( 65.0000000000000, -0.899999999999996, 7.94921379760288 ) );
#428 = VECTOR( '', #476, 1000.00000000000 );
#429 = CARTESIAN_POINT( '', ( 65.0000000000000, -0.899999999999996, -7.94921379760288 ) );
#430 = VECTOR( '', #477, 1000.00000000000 );
#431 = COLOUR_RGB( '', 0.689999997600000, 0.689999997600000, 0.689999997600000 );
#432 = CARTESIAN_POINT( '', ( 65.0000000000000, 0.900000000000004, -7.94921379760288 ) );
#433 = VECTOR( '', #478, 1000.00000000000 );
#434 = CARTESIAN_POINT( '', ( 65.0000000000000, 0.900000000000004, 7.94921379760288 ) );
#435 = VECTOR( '', #479, 1000.00000000000 );
#436 = COLOUR_RGB( '', 0.689999997600000, 0.689999997600000, 0.689999997600000 );
#437 = COLOUR_RGB( '', 0.689999997600000, 0.689999997600000, 0.689999997600000 );
#438 = COLOUR_RGB( '', 0.689999997600000, 0.689999997600000, 0.689999997600000 );
#439 = CARTESIAN_POINT( '', ( 0.000000000000000, 3.98010209722890E-15, 0.000000000000000 ) );
#440 = DIRECTION( '', ( 1.00000000000000, -6.12323399573676E-17, -0.000000000000000 ) );
#441 = DIRECTION( '', ( 6.12323399573676E-17, 1.00000000000000, 0.000000000000000 ) );
#442 = CARTESIAN_POINT( '', ( 1.22700000000001, 3.90497001610121E-15, 0.000000000000000 ) );
#443 = DIRECTION( '', ( 1.00000000000000, -6.12323399573676E-17, -0.000000000000000 ) );
#444 = DIRECTION( '', ( 6.12323399573676E-17, 1.00000000000000, 0.000000000000000 ) );
#445 = CARTESIAN_POINT( '', ( 60.0000000000000, 3.06161699786839E-16, 0.000000000000000 ) );
#446 = DIRECTION( '', ( 1.00000000000000, -6.12323399573677E-17, -0.000000000000000 ) );
#447 = DIRECTION( '', ( 6.12323399573677E-17, 1.00000000000000, 0.000000000000000 ) );
#448 = CARTESIAN_POINT( '', ( 60.0000000000000, 3.06161699786839E-16, 0.000000000000000 ) );
#449 = DIRECTION( '', ( 1.00000000000000, -6.12323399573676E-17, -0.000000000000000 ) );
#450 = DIRECTION( '', ( 6.12323399573676E-17, 1.00000000000000, 0.000000000000000 ) );
#451 = CARTESIAN_POINT( '', ( 54.1547600000000, 6.64079422599242E-16, 0.000000000000000 ) );
#452 = DIRECTION( '', ( 1.00000000000000, -6.12323399573676E-17, -0.000000000000000 ) );
#453 = DIRECTION( '', ( 6.12323399573676E-17, 1.00000000000000, 0.000000000000000 ) );
#454 = CARTESIAN_POINT( '', ( 53.0000000000000, 7.34788079488412E-16, 0.000000000000000 ) );
#455 = DIRECTION( '', ( 1.00000000000000, -6.12323399573676E-17, -0.000000000000000 ) );
#456 = DIRECTION( '', ( 6.12323399573676E-17, 1.00000000000000, 0.000000000000000 ) );
#457 = CARTESIAN_POINT( '', ( 63.0159556456384, 1.21487678396767E-16, 0.000000000000000 ) );
#458 = DIRECTION( '', ( 1.00000000000000, -6.12323399573677E-17, -0.000000000000000 ) );
#459 = DIRECTION( '', ( 6.12323399573677E-17, 1.00000000000000, 0.000000000000000 ) );
#460 = CARTESIAN_POINT( '', ( 1.22700000000001, 3.90497001610121E-15, 0.000000000000000 ) );
#461 = DIRECTION( '', ( 1.00000000000000, -6.12323399573676E-17, -0.000000000000000 ) );
#462 = DIRECTION( '', ( 6.12323399573676E-17, 1.00000000000000, 0.000000000000000 ) );
#463 = CARTESIAN_POINT( '', ( 0.000000000000000, 3.98010209722890E-15, 0.000000000000000 ) );
#464 = DIRECTION( '', ( 1.00000000000000, -6.12323399573676E-17, -0.000000000000000 ) );
#465 = DIRECTION( '', ( 6.12323399573676E-17, 1.00000000000000, 0.000000000000000 ) );
#466 = DIRECTION( '', ( 0.000000000000000, 0.000000000000000, -1.00000000000000 ) );
#467 = CARTESIAN_POINT( '', ( 3.00000000000000, 3.79640507735679E-15, 0.000000000000000 ) );
#468 = DIRECTION( '', ( -1.00000000000000, 0.000000000000000, 0.000000000000000 ) );
#469 = DIRECTION( '', ( 0.000000000000000, 0.000000000000000, 1.00000000000000 ) );
#470 = DIRECTION( '', ( 0.000000000000000, 0.000000000000000, 1.00000000000000 ) );
#471 = CARTESIAN_POINT( '', ( 3.00000000000000, 3.79640507735679E-15, 0.000000000000000 ) );
#472 = DIRECTION( '', ( -1.00000000000000, 0.000000000000000, 0.000000000000000 ) );
#473 = DIRECTION( '', ( 0.000000000000000, 0.000000000000000, 1.00000000000000 ) );
#474 = DIRECTION( '', ( 0.000000000000000, 0.000000000000000, -1.00000000000000 ) );
#475 = DIRECTION( '', ( 0.000000000000000, 0.000000000000000, 1.00000000000000 ) );
#476 = DIRECTION( '', ( 1.00000000000000, -6.12323399573676E-17, -0.000000000000000 ) );
#477 = DIRECTION( '', ( 1.00000000000000, -6.12323399573676E-17, -0.000000000000000 ) );
#478 = DIRECTION( '', ( 1.00000000000000, -6.12323399573676E-17, -0.000000000000000 ) );
#479 = DIRECTION( '', ( 1.00000000000000, -6.12323399573676E-17, -0.000000000000000 ) );
ENDSEC;
END-ISO-10303-21;
