ISO-10303-21;
HEADER;
FILE_DESCRIPTION( ( 'STEP AP214' ), '1' );
FILE_NAME( '//goodhand-server/Shared Folders/GoodHand Data/Kipp CAD/K0574/K0574.02002455.stp', '2020-12-09T08:49:32', ( '' ), ( '' ), ' ', 'PARTsolutions', ' ' );
FILE_SCHEMA( ( 'AUTOMOTIVE_DESIGN { 1 0 10303 214 1 1 1 1 }' ) );
ENDSEC;
DATA;
#1 = MECHANICAL_DESIGN_GEOMETRIC_PRESENTATION_REPRESENTATION( ' ', ( #10, #11, #12, #13, #14, #15 ), #6 );
#2 = PRODUCT_DEFINITION_CONTEXT( '', #16, 'design' );
#3 = APPLICATION_PROTOCOL_DEFINITION( 'international standard', 'automotive_design', 2001, #16 );
#4 = PRODUCT_CATEGORY_RELATIONSHIP( 'NONE', 'NONE', #17, #18 );
#5 = SHAPE_DEFINITION_REPRESENTATION( #19, #20 );
#6 =  ( GEOMETRIC_REPRESENTATION_CONTEXT( 3 )GLOBAL_UNCERTAINTY_ASSIGNED_CONTEXT( ( #23 ) )GLOBAL_UNIT_ASSIGNED_CONTEXT( ( #25, #26, #27 ) )REPRESENTATION_CONTEXT( 'NONE', 'WORKSPACE' ) );
#10 = STYLED_ITEM( '', ( #29 ), #30 );
#11 = STYLED_ITEM( '', ( #31 ), #32 );
#12 = STYLED_ITEM( '', ( #33 ), #34 );
#13 = STYLED_ITEM( '', ( #35 ), #36 );
#14 = STYLED_ITEM( '', ( #37 ), #38 );
#15 = STYLED_ITEM( '', ( #39 ), #40 );
#16 = APPLICATION_CONTEXT( 'core data for automotive mechanical design processes' );
#17 = PRODUCT_CATEGORY( 'part', 'NONE' );
#18 = PRODUCT_RELATED_PRODUCT_CATEGORY( 'detail', ' ', ( #41 ) );
#19 = PRODUCT_DEFINITION_SHAPE( 'NONE', 'NONE', #42 );
#20 = ADVANCED_BREP_SHAPE_REPRESENTATION( '_K0574.02002455', ( #43, #44 ), #6 );
#23 = UNCERTAINTY_MEASURE_WITH_UNIT( LENGTH_MEASURE( 0.00100000000000000 ), #25, '', '' );
#25 =  ( CONVERSION_BASED_UNIT( 'MILLIMETRE', #47 )LENGTH_UNIT(  )NAMED_UNIT( #50 ) );
#26 =  ( NAMED_UNIT( #52 )PLANE_ANGLE_UNIT(  )SI_UNIT( $, .RADIAN. ) );
#27 =  ( NAMED_UNIT( #52 )SI_UNIT( $, .STERADIAN. )SOLID_ANGLE_UNIT(  ) );
#29 = PRESENTATION_STYLE_ASSIGNMENT( ( #58 ) );
#30 = ADVANCED_FACE( '', ( #59, #60 ), #61, .T. );
#31 = PRESENTATION_STYLE_ASSIGNMENT( ( #62 ) );
#32 = ADVANCED_FACE( '', ( #63, #64 ), #65, .T. );
#33 = PRESENTATION_STYLE_ASSIGNMENT( ( #66 ) );
#34 = ADVANCED_FACE( '', ( #67, #68 ), #69, .T. );
#35 = PRESENTATION_STYLE_ASSIGNMENT( ( #70 ) );
#36 = ADVANCED_FACE( '', ( #71 ), #72, .F. );
#37 = PRESENTATION_STYLE_ASSIGNMENT( ( #73 ) );
#38 = ADVANCED_FACE( '', ( #74, #75 ), #76, .F. );
#39 = PRESENTATION_STYLE_ASSIGNMENT( ( #77 ) );
#40 = ADVANCED_FACE( '', ( #78, #79 ), #80, .T. );
#41 = PRODUCT( '_K0574.02002455', '_K0574.02002455', 'PART-_K0574.02002455-DESC', ( #81 ) );
#42 = PRODUCT_DEFINITION( 'NONE', 'NONE', #82, #2 );
#43 = MANIFOLD_SOLID_BREP( '_K0574.02002455', #83 );
#44 = AXIS2_PLACEMENT_3D( '', #84, #85, #86 );
#47 = LENGTH_MEASURE_WITH_UNIT( LENGTH_MEASURE( 1.00000000000000 ), #87 );
#50 = DIMENSIONAL_EXPONENTS( 1.00000000000000, 0.000000000000000, 0.000000000000000, 0.000000000000000, 0.000000000000000, 0.000000000000000, 0.000000000000000 );
#52 = DIMENSIONAL_EXPONENTS( 0.000000000000000, 0.000000000000000, 0.000000000000000, 0.000000000000000, 0.000000000000000, 0.000000000000000, 0.000000000000000 );
#58 = SURFACE_STYLE_USAGE( .BOTH., #88 );
#59 = FACE_BOUND( '', #89, .T. );
#60 = FACE_OUTER_BOUND( '', #90, .T. );
#61 = CONICAL_SURFACE( '', #91, 3.00000000000000, 0.785398163400000 );
#62 = SURFACE_STYLE_USAGE( .BOTH., #92 );
#63 = FACE_OUTER_BOUND( '', #93, .T. );
#64 = FACE_OUTER_BOUND( '', #94, .T. );
#65 = ( BOUNDED_SURFACE(  )B_SPLINE_SURFACE( 3, 3, ( ( #97, #98, #99, #100, #101, #102, #103 ), ( #104, #105, #106, #107, #108, #109, #110 ), ( #111, #112, #113, #114, #115, #116, #117 ), ( #118, #119, #120, #121, #122, #123, #124 ) ), .UNSPECIFIED., .F., .T., .F. )B_SPLINE_SURFACE_WITH_KNOTS( ( 4, 4 ), ( 4, 3, 4 ), ( 0.000000000000000, 6.28318530717959 ), ( -0.637167549786709, -0.331670845395828, -0.0261741410049479 ), .UNSPECIFIED. )GEOMETRIC_REPRESENTATION_ITEM(  )RATIONAL_B_SPLINE_SURFACE( ( ( 1.00000000000000, 0.333333333333333, 0.333333333333333, 1.00000000000000, 0.333333333333333, 0.333333333333333, 1.00000000000000 ), ( 0.969131785313926, 0.323043928437975, 0.323043928437975, 0.969131785313926, 0.323043928437975, 0.323043928437975, 0.969131785313926 ), ( 0.969131785313926, 0.323043928437975, 0.323043928437975, 0.969131785313926, 0.323043928437975, 0.323043928437975, 0.969131785313926 ), ( 1.00000000000000, 0.333333333333333, 0.333333333333333, 1.00000000000000, 0.333333333333333, 0.333333333333333, 1.00000000000000 ) ) )REPRESENTATION_ITEM( '' )SURFACE(  ) );
#66 = SURFACE_STYLE_USAGE( .BOTH., #130 );
#67 = FACE_OUTER_BOUND( '', #131, .T. );
#68 = FACE_OUTER_BOUND( '', #132, .T. );
#69 = CYLINDRICAL_SURFACE( '', #133, 3.00000000000000 );
#70 = SURFACE_STYLE_USAGE( .BOTH., #134 );
#71 = FACE_OUTER_BOUND( '', #135, .T. );
#72 = PLANE( '', #136 );
#73 = SURFACE_STYLE_USAGE( .BOTH., #137 );
#74 = FACE_BOUND( '', #138, .T. );
#75 = FACE_OUTER_BOUND( '', #139, .T. );
#76 = PLANE( '', #140 );
#77 = SURFACE_STYLE_USAGE( .BOTH., #141 );
#78 = FACE_BOUND( '', #142, .T. );
#79 = FACE_OUTER_BOUND( '', #143, .T. );
#80 = SPHERICAL_SURFACE( '', #144, 2.50000000000000 );
#81 = PRODUCT_CONTEXT( '', #16, 'mechanical' );
#82 = PRODUCT_DEFINITION_FORMATION_WITH_SPECIFIED_SOURCE( ' ', 'NONE', #41, .NOT_KNOWN. );
#83 = CLOSED_SHELL( '', ( #30, #34, #38, #32, #40, #36 ) );
#84 = CARTESIAN_POINT( '', ( 0.000000000000000, 0.000000000000000, 0.000000000000000 ) );
#85 = DIRECTION( '', ( 0.000000000000000, 0.000000000000000, 1.00000000000000 ) );
#86 = DIRECTION( '', ( 1.00000000000000, 0.000000000000000, 0.000000000000000 ) );
#87 =  ( LENGTH_UNIT(  )NAMED_UNIT( #50 )SI_UNIT( .MILLI., .METRE. ) );
#88 = SURFACE_SIDE_STYLE( '', ( #146 ) );
#89 = EDGE_LOOP( '', ( #147 ) );
#90 = EDGE_LOOP( '', ( #148 ) );
#91 = AXIS2_PLACEMENT_3D( '', #149, #150, #151 );
#92 = SURFACE_SIDE_STYLE( '', ( #152 ) );
#93 = EDGE_LOOP( '', ( #153 ) );
#94 = EDGE_LOOP( '', ( #154 ) );
#97 = CARTESIAN_POINT( '', ( 0.000000000000000, 4.33680868994202E-15, -10.0000000000000 ) );
#98 = CARTESIAN_POINT( '', ( 20.0000000000000, 4.33680868994202E-15, -10.0000000000000 ) );
#99 = CARTESIAN_POINT( '', ( 20.0000000000000, 4.33680868994202E-15, 10.0000000000000 ) );
#100 = CARTESIAN_POINT( '', ( 0.000000000000000, 4.33680868994202E-15, 10.0000000000000 ) );
#101 = CARTESIAN_POINT( '', ( -20.0000000000000, 4.33680868994202E-15, 10.0000000000000 ) );
#102 = CARTESIAN_POINT( '', ( -20.0000000000000, 4.33680868994202E-15, -10.0000000000000 ) );
#103 = CARTESIAN_POINT( '', ( 0.000000000000000, 4.33680868994202E-15, -10.0000000000000 ) );
#104 = CARTESIAN_POINT( '', ( 0.000000000000000, 8.27307914163588, -9.78340979679535 ) );
#105 = CARTESIAN_POINT( '', ( 19.5668195935907, 8.27307914163588, -9.78340979679535 ) );
#106 = CARTESIAN_POINT( '', ( 19.5668195935907, 8.27307914163588, 9.78340979679535 ) );
#107 = CARTESIAN_POINT( '', ( 0.000000000000000, 8.27307914163588, 9.78340979679535 ) );
#108 = CARTESIAN_POINT( '', ( -19.5668195935907, 8.27307914163588, 9.78340979679535 ) );
#109 = CARTESIAN_POINT( '', ( -19.5668195935907, 8.27307914163588, -9.78340979679535 ) );
#110 = CARTESIAN_POINT( '', ( 0.000000000000000, 8.27307914163588, -9.78340979679535 ) );
#111 = CARTESIAN_POINT( '', ( 0.000000000000000, 16.0979523407714, -7.08857970616909 ) );
#112 = CARTESIAN_POINT( '', ( 14.1771594123382, 16.0979523407714, -7.08857970616909 ) );
#113 = CARTESIAN_POINT( '', ( 14.1771594123382, 16.0979523407714, 7.08857970616909 ) );
#114 = CARTESIAN_POINT( '', ( 0.000000000000000, 16.0979523407714, 7.08857970616909 ) );
#115 = CARTESIAN_POINT( '', ( -14.1771594123382, 16.0979523407714, 7.08857970616909 ) );
#116 = CARTESIAN_POINT( '', ( -14.1771594123382, 16.0979523407714, -7.08857970616909 ) );
#117 = CARTESIAN_POINT( '', ( 0.000000000000000, 16.0979523407714, -7.08857970616909 ) );
#118 = CARTESIAN_POINT( '', ( 0.000000000000000, 22.7500000000000, -2.16506350946107 ) );
#119 = CARTESIAN_POINT( '', ( 4.33012701892214, 22.7500000000000, -2.16506350946107 ) );
#120 = CARTESIAN_POINT( '', ( 4.33012701892214, 22.7500000000000, 2.16506350946107 ) );
#121 = CARTESIAN_POINT( '', ( 0.000000000000000, 22.7500000000000, 2.16506350946107 ) );
#122 = CARTESIAN_POINT( '', ( -4.33012701892214, 22.7500000000000, 2.16506350946107 ) );
#123 = CARTESIAN_POINT( '', ( -4.33012701892214, 22.7500000000000, -2.16506350946107 ) );
#124 = CARTESIAN_POINT( '', ( 0.000000000000000, 22.7500000000000, -2.16506350946107 ) );
#130 = SURFACE_SIDE_STYLE( '', ( #155 ) );
#131 = EDGE_LOOP( '', ( #156 ) );
#132 = EDGE_LOOP( '', ( #157 ) );
#133 = AXIS2_PLACEMENT_3D( '', #158, #159, #160 );
#134 = SURFACE_SIDE_STYLE( '', ( #161 ) );
#135 = EDGE_LOOP( '', ( #162 ) );
#136 = AXIS2_PLACEMENT_3D( '', #163, #164, #165 );
#137 = SURFACE_SIDE_STYLE( '', ( #166 ) );
#138 = EDGE_LOOP( '', ( #167 ) );
#139 = EDGE_LOOP( '', ( #168 ) );
#140 = AXIS2_PLACEMENT_3D( '', #169, #170, #171 );
#141 = SURFACE_SIDE_STYLE( '', ( #172 ) );
#142 = VERTEX_LOOP( '', #173 );
#143 = EDGE_LOOP( '', ( #174 ) );
#144 = AXIS2_PLACEMENT_3D( '', #175, #176, #177 );
#146 = SURFACE_STYLE_FILL_AREA( #178 );
#147 = ORIENTED_EDGE( '', *, *, #179, .F. );
#148 = ORIENTED_EDGE( '', *, *, #180, .T. );
#149 = CARTESIAN_POINT( '', ( 0.000000000000000, -17.3865000000000, 0.000000000000000 ) );
#150 = DIRECTION( '', ( -0.000000000000000, 1.00000000000000, 0.000000000000000 ) );
#151 = DIRECTION( '', ( 0.000000000000000, -0.000000000000000, 1.00000000000000 ) );
#152 = SURFACE_STYLE_FILL_AREA( #181 );
#153 = ORIENTED_EDGE( '', *, *, #182, .T. );
#154 = ORIENTED_EDGE( '', *, *, #183, .F. );
#155 = SURFACE_STYLE_FILL_AREA( #184 );
#156 = ORIENTED_EDGE( '', *, *, #180, .F. );
#157 = ORIENTED_EDGE( '', *, *, #185, .T. );
#158 = CARTESIAN_POINT( '', ( 0.000000000000000, 0.000000000000000, 0.000000000000000 ) );
#159 = DIRECTION( '', ( -0.000000000000000, 1.00000000000000, 0.000000000000000 ) );
#160 = DIRECTION( '', ( 0.000000000000000, 0.000000000000000, -1.00000000000000 ) );
#161 = SURFACE_STYLE_FILL_AREA( #186 );
#162 = ORIENTED_EDGE( '', *, *, #179, .T. );
#163 = CARTESIAN_POINT( '', ( 2.38650000000000, -18.0000000000000, 0.000000000000000 ) );
#164 = DIRECTION( '', ( 0.000000000000000, 1.00000000000000, 0.000000000000000 ) );
#165 = DIRECTION( '', ( 0.000000000000000, -0.000000000000000, 1.00000000000000 ) );
#166 = SURFACE_STYLE_FILL_AREA( #187 );
#167 = ORIENTED_EDGE( '', *, *, #185, .F. );
#168 = ORIENTED_EDGE( '', *, *, #183, .T. );
#169 = CARTESIAN_POINT( '', ( 10.0000000000000, -1.08420217248550E-16, 0.000000000000000 ) );
#170 = DIRECTION( '', ( 0.000000000000000, 1.00000000000000, 0.000000000000000 ) );
#171 = DIRECTION( '', ( 0.000000000000000, -0.000000000000000, 1.00000000000000 ) );
#172 = SURFACE_STYLE_FILL_AREA( #188 );
#173 = VERTEX_POINT( '', #189 );
#174 = ORIENTED_EDGE( '', *, *, #182, .F. );
#175 = CARTESIAN_POINT( '', ( -1.51788304147971E-15, 21.5000000000000, 0.000000000000000 ) );
#176 = DIRECTION( '', ( 0.000000000000000, -1.00000000000000, 0.000000000000000 ) );
#177 = DIRECTION( '', ( 1.00000000000000, 0.000000000000000, 0.000000000000000 ) );
#178 = FILL_AREA_STYLE( '', ( #190 ) );
#179 = EDGE_CURVE( '', #191, #191, #192, .T. );
#180 = EDGE_CURVE( '', #193, #193, #194, .T. );
#181 = FILL_AREA_STYLE( '', ( #195 ) );
#182 = EDGE_CURVE( '', #196, #196, #197, .T. );
#183 = EDGE_CURVE( '', #198, #198, #199, .T. );
#184 = FILL_AREA_STYLE( '', ( #200 ) );
#185 = EDGE_CURVE( '', #201, #201, #202, .T. );
#186 = FILL_AREA_STYLE( '', ( #203 ) );
#187 = FILL_AREA_STYLE( '', ( #204 ) );
#188 = FILL_AREA_STYLE( '', ( #205 ) );
#189 = CARTESIAN_POINT( '', ( -1.36480219158629E-15, 24.0000000000000, 0.000000000000000 ) );
#190 = FILL_AREA_STYLE_COLOUR( '', #206 );
#191 = VERTEX_POINT( '', #207 );
#192 = CIRCLE( '', #208, 2.38650000000000 );
#193 = VERTEX_POINT( '', #209 );
#194 = CIRCLE( '', #210, 3.00000000000000 );
#195 = FILL_AREA_STYLE_COLOUR( '', #211 );
#196 = VERTEX_POINT( '', #212 );
#197 = CIRCLE( '', #213, 2.16506350950000 );
#198 = VERTEX_POINT( '', #214 );
#199 = CIRCLE( '', #215, 10.0000000000000 );
#200 = FILL_AREA_STYLE_COLOUR( '', #216 );
#201 = VERTEX_POINT( '', #217 );
#202 = CIRCLE( '', #218, 3.00000000000000 );
#203 = FILL_AREA_STYLE_COLOUR( '', #219 );
#204 = FILL_AREA_STYLE_COLOUR( '', #220 );
#205 = FILL_AREA_STYLE_COLOUR( '', #221 );
#206 = COLOUR_RGB( '', 0.689999997600000, 0.689999997600000, 0.689999997600000 );
#207 = CARTESIAN_POINT( '', ( 0.000000000000000, -18.0000000000000, -2.38650000000000 ) );
#208 = AXIS2_PLACEMENT_3D( '', #222, #223, #224 );
#209 = CARTESIAN_POINT( '', ( 0.000000000000000, -17.3865000000000, -3.00000000000000 ) );
#210 = AXIS2_PLACEMENT_3D( '', #225, #226, #227 );
#211 = COLOUR_RGB( '', 0.689999997600000, 0.689999997600000, 0.689999997600000 );
#212 = CARTESIAN_POINT( '', ( 0.000000000000000, 22.7500000000000, -2.16506350946108 ) );
#213 = AXIS2_PLACEMENT_3D( '', #228, #229, #230 );
#214 = CARTESIAN_POINT( '', ( 0.000000000000000, -2.16840434497101E-16, -10.0000000000000 ) );
#215 = AXIS2_PLACEMENT_3D( '', #231, #232, #233 );
#216 = COLOUR_RGB( '', 0.689999997600000, 0.689999997600000, 0.689999997600000 );
#217 = CARTESIAN_POINT( '', ( 0.000000000000000, 0.000000000000000, -3.00000000000000 ) );
#218 = AXIS2_PLACEMENT_3D( '', #234, #235, #236 );
#219 = COLOUR_RGB( '', 0.689999997600000, 0.689999997600000, 0.689999997600000 );
#220 = COLOUR_RGB( '', 0.689999997600000, 0.689999997600000, 0.689999997600000 );
#221 = COLOUR_RGB( '', 0.689999997600000, 0.689999997600000, 0.689999997600000 );
#222 = CARTESIAN_POINT( '', ( 0.000000000000000, -18.0000000000000, 0.000000000000000 ) );
#223 = DIRECTION( '', ( 0.000000000000000, -1.00000000000000, -0.000000000000000 ) );
#224 = DIRECTION( '', ( 0.000000000000000, 0.000000000000000, -1.00000000000000 ) );
#225 = CARTESIAN_POINT( '', ( 0.000000000000000, -17.3865000000000, 0.000000000000000 ) );
#226 = DIRECTION( '', ( 0.000000000000000, -1.00000000000000, -0.000000000000000 ) );
#227 = DIRECTION( '', ( 0.000000000000000, 0.000000000000000, -1.00000000000000 ) );
#228 = CARTESIAN_POINT( '', ( 0.000000000000000, 22.7500000000000, 0.000000000000000 ) );
#229 = DIRECTION( '', ( 0.000000000000000, -1.00000000000000, -0.000000000000000 ) );
#230 = DIRECTION( '', ( 0.000000000000000, 0.000000000000000, -1.00000000000000 ) );
#231 = CARTESIAN_POINT( '', ( 0.000000000000000, -2.16840434497101E-16, 0.000000000000000 ) );
#232 = DIRECTION( '', ( 0.000000000000000, -1.00000000000000, -0.000000000000000 ) );
#233 = DIRECTION( '', ( 0.000000000000000, 0.000000000000000, -1.00000000000000 ) );
#234 = CARTESIAN_POINT( '', ( 0.000000000000000, 0.000000000000000, 0.000000000000000 ) );
#235 = DIRECTION( '', ( 0.000000000000000, -1.00000000000000, -0.000000000000000 ) );
#236 = DIRECTION( '', ( 0.000000000000000, 0.000000000000000, -1.00000000000000 ) );
ENDSEC;
END-ISO-10303-21;
