ISO-10303-21;
HEADER;
FILE_DESCRIPTION( ( 'STEP AP214' ), '1' );
FILE_NAME( '//goodhand-server/Shared Folders/GoodHand Data/Kipp CAD/K0493/K0493.4220X500_500.stp', '2020-12-08T10:33:46', ( '' ), ( '' ), ' ', 'PARTsolutions', ' ' );
FILE_SCHEMA( ( 'AUTOMOTIVE_DESIGN { 1 0 10303 214 1 1 1 1 }' ) );
ENDSEC;
DATA;
#1 = MECHANICAL_DESIGN_GEOMETRIC_PRESENTATION_REPRESENTATION( ' ', ( #10, #11, #12, #13, #14, #15, #16, #17, #18, #19 ), #6 );
#2 = PRODUCT_DEFINITION_CONTEXT( '', #20, 'design' );
#3 = APPLICATION_PROTOCOL_DEFINITION( 'international standard', 'automotive_design', 2001, #20 );
#4 = PRODUCT_CATEGORY_RELATIONSHIP( 'NONE', 'NONE', #21, #22 );
#5 = SHAPE_DEFINITION_REPRESENTATION( #23, #24 );
#6 =  ( GEOMETRIC_REPRESENTATION_CONTEXT( 3 )GLOBAL_UNCERTAINTY_ASSIGNED_CONTEXT( ( #27 ) )GLOBAL_UNIT_ASSIGNED_CONTEXT( ( #29, #30, #31 ) )REPRESENTATION_CONTEXT( 'NONE', 'WORKSPACE' ) );
#10 = STYLED_ITEM( '', ( #33 ), #34 );
#11 = STYLED_ITEM( '', ( #35 ), #36 );
#12 = STYLED_ITEM( '', ( #37 ), #38 );
#13 = STYLED_ITEM( '', ( #39 ), #40 );
#14 = STYLED_ITEM( '', ( #41 ), #42 );
#15 = STYLED_ITEM( '', ( #43 ), #44 );
#16 = STYLED_ITEM( '', ( #45 ), #46 );
#17 = STYLED_ITEM( '', ( #47 ), #48 );
#18 = STYLED_ITEM( '', ( #49 ), #50 );
#19 = STYLED_ITEM( '', ( #51 ), #52 );
#20 = APPLICATION_CONTEXT( 'core data for automotive mechanical design processes' );
#21 = PRODUCT_CATEGORY( 'part', 'NONE' );
#22 = PRODUCT_RELATED_PRODUCT_CATEGORY( 'detail', ' ', ( #53 ) );
#23 = PRODUCT_DEFINITION_SHAPE( 'NONE', 'NONE', #54 );
#24 = ADVANCED_BREP_SHAPE_REPRESENTATION( '_K0493.4220X500_500', ( #55, #56 ), #6 );
#27 = UNCERTAINTY_MEASURE_WITH_UNIT( LENGTH_MEASURE( 0.00100000000000000 ), #29, '', '' );
#29 =  ( CONVERSION_BASED_UNIT( 'MILLIMETRE', #59 )LENGTH_UNIT(  )NAMED_UNIT( #62 ) );
#30 =  ( NAMED_UNIT( #64 )PLANE_ANGLE_UNIT(  )SI_UNIT( $, .RADIAN. ) );
#31 =  ( NAMED_UNIT( #64 )SI_UNIT( $, .STERADIAN. )SOLID_ANGLE_UNIT(  ) );
#33 = PRESENTATION_STYLE_ASSIGNMENT( ( #70 ) );
#34 = ADVANCED_FACE( '', ( #71 ), #72, .T. );
#35 = PRESENTATION_STYLE_ASSIGNMENT( ( #73 ) );
#36 = ADVANCED_FACE( '', ( #74, #75 ), #76, .F. );
#37 = PRESENTATION_STYLE_ASSIGNMENT( ( #77 ) );
#38 = ADVANCED_FACE( '', ( #78 ), #79, .F. );
#39 = PRESENTATION_STYLE_ASSIGNMENT( ( #80 ) );
#40 = ADVANCED_FACE( '', ( #81 ), #82, .T. );
#41 = PRESENTATION_STYLE_ASSIGNMENT( ( #83 ) );
#42 = ADVANCED_FACE( '', ( #84 ), #85, .F. );
#43 = PRESENTATION_STYLE_ASSIGNMENT( ( #86 ) );
#44 = ADVANCED_FACE( '', ( #87 ), #88, .F. );
#45 = PRESENTATION_STYLE_ASSIGNMENT( ( #89 ) );
#46 = ADVANCED_FACE( '', ( #90 ), #91, .T. );
#47 = PRESENTATION_STYLE_ASSIGNMENT( ( #92 ) );
#48 = ADVANCED_FACE( '', ( #93 ), #94, .T. );
#49 = PRESENTATION_STYLE_ASSIGNMENT( ( #95 ) );
#50 = ADVANCED_FACE( '', ( #96, #97 ), #98, .T. );
#51 = PRESENTATION_STYLE_ASSIGNMENT( ( #99 ) );
#52 = ADVANCED_FACE( '', ( #100 ), #101, .F. );
#53 = PRODUCT( '_K0493.4220X500_500', '_K0493.4220X500_500', 'PART-_K0493.4220X500_500-DESC', ( #102 ) );
#54 = PRODUCT_DEFINITION( 'NONE', 'NONE', #103, #2 );
#55 = MANIFOLD_SOLID_BREP( '_K0493.4220X500_500', #104 );
#56 = AXIS2_PLACEMENT_3D( '', #105, #106, #107 );
#59 = LENGTH_MEASURE_WITH_UNIT( LENGTH_MEASURE( 1.00000000000000 ), #108 );
#62 = DIMENSIONAL_EXPONENTS( 1.00000000000000, 0.000000000000000, 0.000000000000000, 0.000000000000000, 0.000000000000000, 0.000000000000000, 0.000000000000000 );
#64 = DIMENSIONAL_EXPONENTS( 0.000000000000000, 0.000000000000000, 0.000000000000000, 0.000000000000000, 0.000000000000000, 0.000000000000000, 0.000000000000000 );
#70 = SURFACE_STYLE_USAGE( .BOTH., #109 );
#71 = FACE_OUTER_BOUND( '', #110, .T. );
#72 = PLANE( '', #111 );
#73 = SURFACE_STYLE_USAGE( .BOTH., #112 );
#74 = FACE_OUTER_BOUND( '', #113, .T. );
#75 = FACE_BOUND( '', #114, .T. );
#76 = PLANE( '', #115 );
#77 = SURFACE_STYLE_USAGE( .BOTH., #116 );
#78 = FACE_OUTER_BOUND( '', #117, .T. );
#79 = PLANE( '', #118 );
#80 = SURFACE_STYLE_USAGE( .BOTH., #119 );
#81 = FACE_OUTER_BOUND( '', #120, .T. );
#82 = PLANE( '', #121 );
#83 = SURFACE_STYLE_USAGE( .BOTH., #122 );
#84 = FACE_OUTER_BOUND( '', #123, .T. );
#85 = PLANE( '', #124 );
#86 = SURFACE_STYLE_USAGE( .BOTH., #125 );
#87 = FACE_OUTER_BOUND( '', #126, .T. );
#88 = PLANE( '', #127 );
#89 = SURFACE_STYLE_USAGE( .BOTH., #128 );
#90 = FACE_OUTER_BOUND( '', #129, .T. );
#91 = PLANE( '', #130 );
#92 = SURFACE_STYLE_USAGE( .BOTH., #131 );
#93 = FACE_OUTER_BOUND( '', #132, .T. );
#94 = PLANE( '', #133 );
#95 = SURFACE_STYLE_USAGE( .BOTH., #134 );
#96 = FACE_OUTER_BOUND( '', #135, .T. );
#97 = FACE_BOUND( '', #136, .T. );
#98 = PLANE( '', #137 );
#99 = SURFACE_STYLE_USAGE( .BOTH., #138 );
#100 = FACE_OUTER_BOUND( '', #139, .T. );
#101 = PLANE( '', #140 );
#102 = PRODUCT_CONTEXT( '', #20, 'mechanical' );
#103 = PRODUCT_DEFINITION_FORMATION_WITH_SPECIFIED_SOURCE( ' ', 'NONE', #53, .NOT_KNOWN. );
#104 = CLOSED_SHELL( '', ( #44, #42, #38, #50, #36, #52, #46, #34, #40, #48 ) );
#105 = CARTESIAN_POINT( '', ( 0.000000000000000, 0.000000000000000, 0.000000000000000 ) );
#106 = DIRECTION( '', ( 0.000000000000000, 0.000000000000000, 1.00000000000000 ) );
#107 = DIRECTION( '', ( 1.00000000000000, 0.000000000000000, 0.000000000000000 ) );
#108 =  ( LENGTH_UNIT(  )NAMED_UNIT( #62 )SI_UNIT( .MILLI., .METRE. ) );
#109 = SURFACE_SIDE_STYLE( '', ( #142 ) );
#110 = EDGE_LOOP( '', ( #143, #144, #145, #146 ) );
#111 = AXIS2_PLACEMENT_3D( '', #147, #148, #149 );
#112 = SURFACE_SIDE_STYLE( '', ( #150 ) );
#113 = EDGE_LOOP( '', ( #151, #152, #153, #154 ) );
#114 = EDGE_LOOP( '', ( #155, #156, #157, #158 ) );
#115 = AXIS2_PLACEMENT_3D( '', #159, #160, #161 );
#116 = SURFACE_SIDE_STYLE( '', ( #162 ) );
#117 = EDGE_LOOP( '', ( #163, #164, #165, #166 ) );
#118 = AXIS2_PLACEMENT_3D( '', #167, #168, #169 );
#119 = SURFACE_SIDE_STYLE( '', ( #170 ) );
#120 = EDGE_LOOP( '', ( #171, #172, #173, #174 ) );
#121 = AXIS2_PLACEMENT_3D( '', #175, #176, #177 );
#122 = SURFACE_SIDE_STYLE( '', ( #178 ) );
#123 = EDGE_LOOP( '', ( #179, #180, #181, #182 ) );
#124 = AXIS2_PLACEMENT_3D( '', #183, #184, #185 );
#125 = SURFACE_SIDE_STYLE( '', ( #186 ) );
#126 = EDGE_LOOP( '', ( #187, #188, #189, #190 ) );
#127 = AXIS2_PLACEMENT_3D( '', #191, #192, #193 );
#128 = SURFACE_SIDE_STYLE( '', ( #194 ) );
#129 = EDGE_LOOP( '', ( #195, #196, #197, #198 ) );
#130 = AXIS2_PLACEMENT_3D( '', #199, #200, #201 );
#131 = SURFACE_SIDE_STYLE( '', ( #202 ) );
#132 = EDGE_LOOP( '', ( #203, #204, #205, #206 ) );
#133 = AXIS2_PLACEMENT_3D( '', #207, #208, #209 );
#134 = SURFACE_SIDE_STYLE( '', ( #210 ) );
#135 = EDGE_LOOP( '', ( #211, #212, #213, #214 ) );
#136 = EDGE_LOOP( '', ( #215, #216, #217, #218 ) );
#137 = AXIS2_PLACEMENT_3D( '', #219, #220, #221 );
#138 = SURFACE_SIDE_STYLE( '', ( #222 ) );
#139 = EDGE_LOOP( '', ( #223, #224, #225, #226 ) );
#140 = AXIS2_PLACEMENT_3D( '', #227, #228, #229 );
#142 = SURFACE_STYLE_FILL_AREA( #230 );
#143 = ORIENTED_EDGE( '', *, *, #231, .F. );
#144 = ORIENTED_EDGE( '', *, *, #232, .F. );
#145 = ORIENTED_EDGE( '', *, *, #233, .T. );
#146 = ORIENTED_EDGE( '', *, *, #234, .T. );
#147 = CARTESIAN_POINT( '', ( 500.000000000000, -8.50000000000000, 8.50000000000000 ) );
#148 = DIRECTION( '', ( -0.000000000000000, 1.00000000000000, 0.000000000000000 ) );
#149 = DIRECTION( '', ( 0.000000000000000, -0.000000000000000, 1.00000000000000 ) );
#150 = SURFACE_STYLE_FILL_AREA( #235 );
#151 = ORIENTED_EDGE( '', *, *, #236, .F. );
#152 = ORIENTED_EDGE( '', *, *, #237, .F. );
#153 = ORIENTED_EDGE( '', *, *, #238, .F. );
#154 = ORIENTED_EDGE( '', *, *, #239, .F. );
#155 = ORIENTED_EDGE( '', *, *, #240, .T. );
#156 = ORIENTED_EDGE( '', *, *, #231, .T. );
#157 = ORIENTED_EDGE( '', *, *, #241, .T. );
#158 = ORIENTED_EDGE( '', *, *, #242, .T. );
#159 = CARTESIAN_POINT( '', ( 0.000000000000000, 0.000000000000000, 0.000000000000000 ) );
#160 = DIRECTION( '', ( 1.00000000000000, 0.000000000000000, 0.000000000000000 ) );
#161 = DIRECTION( '', ( 0.000000000000000, 0.000000000000000, -1.00000000000000 ) );
#162 = SURFACE_STYLE_FILL_AREA( #243 );
#163 = ORIENTED_EDGE( '', *, *, #236, .T. );
#164 = ORIENTED_EDGE( '', *, *, #244, .F. );
#165 = ORIENTED_EDGE( '', *, *, #245, .F. );
#166 = ORIENTED_EDGE( '', *, *, #246, .T. );
#167 = CARTESIAN_POINT( '', ( 500.000000000000, 10.0000000000000, 10.0000000000000 ) );
#168 = DIRECTION( '', ( 0.000000000000000, 0.000000000000000, -1.00000000000000 ) );
#169 = DIRECTION( '', ( -1.00000000000000, 0.000000000000000, 0.000000000000000 ) );
#170 = SURFACE_STYLE_FILL_AREA( #247 );
#171 = ORIENTED_EDGE( '', *, *, #241, .F. );
#172 = ORIENTED_EDGE( '', *, *, #234, .F. );
#173 = ORIENTED_EDGE( '', *, *, #248, .T. );
#174 = ORIENTED_EDGE( '', *, *, #249, .T. );
#175 = CARTESIAN_POINT( '', ( 500.000000000000, -8.50000000000000, -8.50000000000000 ) );
#176 = DIRECTION( '', ( 0.000000000000000, 0.000000000000000, 1.00000000000000 ) );
#177 = DIRECTION( '', ( 1.00000000000000, 0.000000000000000, -0.000000000000000 ) );
#178 = SURFACE_STYLE_FILL_AREA( #250 );
#179 = ORIENTED_EDGE( '', *, *, #238, .T. );
#180 = ORIENTED_EDGE( '', *, *, #251, .F. );
#181 = ORIENTED_EDGE( '', *, *, #252, .F. );
#182 = ORIENTED_EDGE( '', *, *, #253, .T. );
#183 = CARTESIAN_POINT( '', ( 500.000000000000, -10.0000000000000, -10.0000000000000 ) );
#184 = DIRECTION( '', ( 0.000000000000000, 0.000000000000000, 1.00000000000000 ) );
#185 = DIRECTION( '', ( 1.00000000000000, 0.000000000000000, -0.000000000000000 ) );
#186 = SURFACE_STYLE_FILL_AREA( #254 );
#187 = ORIENTED_EDGE( '', *, *, #239, .T. );
#188 = ORIENTED_EDGE( '', *, *, #253, .F. );
#189 = ORIENTED_EDGE( '', *, *, #255, .F. );
#190 = ORIENTED_EDGE( '', *, *, #244, .T. );
#191 = CARTESIAN_POINT( '', ( 500.000000000000, -10.0000000000000, 10.0000000000000 ) );
#192 = DIRECTION( '', ( -0.000000000000000, 1.00000000000000, 0.000000000000000 ) );
#193 = DIRECTION( '', ( 0.000000000000000, -0.000000000000000, 1.00000000000000 ) );
#194 = SURFACE_STYLE_FILL_AREA( #256 );
#195 = ORIENTED_EDGE( '', *, *, #240, .F. );
#196 = ORIENTED_EDGE( '', *, *, #257, .F. );
#197 = ORIENTED_EDGE( '', *, *, #258, .T. );
#198 = ORIENTED_EDGE( '', *, *, #232, .T. );
#199 = CARTESIAN_POINT( '', ( 500.000000000000, 8.50000000000000, 8.50000000000000 ) );
#200 = DIRECTION( '', ( 0.000000000000000, 0.000000000000000, -1.00000000000000 ) );
#201 = DIRECTION( '', ( -1.00000000000000, 0.000000000000000, 0.000000000000000 ) );
#202 = SURFACE_STYLE_FILL_AREA( #259 );
#203 = ORIENTED_EDGE( '', *, *, #242, .F. );
#204 = ORIENTED_EDGE( '', *, *, #249, .F. );
#205 = ORIENTED_EDGE( '', *, *, #260, .T. );
#206 = ORIENTED_EDGE( '', *, *, #257, .T. );
#207 = CARTESIAN_POINT( '', ( 500.000000000000, 8.50000000000000, -8.50000000000000 ) );
#208 = DIRECTION( '', ( 0.000000000000000, -1.00000000000000, 0.000000000000000 ) );
#209 = DIRECTION( '', ( 0.000000000000000, 0.000000000000000, -1.00000000000000 ) );
#210 = SURFACE_STYLE_FILL_AREA( #261 );
#211 = ORIENTED_EDGE( '', *, *, #245, .T. );
#212 = ORIENTED_EDGE( '', *, *, #255, .T. );
#213 = ORIENTED_EDGE( '', *, *, #252, .T. );
#214 = ORIENTED_EDGE( '', *, *, #262, .T. );
#215 = ORIENTED_EDGE( '', *, *, #233, .F. );
#216 = ORIENTED_EDGE( '', *, *, #258, .F. );
#217 = ORIENTED_EDGE( '', *, *, #260, .F. );
#218 = ORIENTED_EDGE( '', *, *, #248, .F. );
#219 = CARTESIAN_POINT( '', ( 500.000000000000, 0.000000000000000, 0.000000000000000 ) );
#220 = DIRECTION( '', ( 1.00000000000000, 0.000000000000000, 0.000000000000000 ) );
#221 = DIRECTION( '', ( 0.000000000000000, 0.000000000000000, -1.00000000000000 ) );
#222 = SURFACE_STYLE_FILL_AREA( #263 );
#223 = ORIENTED_EDGE( '', *, *, #237, .T. );
#224 = ORIENTED_EDGE( '', *, *, #246, .F. );
#225 = ORIENTED_EDGE( '', *, *, #262, .F. );
#226 = ORIENTED_EDGE( '', *, *, #251, .T. );
#227 = CARTESIAN_POINT( '', ( 500.000000000000, 10.0000000000000, -10.0000000000000 ) );
#228 = DIRECTION( '', ( 0.000000000000000, -1.00000000000000, 0.000000000000000 ) );
#229 = DIRECTION( '', ( 0.000000000000000, 0.000000000000000, -1.00000000000000 ) );
#230 = FILL_AREA_STYLE( '', ( #264 ) );
#231 = EDGE_CURVE( '', #265, #266, #267, .T. );
#232 = EDGE_CURVE( '', #268, #265, #269, .T. );
#233 = EDGE_CURVE( '', #268, #270, #271, .T. );
#234 = EDGE_CURVE( '', #270, #266, #272, .T. );
#235 = FILL_AREA_STYLE( '', ( #273 ) );
#236 = EDGE_CURVE( '', #274, #275, #276, .T. );
#237 = EDGE_CURVE( '', #277, #274, #278, .T. );
#238 = EDGE_CURVE( '', #279, #277, #280, .T. );
#239 = EDGE_CURVE( '', #275, #279, #281, .T. );
#240 = EDGE_CURVE( '', #282, #265, #283, .T. );
#241 = EDGE_CURVE( '', #266, #284, #285, .T. );
#242 = EDGE_CURVE( '', #284, #282, #286, .T. );
#243 = FILL_AREA_STYLE( '', ( #287 ) );
#244 = EDGE_CURVE( '', #288, #275, #289, .T. );
#245 = EDGE_CURVE( '', #290, #288, #291, .T. );
#246 = EDGE_CURVE( '', #290, #274, #292, .T. );
#247 = FILL_AREA_STYLE( '', ( #293 ) );
#248 = EDGE_CURVE( '', #270, #294, #295, .T. );
#249 = EDGE_CURVE( '', #294, #284, #296, .T. );
#250 = FILL_AREA_STYLE( '', ( #297 ) );
#251 = EDGE_CURVE( '', #298, #277, #299, .T. );
#252 = EDGE_CURVE( '', #300, #298, #301, .T. );
#253 = EDGE_CURVE( '', #300, #279, #302, .T. );
#254 = FILL_AREA_STYLE( '', ( #303 ) );
#255 = EDGE_CURVE( '', #288, #300, #304, .T. );
#256 = FILL_AREA_STYLE( '', ( #305 ) );
#257 = EDGE_CURVE( '', #306, #282, #307, .T. );
#258 = EDGE_CURVE( '', #306, #268, #308, .T. );
#259 = FILL_AREA_STYLE( '', ( #309 ) );
#260 = EDGE_CURVE( '', #294, #306, #310, .T. );
#261 = FILL_AREA_STYLE( '', ( #311 ) );
#262 = EDGE_CURVE( '', #298, #290, #312, .T. );
#263 = FILL_AREA_STYLE( '', ( #313 ) );
#264 = FILL_AREA_STYLE_COLOUR( '', #314 );
#265 = VERTEX_POINT( '', #315 );
#266 = VERTEX_POINT( '', #316 );
#267 = LINE( '', #317, #318 );
#268 = VERTEX_POINT( '', #319 );
#269 = LINE( '', #320, #321 );
#270 = VERTEX_POINT( '', #322 );
#271 = LINE( '', #323, #324 );
#272 = LINE( '', #325, #326 );
#273 = FILL_AREA_STYLE_COLOUR( '', #327 );
#274 = VERTEX_POINT( '', #328 );
#275 = VERTEX_POINT( '', #329 );
#276 = LINE( '', #330, #331 );
#277 = VERTEX_POINT( '', #332 );
#278 = LINE( '', #333, #334 );
#279 = VERTEX_POINT( '', #335 );
#280 = LINE( '', #336, #337 );
#281 = LINE( '', #338, #339 );
#282 = VERTEX_POINT( '', #340 );
#283 = LINE( '', #341, #342 );
#284 = VERTEX_POINT( '', #343 );
#285 = LINE( '', #344, #345 );
#286 = LINE( '', #346, #347 );
#287 = FILL_AREA_STYLE_COLOUR( '', #348 );
#288 = VERTEX_POINT( '', #349 );
#289 = LINE( '', #350, #351 );
#290 = VERTEX_POINT( '', #352 );
#291 = LINE( '', #353, #354 );
#292 = LINE( '', #355, #356 );
#293 = FILL_AREA_STYLE_COLOUR( '', #357 );
#294 = VERTEX_POINT( '', #358 );
#295 = LINE( '', #359, #360 );
#296 = LINE( '', #361, #362 );
#297 = FILL_AREA_STYLE_COLOUR( '', #363 );
#298 = VERTEX_POINT( '', #364 );
#299 = LINE( '', #365, #366 );
#300 = VERTEX_POINT( '', #367 );
#301 = LINE( '', #368, #369 );
#302 = LINE( '', #370, #371 );
#303 = FILL_AREA_STYLE_COLOUR( '', #372 );
#304 = LINE( '', #373, #374 );
#305 = FILL_AREA_STYLE_COLOUR( '', #375 );
#306 = VERTEX_POINT( '', #376 );
#307 = LINE( '', #377, #378 );
#308 = LINE( '', #379, #380 );
#309 = FILL_AREA_STYLE_COLOUR( '', #381 );
#310 = LINE( '', #382, #383 );
#311 = FILL_AREA_STYLE_COLOUR( '', #384 );
#312 = LINE( '', #385, #386 );
#313 = FILL_AREA_STYLE_COLOUR( '', #387 );
#314 = COLOUR_RGB( '', 0.689999997600000, 0.689999997600000, 0.689999997600000 );
#315 = CARTESIAN_POINT( '', ( 0.000000000000000, -8.50000000000000, 8.50000000000000 ) );
#316 = CARTESIAN_POINT( '', ( 0.000000000000000, -8.50000000000000, -8.50000000000000 ) );
#317 = CARTESIAN_POINT( '', ( 0.000000000000000, -8.50000000000000, 8.50000000000000 ) );
#318 = VECTOR( '', #388, 1000.00000000000 );
#319 = CARTESIAN_POINT( '', ( 500.000000000000, -8.50000000000000, 8.50000000000000 ) );
#320 = CARTESIAN_POINT( '', ( 500.000000000000, -8.50000000000000, 8.50000000000000 ) );
#321 = VECTOR( '', #389, 1000.00000000000 );
#322 = CARTESIAN_POINT( '', ( 500.000000000000, -8.50000000000000, -8.50000000000000 ) );
#323 = CARTESIAN_POINT( '', ( 500.000000000000, -8.50000000000000, 8.50000000000000 ) );
#324 = VECTOR( '', #390, 1000.00000000000 );
#325 = CARTESIAN_POINT( '', ( 500.000000000000, -8.50000000000000, -8.50000000000000 ) );
#326 = VECTOR( '', #391, 1000.00000000000 );
#327 = COLOUR_RGB( '', 0.689999997600000, 0.689999997600000, 0.689999997600000 );
#328 = CARTESIAN_POINT( '', ( 0.000000000000000, 10.0000000000000, 10.0000000000000 ) );
#329 = CARTESIAN_POINT( '', ( 0.000000000000000, -10.0000000000000, 10.0000000000000 ) );
#330 = CARTESIAN_POINT( '', ( 0.000000000000000, 10.0000000000000, 10.0000000000000 ) );
#331 = VECTOR( '', #392, 1000.00000000000 );
#332 = CARTESIAN_POINT( '', ( 0.000000000000000, 10.0000000000000, -10.0000000000000 ) );
#333 = CARTESIAN_POINT( '', ( 0.000000000000000, 10.0000000000000, -10.0000000000000 ) );
#334 = VECTOR( '', #393, 1000.00000000000 );
#335 = CARTESIAN_POINT( '', ( 0.000000000000000, -10.0000000000000, -10.0000000000000 ) );
#336 = CARTESIAN_POINT( '', ( 0.000000000000000, -10.0000000000000, -10.0000000000000 ) );
#337 = VECTOR( '', #394, 1000.00000000000 );
#338 = CARTESIAN_POINT( '', ( 0.000000000000000, -10.0000000000000, 10.0000000000000 ) );
#339 = VECTOR( '', #395, 1000.00000000000 );
#340 = CARTESIAN_POINT( '', ( 0.000000000000000, 8.50000000000000, 8.50000000000000 ) );
#341 = CARTESIAN_POINT( '', ( 0.000000000000000, 8.50000000000000, 8.50000000000000 ) );
#342 = VECTOR( '', #396, 1000.00000000000 );
#343 = CARTESIAN_POINT( '', ( 0.000000000000000, 8.50000000000000, -8.50000000000000 ) );
#344 = CARTESIAN_POINT( '', ( 0.000000000000000, -8.50000000000000, -8.50000000000000 ) );
#345 = VECTOR( '', #397, 1000.00000000000 );
#346 = CARTESIAN_POINT( '', ( 0.000000000000000, 8.50000000000000, -8.50000000000000 ) );
#347 = VECTOR( '', #398, 1000.00000000000 );
#348 = COLOUR_RGB( '', 0.689999997600000, 0.689999997600000, 0.689999997600000 );
#349 = CARTESIAN_POINT( '', ( 500.000000000000, -10.0000000000000, 10.0000000000000 ) );
#350 = CARTESIAN_POINT( '', ( 500.000000000000, -10.0000000000000, 10.0000000000000 ) );
#351 = VECTOR( '', #399, 1000.00000000000 );
#352 = CARTESIAN_POINT( '', ( 500.000000000000, 10.0000000000000, 10.0000000000000 ) );
#353 = CARTESIAN_POINT( '', ( 500.000000000000, 10.0000000000000, 10.0000000000000 ) );
#354 = VECTOR( '', #400, 1000.00000000000 );
#355 = CARTESIAN_POINT( '', ( 500.000000000000, 10.0000000000000, 10.0000000000000 ) );
#356 = VECTOR( '', #401, 1000.00000000000 );
#357 = COLOUR_RGB( '', 0.689999997600000, 0.689999997600000, 0.689999997600000 );
#358 = CARTESIAN_POINT( '', ( 500.000000000000, 8.50000000000000, -8.50000000000000 ) );
#359 = CARTESIAN_POINT( '', ( 500.000000000000, -8.50000000000000, -8.50000000000000 ) );
#360 = VECTOR( '', #402, 1000.00000000000 );
#361 = CARTESIAN_POINT( '', ( 500.000000000000, 8.50000000000000, -8.50000000000000 ) );
#362 = VECTOR( '', #403, 1000.00000000000 );
#363 = COLOUR_RGB( '', 0.689999997600000, 0.689999997600000, 0.689999997600000 );
#364 = CARTESIAN_POINT( '', ( 500.000000000000, 10.0000000000000, -10.0000000000000 ) );
#365 = CARTESIAN_POINT( '', ( 500.000000000000, 10.0000000000000, -10.0000000000000 ) );
#366 = VECTOR( '', #404, 1000.00000000000 );
#367 = CARTESIAN_POINT( '', ( 500.000000000000, -10.0000000000000, -10.0000000000000 ) );
#368 = CARTESIAN_POINT( '', ( 500.000000000000, -10.0000000000000, -10.0000000000000 ) );
#369 = VECTOR( '', #405, 1000.00000000000 );
#370 = CARTESIAN_POINT( '', ( 500.000000000000, -10.0000000000000, -10.0000000000000 ) );
#371 = VECTOR( '', #406, 1000.00000000000 );
#372 = COLOUR_RGB( '', 0.689999997600000, 0.689999997600000, 0.689999997600000 );
#373 = CARTESIAN_POINT( '', ( 500.000000000000, -10.0000000000000, 10.0000000000000 ) );
#374 = VECTOR( '', #407, 1000.00000000000 );
#375 = COLOUR_RGB( '', 0.689999997600000, 0.689999997600000, 0.689999997600000 );
#376 = CARTESIAN_POINT( '', ( 500.000000000000, 8.50000000000000, 8.50000000000000 ) );
#377 = CARTESIAN_POINT( '', ( 500.000000000000, 8.50000000000000, 8.50000000000000 ) );
#378 = VECTOR( '', #408, 1000.00000000000 );
#379 = CARTESIAN_POINT( '', ( 500.000000000000, 8.50000000000000, 8.50000000000000 ) );
#380 = VECTOR( '', #409, 1000.00000000000 );
#381 = COLOUR_RGB( '', 0.689999997600000, 0.689999997600000, 0.689999997600000 );
#382 = CARTESIAN_POINT( '', ( 500.000000000000, 8.50000000000000, -8.50000000000000 ) );
#383 = VECTOR( '', #410, 1000.00000000000 );
#384 = COLOUR_RGB( '', 0.689999997600000, 0.689999997600000, 0.689999997600000 );
#385 = CARTESIAN_POINT( '', ( 500.000000000000, 10.0000000000000, -10.0000000000000 ) );
#386 = VECTOR( '', #411, 1000.00000000000 );
#387 = COLOUR_RGB( '', 0.689999997600000, 0.689999997600000, 0.689999997600000 );
#388 = DIRECTION( '', ( 0.000000000000000, 0.000000000000000, -1.00000000000000 ) );
#389 = DIRECTION( '', ( -1.00000000000000, -0.000000000000000, -0.000000000000000 ) );
#390 = DIRECTION( '', ( 0.000000000000000, 0.000000000000000, -1.00000000000000 ) );
#391 = DIRECTION( '', ( -1.00000000000000, -0.000000000000000, -0.000000000000000 ) );
#392 = DIRECTION( '', ( 0.000000000000000, -1.00000000000000, 0.000000000000000 ) );
#393 = DIRECTION( '', ( 0.000000000000000, 0.000000000000000, 1.00000000000000 ) );
#394 = DIRECTION( '', ( 0.000000000000000, 1.00000000000000, 0.000000000000000 ) );
#395 = DIRECTION( '', ( 0.000000000000000, 0.000000000000000, -1.00000000000000 ) );
#396 = DIRECTION( '', ( 0.000000000000000, -1.00000000000000, 0.000000000000000 ) );
#397 = DIRECTION( '', ( 0.000000000000000, 1.00000000000000, 0.000000000000000 ) );
#398 = DIRECTION( '', ( 0.000000000000000, 0.000000000000000, 1.00000000000000 ) );
#399 = DIRECTION( '', ( -1.00000000000000, -0.000000000000000, -0.000000000000000 ) );
#400 = DIRECTION( '', ( 0.000000000000000, -1.00000000000000, 0.000000000000000 ) );
#401 = DIRECTION( '', ( -1.00000000000000, -0.000000000000000, -0.000000000000000 ) );
#402 = DIRECTION( '', ( 0.000000000000000, 1.00000000000000, 0.000000000000000 ) );
#403 = DIRECTION( '', ( -1.00000000000000, -0.000000000000000, -0.000000000000000 ) );
#404 = DIRECTION( '', ( -1.00000000000000, -0.000000000000000, -0.000000000000000 ) );
#405 = DIRECTION( '', ( 0.000000000000000, 1.00000000000000, 0.000000000000000 ) );
#406 = DIRECTION( '', ( -1.00000000000000, -0.000000000000000, -0.000000000000000 ) );
#407 = DIRECTION( '', ( 0.000000000000000, 0.000000000000000, -1.00000000000000 ) );
#408 = DIRECTION( '', ( -1.00000000000000, -0.000000000000000, -0.000000000000000 ) );
#409 = DIRECTION( '', ( 0.000000000000000, -1.00000000000000, 0.000000000000000 ) );
#410 = DIRECTION( '', ( 0.000000000000000, 0.000000000000000, 1.00000000000000 ) );
#411 = DIRECTION( '', ( 0.000000000000000, 0.000000000000000, 1.00000000000000 ) );
ENDSEC;
END-ISO-10303-21;
