ISO-10303-21;
HEADER;
FILE_DESCRIPTION( ( 'STEP AP214' ), '1' );
FILE_NAME( '//goodhand-server/Shared Folders/GoodHand Data/Kipp CAD/K0390/K0390.061X50.stp', '2020-12-07T10:15:23', ( '' ), ( '' ), ' ', 'PARTsolutions', ' ' );
FILE_SCHEMA( ( 'AUTOMOTIVE_DESIGN { 1 0 10303 214 1 1 1 1 }' ) );
ENDSEC;
DATA;
#1 = MECHANICAL_DESIGN_GEOMETRIC_PRESENTATION_REPRESENTATION( ' ', ( #10, #11, #12, #13, #14, #15, #16, #17, #18, #19, #20, #21, #22 ), #6 );
#2 = PRODUCT_DEFINITION_CONTEXT( '', #23, 'design' );
#3 = APPLICATION_PROTOCOL_DEFINITION( 'international standard', 'automotive_design', 2001, #23 );
#4 = PRODUCT_CATEGORY_RELATIONSHIP( 'NONE', 'NONE', #24, #25 );
#5 = SHAPE_DEFINITION_REPRESENTATION( #26, #27 );
#6 =  ( GEOMETRIC_REPRESENTATION_CONTEXT( 3 )GLOBAL_UNCERTAINTY_ASSIGNED_CONTEXT( ( #30 ) )GLOBAL_UNIT_ASSIGNED_CONTEXT( ( #32, #33, #34 ) )REPRESENTATION_CONTEXT( 'NONE', 'WORKSPACE' ) );
#10 = STYLED_ITEM( '', ( #36 ), #37 );
#11 = STYLED_ITEM( '', ( #38 ), #39 );
#12 = STYLED_ITEM( '', ( #40 ), #41 );
#13 = STYLED_ITEM( '', ( #42 ), #43 );
#14 = STYLED_ITEM( '', ( #44 ), #45 );
#15 = STYLED_ITEM( '', ( #46 ), #47 );
#16 = STYLED_ITEM( '', ( #48 ), #49 );
#17 = STYLED_ITEM( '', ( #50 ), #51 );
#18 = STYLED_ITEM( '', ( #52 ), #53 );
#19 = STYLED_ITEM( '', ( #54 ), #55 );
#20 = STYLED_ITEM( '', ( #56 ), #57 );
#21 = STYLED_ITEM( '', ( #58 ), #59 );
#22 = STYLED_ITEM( '', ( #60 ), #61 );
#23 = APPLICATION_CONTEXT( 'core data for automotive mechanical design processes' );
#24 = PRODUCT_CATEGORY( 'part', 'NONE' );
#25 = PRODUCT_RELATED_PRODUCT_CATEGORY( 'detail', ' ', ( #62 ) );
#26 = PRODUCT_DEFINITION_SHAPE( 'NONE', 'NONE', #63 );
#27 = ADVANCED_BREP_SHAPE_REPRESENTATION( '_K0390.061X50', ( #64, #65 ), #6 );
#30 = UNCERTAINTY_MEASURE_WITH_UNIT( LENGTH_MEASURE( 0.00100000000000000 ), #32, '', '' );
#32 =  ( CONVERSION_BASED_UNIT( 'MILLIMETRE', #68 )LENGTH_UNIT(  )NAMED_UNIT( #71 ) );
#33 =  ( NAMED_UNIT( #73 )PLANE_ANGLE_UNIT(  )SI_UNIT( $, .RADIAN. ) );
#34 =  ( NAMED_UNIT( #73 )SI_UNIT( $, .STERADIAN. )SOLID_ANGLE_UNIT(  ) );
#36 = PRESENTATION_STYLE_ASSIGNMENT( ( #79 ) );
#37 = ADVANCED_FACE( '', ( #80 ), #81, .T. );
#38 = PRESENTATION_STYLE_ASSIGNMENT( ( #82 ) );
#39 = ADVANCED_FACE( '', ( #83, #84 ), #85, .T. );
#40 = PRESENTATION_STYLE_ASSIGNMENT( ( #86 ) );
#41 = ADVANCED_FACE( '', ( #87, #88 ), #89, .T. );
#42 = PRESENTATION_STYLE_ASSIGNMENT( ( #90 ) );
#43 = ADVANCED_FACE( '', ( #91 ), #92, .T. );
#44 = PRESENTATION_STYLE_ASSIGNMENT( ( #93 ) );
#45 = ADVANCED_FACE( '', ( #94 ), #95, .F. );
#46 = PRESENTATION_STYLE_ASSIGNMENT( ( #96 ) );
#47 = ADVANCED_FACE( '', ( #97, #98 ), #99, .F. );
#48 = PRESENTATION_STYLE_ASSIGNMENT( ( #100 ) );
#49 = ADVANCED_FACE( '', ( #101 ), #102, .F. );
#50 = PRESENTATION_STYLE_ASSIGNMENT( ( #103 ) );
#51 = ADVANCED_FACE( '', ( #104 ), #105, .T. );
#52 = PRESENTATION_STYLE_ASSIGNMENT( ( #106 ) );
#53 = ADVANCED_FACE( '', ( #107 ), #108, .F. );
#54 = PRESENTATION_STYLE_ASSIGNMENT( ( #109 ) );
#55 = ADVANCED_FACE( '', ( #110, #111 ), #112, .T. );
#56 = PRESENTATION_STYLE_ASSIGNMENT( ( #113 ) );
#57 = ADVANCED_FACE( '', ( #114, #115 ), #116, .T. );
#58 = PRESENTATION_STYLE_ASSIGNMENT( ( #117 ) );
#59 = ADVANCED_FACE( '', ( #118, #119 ), #120, .T. );
#60 = PRESENTATION_STYLE_ASSIGNMENT( ( #121 ) );
#61 = ADVANCED_FACE( '', ( #122 ), #123, .F. );
#62 = PRODUCT( '_K0390.061X50', '_K0390.061X50', 'PART-_K0390.061X50-DESC', ( #124 ) );
#63 = PRODUCT_DEFINITION( 'NONE', 'NONE', #125, #2 );
#64 = MANIFOLD_SOLID_BREP( '_K0390.061X50', #126 );
#65 = AXIS2_PLACEMENT_3D( '', #127, #128, #129 );
#68 = LENGTH_MEASURE_WITH_UNIT( LENGTH_MEASURE( 1.00000000000000 ), #130 );
#71 = DIMENSIONAL_EXPONENTS( 1.00000000000000, 0.000000000000000, 0.000000000000000, 0.000000000000000, 0.000000000000000, 0.000000000000000, 0.000000000000000 );
#73 = DIMENSIONAL_EXPONENTS( 0.000000000000000, 0.000000000000000, 0.000000000000000, 0.000000000000000, 0.000000000000000, 0.000000000000000, 0.000000000000000 );
#79 = SURFACE_STYLE_USAGE( .BOTH., #131 );
#80 = FACE_OUTER_BOUND( '', #132, .T. );
#81 = PLANE( '', #133 );
#82 = SURFACE_STYLE_USAGE( .BOTH., #134 );
#83 = FACE_OUTER_BOUND( '', #135, .T. );
#84 = FACE_OUTER_BOUND( '', #136, .T. );
#85 = CYLINDRICAL_SURFACE( '', #137, 2.25000000000000 );
#86 = SURFACE_STYLE_USAGE( .BOTH., #138 );
#87 = FACE_OUTER_BOUND( '', #139, .T. );
#88 = FACE_OUTER_BOUND( '', #140, .T. );
#89 = CYLINDRICAL_SURFACE( '', #141, 3.00000000000000 );
#90 = SURFACE_STYLE_USAGE( .BOTH., #142 );
#91 = FACE_OUTER_BOUND( '', #143, .T. );
#92 = CONICAL_SURFACE( '', #144, 2.38650000000000, 0.785398163400000 );
#93 = SURFACE_STYLE_USAGE( .BOTH., #145 );
#94 = FACE_OUTER_BOUND( '', #146, .T. );
#95 = PLANE( '', #147 );
#96 = SURFACE_STYLE_USAGE( .BOTH., #148 );
#97 = FACE_OUTER_BOUND( '', #149, .T. );
#98 = FACE_BOUND( '', #150, .T. );
#99 = PLANE( '', #151 );
#100 = SURFACE_STYLE_USAGE( .BOTH., #152 );
#101 = FACE_OUTER_BOUND( '', #153, .T. );
#102 = PLANE( '', #154 );
#103 = SURFACE_STYLE_USAGE( .BOTH., #155 );
#104 = FACE_OUTER_BOUND( '', #156, .T. );
#105 = CONICAL_SURFACE( '', #157, 2.38650000000000, 0.785398163400000 );
#106 = SURFACE_STYLE_USAGE( .BOTH., #158 );
#107 = FACE_OUTER_BOUND( '', #159, .T. );
#108 = PLANE( '', #160 );
#109 = SURFACE_STYLE_USAGE( .BOTH., #161 );
#110 = FACE_BOUND( '', #162, .T. );
#111 = FACE_OUTER_BOUND( '', #163, .T. );
#112 = SPHERICAL_SURFACE( '', #164, 3.77415000000000 );
#113 = SURFACE_STYLE_USAGE( .BOTH., #165 );
#114 = FACE_BOUND( '', #166, .T. );
#115 = FACE_OUTER_BOUND( '', #167, .T. );
#116 = CONICAL_SURFACE( '', #168, 3.00000000000000, 1.04717525340000 );
#117 = SURFACE_STYLE_USAGE( .BOTH., #169 );
#118 = FACE_OUTER_BOUND( '', #170, .T. );
#119 = FACE_OUTER_BOUND( '', #171, .T. );
#120 = CYLINDRICAL_SURFACE( '', #172, 2.00000000000000 );
#121 = SURFACE_STYLE_USAGE( .BOTH., #173 );
#122 = FACE_OUTER_BOUND( '', #174, .T. );
#123 = PLANE( '', #175 );
#124 = PRODUCT_CONTEXT( '', #23, 'mechanical' );
#125 = PRODUCT_DEFINITION_FORMATION_WITH_SPECIFIED_SOURCE( ' ', 'NONE', #62, .NOT_KNOWN. );
#126 = CLOSED_SHELL( '', ( #53, #49, #55, #39, #47, #59, #57, #41, #51, #61, #43, #45, #37 ) );
#127 = CARTESIAN_POINT( '', ( 0.000000000000000, 0.000000000000000, 0.000000000000000 ) );
#128 = DIRECTION( '', ( 0.000000000000000, 0.000000000000000, 1.00000000000000 ) );
#129 = DIRECTION( '', ( 1.00000000000000, 0.000000000000000, 0.000000000000000 ) );
#130 =  ( LENGTH_UNIT(  )NAMED_UNIT( #71 )SI_UNIT( .MILLI., .METRE. ) );
#131 = SURFACE_SIDE_STYLE( '', ( #177 ) );
#132 = EDGE_LOOP( '', ( #178, #179, #180, #181 ) );
#133 = AXIS2_PLACEMENT_3D( '', #182, #183, #184 );
#134 = SURFACE_SIDE_STYLE( '', ( #185 ) );
#135 = EDGE_LOOP( '', ( #186 ) );
#136 = EDGE_LOOP( '', ( #187 ) );
#137 = AXIS2_PLACEMENT_3D( '', #188, #189, #190 );
#138 = SURFACE_SIDE_STYLE( '', ( #191 ) );
#139 = EDGE_LOOP( '', ( #192 ) );
#140 = EDGE_LOOP( '', ( #193, #194, #195, #196, #197, #198, #199, #200 ) );
#141 = AXIS2_PLACEMENT_3D( '', #201, #202, #203 );
#142 = SURFACE_SIDE_STYLE( '', ( #204 ) );
#143 = EDGE_LOOP( '', ( #205, #206, #207, #208 ) );
#144 = AXIS2_PLACEMENT_3D( '', #209, #210, #211 );
#145 = SURFACE_SIDE_STYLE( '', ( #212 ) );
#146 = EDGE_LOOP( '', ( #213, #214 ) );
#147 = AXIS2_PLACEMENT_3D( '', #215, #216, #217 );
#148 = SURFACE_SIDE_STYLE( '', ( #218 ) );
#149 = EDGE_LOOP( '', ( #219 ) );
#150 = EDGE_LOOP( '', ( #220 ) );
#151 = AXIS2_PLACEMENT_3D( '', #221, #222, #223 );
#152 = SURFACE_SIDE_STYLE( '', ( #224 ) );
#153 = EDGE_LOOP( '', ( #225, #226, #227, #228, #229, #230 ) );
#154 = AXIS2_PLACEMENT_3D( '', #231, #232, #233 );
#155 = SURFACE_SIDE_STYLE( '', ( #234 ) );
#156 = EDGE_LOOP( '', ( #235, #236, #237, #238 ) );
#157 = AXIS2_PLACEMENT_3D( '', #239, #240, #241 );
#158 = SURFACE_SIDE_STYLE( '', ( #242 ) );
#159 = EDGE_LOOP( '', ( #243, #244, #245, #246, #247, #248 ) );
#160 = AXIS2_PLACEMENT_3D( '', #249, #250, #251 );
#161 = SURFACE_SIDE_STYLE( '', ( #252 ) );
#162 = VERTEX_LOOP( '', #253 );
#163 = EDGE_LOOP( '', ( #254 ) );
#164 = AXIS2_PLACEMENT_3D( '', #255, #256, #257 );
#165 = SURFACE_SIDE_STYLE( '', ( #258 ) );
#166 = EDGE_LOOP( '', ( #259 ) );
#167 = EDGE_LOOP( '', ( #260 ) );
#168 = AXIS2_PLACEMENT_3D( '', #261, #262, #263 );
#169 = SURFACE_SIDE_STYLE( '', ( #264 ) );
#170 = EDGE_LOOP( '', ( #265 ) );
#171 = EDGE_LOOP( '', ( #266 ) );
#172 = AXIS2_PLACEMENT_3D( '', #267, #268, #269 );
#173 = SURFACE_SIDE_STYLE( '', ( #270 ) );
#174 = EDGE_LOOP( '', ( #271, #272 ) );
#175 = AXIS2_PLACEMENT_3D( '', #273, #274, #275 );
#177 = SURFACE_STYLE_FILL_AREA( #276 );
#178 = ORIENTED_EDGE( '', *, *, #277, .T. );
#179 = ORIENTED_EDGE( '', *, *, #278, .T. );
#180 = ORIENTED_EDGE( '', *, *, #279, .T. );
#181 = ORIENTED_EDGE( '', *, *, #280, .T. );
#182 = CARTESIAN_POINT( '', ( 3.00000000000000, 0.000000000000000, 0.000000000000000 ) );
#183 = DIRECTION( '', ( -1.00000000000000, 0.000000000000000, 0.000000000000000 ) );
#184 = DIRECTION( '', ( 0.000000000000000, 0.000000000000000, 1.00000000000000 ) );
#185 = SURFACE_STYLE_FILL_AREA( #281 );
#186 = ORIENTED_EDGE( '', *, *, #282, .F. );
#187 = ORIENTED_EDGE( '', *, *, #283, .T. );
#188 = CARTESIAN_POINT( '', ( 50.0000000000000, -1.33226762955019E-15, 0.000000000000000 ) );
#189 = DIRECTION( '', ( -1.00000000000000, 6.12323399573677E-17, 0.000000000000000 ) );
#190 = DIRECTION( '', ( 6.12323399573677E-17, 1.00000000000000, 0.000000000000000 ) );
#191 = SURFACE_STYLE_FILL_AREA( #284 );
#192 = ORIENTED_EDGE( '', *, *, #285, .F. );
#193 = ORIENTED_EDGE( '', *, *, #286, .T. );
#194 = ORIENTED_EDGE( '', *, *, #287, .T. );
#195 = ORIENTED_EDGE( '', *, *, #277, .F. );
#196 = ORIENTED_EDGE( '', *, *, #288, .T. );
#197 = ORIENTED_EDGE( '', *, *, #289, .T. );
#198 = ORIENTED_EDGE( '', *, *, #290, .T. );
#199 = ORIENTED_EDGE( '', *, *, #279, .F. );
#200 = ORIENTED_EDGE( '', *, *, #291, .T. );
#201 = CARTESIAN_POINT( '', ( 50.0000000000000, -1.33226762955019E-15, 0.000000000000000 ) );
#202 = DIRECTION( '', ( -1.00000000000000, 6.12323399573677E-17, 0.000000000000000 ) );
#203 = DIRECTION( '', ( 6.12323399573677E-17, 1.00000000000000, 0.000000000000000 ) );
#204 = SURFACE_STYLE_FILL_AREA( #292 );
#205 = ORIENTED_EDGE( '', *, *, #286, .F. );
#206 = ORIENTED_EDGE( '', *, *, #293, .T. );
#207 = ORIENTED_EDGE( '', *, *, #294, .T. );
#208 = ORIENTED_EDGE( '', *, *, #295, .T. );
#209 = CARTESIAN_POINT( '', ( 0.000000000000000, 1.72934936831820E-15, 0.000000000000000 ) );
#210 = DIRECTION( '', ( 1.00000000000000, -6.12323399573677E-17, -0.000000000000000 ) );
#211 = DIRECTION( '', ( 6.12323399573677E-17, 1.00000000000000, 0.000000000000000 ) );
#212 = SURFACE_STYLE_FILL_AREA( #296 );
#213 = ORIENTED_EDGE( '', *, *, #297, .F. );
#214 = ORIENTED_EDGE( '', *, *, #298, .F. );
#215 = CARTESIAN_POINT( '', ( -7.30654896541290E-17, 1.72934936831820E-15, 0.000000000000000 ) );
#216 = DIRECTION( '', ( 1.00000000000000, -6.12323399573677E-17, -0.000000000000000 ) );
#217 = DIRECTION( '', ( 6.12323399573677E-17, 1.00000000000000, 0.000000000000000 ) );
#218 = SURFACE_STYLE_FILL_AREA( #299 );
#219 = ORIENTED_EDGE( '', *, *, #283, .F. );
#220 = ORIENTED_EDGE( '', *, *, #300, .T. );
#221 = CARTESIAN_POINT( '', ( 47.5000000000000, 2.00000000000000, 0.000000000000000 ) );
#222 = DIRECTION( '', ( 1.00000000000000, -6.12323399573677E-17, -0.000000000000000 ) );
#223 = DIRECTION( '', ( 6.12323399573677E-17, 1.00000000000000, 0.000000000000000 ) );
#224 = SURFACE_STYLE_FILL_AREA( #301 );
#225 = ORIENTED_EDGE( '', *, *, #302, .T. );
#226 = ORIENTED_EDGE( '', *, *, #293, .F. );
#227 = ORIENTED_EDGE( '', *, *, #291, .F. );
#228 = ORIENTED_EDGE( '', *, *, #278, .F. );
#229 = ORIENTED_EDGE( '', *, *, #287, .F. );
#230 = ORIENTED_EDGE( '', *, *, #295, .F. );
#231 = CARTESIAN_POINT( '', ( 3.00000000000000, -0.899999999999998, -10.5000000000000 ) );
#232 = DIRECTION( '', ( 0.000000000000000, -1.00000000000000, 0.000000000000000 ) );
#233 = DIRECTION( '', ( 0.000000000000000, 0.000000000000000, -1.00000000000000 ) );
#234 = SURFACE_STYLE_FILL_AREA( #303 );
#235 = ORIENTED_EDGE( '', *, *, #297, .T. );
#236 = ORIENTED_EDGE( '', *, *, #304, .T. );
#237 = ORIENTED_EDGE( '', *, *, #289, .F. );
#238 = ORIENTED_EDGE( '', *, *, #305, .T. );
#239 = CARTESIAN_POINT( '', ( 0.000000000000000, 1.72934936831820E-15, 0.000000000000000 ) );
#240 = DIRECTION( '', ( 1.00000000000000, -6.12323399573677E-17, -0.000000000000000 ) );
#241 = DIRECTION( '', ( 6.12323399573677E-17, 1.00000000000000, 0.000000000000000 ) );
#242 = SURFACE_STYLE_FILL_AREA( #306 );
#243 = ORIENTED_EDGE( '', *, *, #304, .F. );
#244 = ORIENTED_EDGE( '', *, *, #298, .T. );
#245 = ORIENTED_EDGE( '', *, *, #305, .F. );
#246 = ORIENTED_EDGE( '', *, *, #288, .F. );
#247 = ORIENTED_EDGE( '', *, *, #280, .F. );
#248 = ORIENTED_EDGE( '', *, *, #290, .F. );
#249 = CARTESIAN_POINT( '', ( 3.00000000000000, 0.900000000000002, 10.5000000000000 ) );
#250 = DIRECTION( '', ( 0.000000000000000, 1.00000000000000, 0.000000000000000 ) );
#251 = DIRECTION( '', ( 0.000000000000000, -0.000000000000000, 1.00000000000000 ) );
#252 = SURFACE_STYLE_FILL_AREA( #307 );
#253 = VERTEX_POINT( '', #308 );
#254 = ORIENTED_EDGE( '', *, *, #282, .T. );
#255 = CARTESIAN_POINT( '', ( 46.2258499999999, -2.88397777881144E-14, 0.000000000000000 ) );
#256 = DIRECTION( '', ( 1.00000000000000, 0.000000000000000, 0.000000000000000 ) );
#257 = DIRECTION( '', ( 0.000000000000000, 1.00000000000000, 0.000000000000000 ) );
#258 = SURFACE_STYLE_FILL_AREA( #309 );
#259 = ORIENTED_EDGE( '', *, *, #310, .F. );
#260 = ORIENTED_EDGE( '', *, *, #285, .T. );
#261 = CARTESIAN_POINT( '', ( 44.0000000000000, -9.64873589805982E-16, 0.000000000000000 ) );
#262 = DIRECTION( '', ( -1.00000000000000, 6.12323399573677E-17, -0.000000000000000 ) );
#263 = DIRECTION( '', ( -6.12323399573677E-17, -1.00000000000000, 0.000000000000000 ) );
#264 = SURFACE_STYLE_FILL_AREA( #311 );
#265 = ORIENTED_EDGE( '', *, *, #300, .F. );
#266 = ORIENTED_EDGE( '', *, *, #310, .T. );
#267 = CARTESIAN_POINT( '', ( 50.0000000000000, -1.33226762955019E-15, 0.000000000000000 ) );
#268 = DIRECTION( '', ( -1.00000000000000, 6.12323399573677E-17, 0.000000000000000 ) );
#269 = DIRECTION( '', ( 6.12323399573677E-17, 1.00000000000000, 0.000000000000000 ) );
#270 = SURFACE_STYLE_FILL_AREA( #312 );
#271 = ORIENTED_EDGE( '', *, *, #294, .F. );
#272 = ORIENTED_EDGE( '', *, *, #302, .F. );
#273 = CARTESIAN_POINT( '', ( -7.30654896541290E-17, 1.72934936831820E-15, 0.000000000000000 ) );
#274 = DIRECTION( '', ( 1.00000000000000, -6.12323399573677E-17, -0.000000000000000 ) );
#275 = DIRECTION( '', ( 6.12323399573677E-17, 1.00000000000000, 0.000000000000000 ) );
#276 = FILL_AREA_STYLE( '', ( #313 ) );
#277 = EDGE_CURVE( '', #314, #315, #316, .T. );
#278 = EDGE_CURVE( '', #315, #317, #318, .T. );
#279 = EDGE_CURVE( '', #317, #319, #320, .T. );
#280 = EDGE_CURVE( '', #319, #314, #321, .T. );
#281 = FILL_AREA_STYLE( '', ( #322 ) );
#282 = EDGE_CURVE( '', #323, #323, #324, .T. );
#283 = EDGE_CURVE( '', #325, #325, #326, .T. );
#284 = FILL_AREA_STYLE( '', ( #327 ) );
#285 = EDGE_CURVE( '', #328, #328, #329, .T. );
#286 = EDGE_CURVE( '', #330, #331, #332, .T. );
#287 = EDGE_CURVE( '', #331, #315, #333, .T. );
#288 = EDGE_CURVE( '', #314, #334, #335, .F. );
#289 = EDGE_CURVE( '', #334, #336, #337, .T. );
#290 = EDGE_CURVE( '', #336, #319, #338, .T. );
#291 = EDGE_CURVE( '', #317, #330, #339, .F. );
#292 = FILL_AREA_STYLE( '', ( #340 ) );
#293 = EDGE_CURVE( '', #330, #341, #342, .T. );
#294 = EDGE_CURVE( '', #341, #343, #344, .T. );
#295 = EDGE_CURVE( '', #343, #331, #345, .T. );
#296 = FILL_AREA_STYLE( '', ( #346 ) );
#297 = EDGE_CURVE( '', #347, #348, #349, .T. );
#298 = EDGE_CURVE( '', #348, #347, #350, .T. );
#299 = FILL_AREA_STYLE( '', ( #351 ) );
#300 = EDGE_CURVE( '', #352, #352, #353, .T. );
#301 = FILL_AREA_STYLE( '', ( #354 ) );
#302 = EDGE_CURVE( '', #343, #341, #355, .T. );
#303 = FILL_AREA_STYLE( '', ( #356 ) );
#304 = EDGE_CURVE( '', #348, #336, #357, .T. );
#305 = EDGE_CURVE( '', #334, #347, #358, .T. );
#306 = FILL_AREA_STYLE( '', ( #359 ) );
#307 = FILL_AREA_STYLE( '', ( #360 ) );
#308 = CARTESIAN_POINT( '', ( 50.0000000000000, -2.88397777881144E-14, 0.000000000000000 ) );
#309 = FILL_AREA_STYLE( '', ( #361 ) );
#310 = EDGE_CURVE( '', #362, #362, #363, .T. );
#311 = FILL_AREA_STYLE( '', ( #364 ) );
#312 = FILL_AREA_STYLE( '', ( #365 ) );
#313 = FILL_AREA_STYLE_COLOUR( '', #366 );
#314 = VERTEX_POINT( '', #367 );
#315 = VERTEX_POINT( '', #368 );
#316 = CIRCLE( '', #369, 3.00000000000000 );
#317 = VERTEX_POINT( '', #370 );
#318 = LINE( '', #371, #372 );
#319 = VERTEX_POINT( '', #373 );
#320 = CIRCLE( '', #374, 3.00000000000000 );
#321 = LINE( '', #375, #376 );
#322 = FILL_AREA_STYLE_COLOUR( '', #377 );
#323 = VERTEX_POINT( '', #378 );
#324 = CIRCLE( '', #379, 2.25000000000000 );
#325 = VERTEX_POINT( '', #380 );
#326 = CIRCLE( '', #381, 2.25000000000000 );
#327 = FILL_AREA_STYLE_COLOUR( '', #382 );
#328 = VERTEX_POINT( '', #383 );
#329 = CIRCLE( '', #384, 3.00000000000000 );
#330 = VERTEX_POINT( '', #385 );
#331 = VERTEX_POINT( '', #386 );
#332 = CIRCLE( '', #387, 3.00000000000000 );
#333 = LINE( '', #388, #389 );
#334 = VERTEX_POINT( '', #390 );
#335 = LINE( '', #391, #392 );
#336 = VERTEX_POINT( '', #393 );
#337 = CIRCLE( '', #394, 3.00000000000000 );
#338 = LINE( '', #395, #396 );
#339 = LINE( '', #397, #398 );
#340 = FILL_AREA_STYLE_COLOUR( '', #399 );
#341 = VERTEX_POINT( '', #400 );
#342 = B_SPLINE_CURVE_WITH_KNOTS( '', 3, ( #401, #402, #403, #404 ), .UNSPECIFIED., .F., .F., ( 4, 4 ), ( 0.00517174792821181, 0.00606665925501704 ), .UNSPECIFIED. );
#343 = VERTEX_POINT( '', #405 );
#344 = CIRCLE( '', #406, 2.38650000000000 );
#345 = B_SPLINE_CURVE_WITH_KNOTS( '', 3, ( #407, #408, #409, #410 ), .UNSPECIFIED., .F., .F., ( 4, 4 ), ( 0.0114683889299691, 0.0123621468805004 ), .UNSPECIFIED. );
#346 = FILL_AREA_STYLE_COLOUR( '', #411 );
#347 = VERTEX_POINT( '', #412 );
#348 = VERTEX_POINT( '', #413 );
#349 = CIRCLE( '', #414, 2.38650000000000 );
#350 = LINE( '', #415, #416 );
#351 = FILL_AREA_STYLE_COLOUR( '', #417 );
#352 = VERTEX_POINT( '', #418 );
#353 = CIRCLE( '', #419, 2.00000000000000 );
#354 = FILL_AREA_STYLE_COLOUR( '', #420 );
#355 = LINE( '', #421, #422 );
#356 = FILL_AREA_STYLE_COLOUR( '', #423 );
#357 = B_SPLINE_CURVE_WITH_KNOTS( '', 3, ( #424, #425, #426, #427 ), .UNSPECIFIED., .F., .F., ( 4, 4 ), ( 0.0114683889299691, 0.0123621468805004 ), .UNSPECIFIED. );
#358 = B_SPLINE_CURVE_WITH_KNOTS( '', 3, ( #428, #429, #430, #431 ), .UNSPECIFIED., .F., .F., ( 4, 4 ), ( 0.00517174792821181, 0.00606665925501704 ), .UNSPECIFIED. );
#359 = FILL_AREA_STYLE_COLOUR( '', #432 );
#360 = FILL_AREA_STYLE_COLOUR( '', #433 );
#361 = FILL_AREA_STYLE_COLOUR( '', #434 );
#362 = VERTEX_POINT( '', #435 );
#363 = CIRCLE( '', #436, 2.00000000000000 );
#364 = FILL_AREA_STYLE_COLOUR( '', #437 );
#365 = FILL_AREA_STYLE_COLOUR( '', #438 );
#366 = COLOUR_RGB( '', 0.689999997600000, 0.689999997600000, 0.689999997600000 );
#367 = CARTESIAN_POINT( '', ( 3.00000000000000, 0.900000000000002, -2.86181760425084 ) );
#368 = CARTESIAN_POINT( '', ( 3.00000000000000, -0.899999999999998, -2.86181760425084 ) );
#369 = AXIS2_PLACEMENT_3D( '', #439, #440, #441 );
#370 = CARTESIAN_POINT( '', ( 3.00000000000000, -0.899999999999998, 2.86181760425084 ) );
#371 = CARTESIAN_POINT( '', ( 3.00000000000000, -0.899999999999998, -10.5000000000000 ) );
#372 = VECTOR( '', #442, 1000.00000000000 );
#373 = CARTESIAN_POINT( '', ( 3.00000000000000, 0.900000000000002, 2.86181760425084 ) );
#374 = AXIS2_PLACEMENT_3D( '', #443, #444, #445 );
#375 = CARTESIAN_POINT( '', ( 3.00000000000000, 0.900000000000002, 10.5000000000000 ) );
#376 = VECTOR( '', #446, 1000.00000000000 );
#377 = COLOUR_RGB( '', 0.689999997600000, 0.689999997600000, 0.689999997600000 );
#378 = CARTESIAN_POINT( '', ( 49.2559833671144, 2.25000000000000, 0.000000000000000 ) );
#379 = AXIS2_PLACEMENT_3D( '', #447, #448, #449 );
#380 = CARTESIAN_POINT( '', ( 47.5000000000000, 2.25000000000000, 0.000000000000000 ) );
#381 = AXIS2_PLACEMENT_3D( '', #450, #451, #452 );
#382 = COLOUR_RGB( '', 0.689999997600000, 0.689999997600000, 0.689999997600000 );
#383 = CARTESIAN_POINT( '', ( 44.0000000000000, 3.00000000000000, 0.000000000000000 ) );
#384 = AXIS2_PLACEMENT_3D( '', #453, #454, #455 );
#385 = CARTESIAN_POINT( '', ( 0.613500000000003, -0.899999999999995, 2.86181760425084 ) );
#386 = CARTESIAN_POINT( '', ( 0.613500000000003, -0.899999999999995, -2.86181760425084 ) );
#387 = AXIS2_PLACEMENT_3D( '', #456, #457, #458 );
#388 = CARTESIAN_POINT( '', ( 50.0000000000000, -0.899999999999998, -2.86181760425084 ) );
#389 = VECTOR( '', #459, 1000.00000000000 );
#390 = CARTESIAN_POINT( '', ( 0.613500000000003, 0.900000000000005, -2.86181760425084 ) );
#391 = CARTESIAN_POINT( '', ( 50.0000000000000, 0.900000000000002, -2.86181760425084 ) );
#392 = VECTOR( '', #460, 1000.00000000000 );
#393 = CARTESIAN_POINT( '', ( 0.613500000000003, 0.900000000000005, 2.86181760425084 ) );
#394 = AXIS2_PLACEMENT_3D( '', #461, #462, #463 );
#395 = CARTESIAN_POINT( '', ( 50.0000000000000, 0.900000000000002, 2.86181760425084 ) );
#396 = VECTOR( '', #464, 1000.00000000000 );
#397 = CARTESIAN_POINT( '', ( 50.0000000000000, -0.899999999999998, 2.86181760425084 ) );
#398 = VECTOR( '', #465, 1000.00000000000 );
#399 = COLOUR_RGB( '', 0.689999997600000, 0.689999997600000, 0.689999997600000 );
#400 = CARTESIAN_POINT( '', ( 0.000000000000000, -0.899999999999998, 2.21029008277194 ) );
#401 = CARTESIAN_POINT( '', ( 0.613500000000003, -0.899999999999998, 2.86181760425084 ) );
#402 = CARTESIAN_POINT( '', ( 0.407595119446492, -0.899999999999998, 2.64597064015955 ) );
#403 = CARTESIAN_POINT( '', ( 0.202709233475277, -0.899999999999998, 2.42915980917548 ) );
#404 = CARTESIAN_POINT( '', ( -3.83957656086282E-16, -0.899999999999998, 2.21029008277194 ) );
#405 = CARTESIAN_POINT( '', ( 0.000000000000000, -0.899999999999998, -2.21029008277194 ) );
#406 = AXIS2_PLACEMENT_3D( '', #466, #467, #468 );
#407 = CARTESIAN_POINT( '', ( -1.06495352453503E-15, -0.899999999999998, -2.21029008277194 ) );
#408 = CARTESIAN_POINT( '', ( 0.202635101633544, -0.899999999999998, -2.42907976735578 ) );
#409 = CARTESIAN_POINT( '', ( 0.407562831349364, -0.899999999999998, -2.64593679303693 ) );
#410 = CARTESIAN_POINT( '', ( 0.613500000000004, -0.899999999999998, -2.86181760425084 ) );
#411 = COLOUR_RGB( '', 0.689999997600000, 0.689999997600000, 0.689999997600000 );
#412 = CARTESIAN_POINT( '', ( 0.000000000000000, 0.900000000000002, -2.21029008277194 ) );
#413 = CARTESIAN_POINT( '', ( 0.000000000000000, 0.900000000000002, 2.21029008277194 ) );
#414 = AXIS2_PLACEMENT_3D( '', #469, #470, #471 );
#415 = CARTESIAN_POINT( '', ( 0.000000000000000, 0.900000000000002, 10.5000000000000 ) );
#416 = VECTOR( '', #472, 1000.00000000000 );
#417 = COLOUR_RGB( '', 0.689999997600000, 0.689999997600000, 0.689999997600000 );
#418 = CARTESIAN_POINT( '', ( 47.5000000000000, 2.00000000000000, 0.000000000000000 ) );
#419 = AXIS2_PLACEMENT_3D( '', #473, #474, #475 );
#420 = COLOUR_RGB( '', 0.689999997600000, 0.689999997600000, 0.689999997600000 );
#421 = CARTESIAN_POINT( '', ( 0.000000000000000, -0.899999999999998, -10.5000000000000 ) );
#422 = VECTOR( '', #476, 1000.00000000000 );
#423 = COLOUR_RGB( '', 0.689999997600000, 0.689999997600000, 0.689999997600000 );
#424 = CARTESIAN_POINT( '', ( -1.25453026698814E-15, 0.900000000000002, 2.21029008277194 ) );
#425 = CARTESIAN_POINT( '', ( 0.202635101633543, 0.900000000000002, 2.42907976735578 ) );
#426 = CARTESIAN_POINT( '', ( 0.407562831349363, 0.900000000000002, 2.64593679303693 ) );
#427 = CARTESIAN_POINT( '', ( 0.613500000000002, 0.900000000000002, 2.86181760425084 ) );
#428 = CARTESIAN_POINT( '', ( 0.613500000000002, 0.900000000000002, -2.86181760425084 ) );
#429 = CARTESIAN_POINT( '', ( 0.407595119446491, 0.900000000000002, -2.64597064015955 ) );
#430 = CARTESIAN_POINT( '', ( 0.202709233475277, 0.900000000000002, -2.42915980917548 ) );
#431 = CARTESIAN_POINT( '', ( -3.31094482839699E-16, 0.900000000000002, -2.21029008277194 ) );
#432 = COLOUR_RGB( '', 0.689999997600000, 0.689999997600000, 0.689999997600000 );
#433 = COLOUR_RGB( '', 0.689999997600000, 0.689999997600000, 0.689999997600000 );
#434 = COLOUR_RGB( '', 0.689999997600000, 0.689999997600000, 0.689999997600000 );
#435 = CARTESIAN_POINT( '', ( 44.5773800000000, 2.00000000000000, 0.000000000000000 ) );
#436 = AXIS2_PLACEMENT_3D( '', #477, #478, #479 );
#437 = COLOUR_RGB( '', 0.689999997600000, 0.689999997600000, 0.689999997600000 );
#438 = COLOUR_RGB( '', 0.689999997600000, 0.689999997600000, 0.689999997600000 );
#439 = CARTESIAN_POINT( '', ( 3.00000000000000, 1.54565234844609E-15, 0.000000000000000 ) );
#440 = DIRECTION( '', ( -1.00000000000000, 0.000000000000000, 0.000000000000000 ) );
#441 = DIRECTION( '', ( 0.000000000000000, 0.000000000000000, 1.00000000000000 ) );
#442 = DIRECTION( '', ( 0.000000000000000, 0.000000000000000, 1.00000000000000 ) );
#443 = CARTESIAN_POINT( '', ( 3.00000000000000, 1.54565234844609E-15, 0.000000000000000 ) );
#444 = DIRECTION( '', ( -1.00000000000000, 0.000000000000000, 0.000000000000000 ) );
#445 = DIRECTION( '', ( 0.000000000000000, 0.000000000000000, 1.00000000000000 ) );
#446 = DIRECTION( '', ( 0.000000000000000, 0.000000000000000, -1.00000000000000 ) );
#447 = CARTESIAN_POINT( '', ( 49.2559833671144, -1.28670975015140E-15, 0.000000000000000 ) );
#448 = DIRECTION( '', ( 1.00000000000000, -6.12323399573677E-17, -0.000000000000000 ) );
#449 = DIRECTION( '', ( 6.12323399573677E-17, 1.00000000000000, 0.000000000000000 ) );
#450 = CARTESIAN_POINT( '', ( 47.5000000000000, -1.17918677965677E-15, 0.000000000000000 ) );
#451 = DIRECTION( '', ( 1.00000000000000, -6.12323399573677E-17, -0.000000000000000 ) );
#452 = DIRECTION( '', ( 6.12323399573677E-17, 1.00000000000000, 0.000000000000000 ) );
#453 = CARTESIAN_POINT( '', ( 44.0000000000000, -9.64873589805982E-16, 0.000000000000000 ) );
#454 = DIRECTION( '', ( 1.00000000000000, -6.12323399573677E-17, -0.000000000000000 ) );
#455 = DIRECTION( '', ( 6.12323399573677E-17, 1.00000000000000, 0.000000000000000 ) );
#456 = CARTESIAN_POINT( '', ( 0.613500000000003, 1.69178332775435E-15, 0.000000000000000 ) );
#457 = DIRECTION( '', ( 1.00000000000000, -6.12323399573677E-17, -0.000000000000000 ) );
#458 = DIRECTION( '', ( 6.12323399573677E-17, 1.00000000000000, 0.000000000000000 ) );
#459 = DIRECTION( '', ( 1.00000000000000, -6.12323399573677E-17, -0.000000000000000 ) );
#460 = DIRECTION( '', ( 1.00000000000000, -6.12323399573677E-17, -0.000000000000000 ) );
#461 = CARTESIAN_POINT( '', ( 0.613500000000003, 1.69178332775435E-15, 0.000000000000000 ) );
#462 = DIRECTION( '', ( 1.00000000000000, -6.12323399573677E-17, -0.000000000000000 ) );
#463 = DIRECTION( '', ( 6.12323399573677E-17, 1.00000000000000, 0.000000000000000 ) );
#464 = DIRECTION( '', ( 1.00000000000000, -6.12323399573677E-17, -0.000000000000000 ) );
#465 = DIRECTION( '', ( 1.00000000000000, -6.12323399573677E-17, -0.000000000000000 ) );
#466 = CARTESIAN_POINT( '', ( 0.000000000000000, 1.72934936831820E-15, 0.000000000000000 ) );
#467 = DIRECTION( '', ( 1.00000000000000, -6.12323399573677E-17, -0.000000000000000 ) );
#468 = DIRECTION( '', ( 6.12323399573677E-17, 1.00000000000000, 0.000000000000000 ) );
#469 = CARTESIAN_POINT( '', ( 0.000000000000000, 1.72934936831820E-15, 0.000000000000000 ) );
#470 = DIRECTION( '', ( 1.00000000000000, -6.12323399573677E-17, -0.000000000000000 ) );
#471 = DIRECTION( '', ( 6.12323399573677E-17, 1.00000000000000, 0.000000000000000 ) );
#472 = DIRECTION( '', ( 0.000000000000000, 0.000000000000000, -1.00000000000000 ) );
#473 = CARTESIAN_POINT( '', ( 47.5000000000000, -1.17918677965677E-15, 0.000000000000000 ) );
#474 = DIRECTION( '', ( 1.00000000000000, -6.12323399573677E-17, -0.000000000000000 ) );
#475 = DIRECTION( '', ( 6.12323399573677E-17, 1.00000000000000, 0.000000000000000 ) );
#476 = DIRECTION( '', ( 0.000000000000000, 0.000000000000000, 1.00000000000000 ) );
#477 = CARTESIAN_POINT( '', ( 44.5773800000000, -1.00022791825057E-15, 0.000000000000000 ) );
#478 = DIRECTION( '', ( 1.00000000000000, -6.12323399573677E-17, -0.000000000000000 ) );
#479 = DIRECTION( '', ( 6.12323399573677E-17, 1.00000000000000, 0.000000000000000 ) );
ENDSEC;
END-ISO-10303-21;
