ISO-10303-21;
HEADER;
FILE_DESCRIPTION( ( 'STEP AP214' ), '1' );
FILE_NAME( '//goodhand-server/Shared Folders/GoodHand Data/Kipp CAD/K0570/K0570.05003057.stp', '2020-12-09T08:43:43', ( '' ), ( '' ), ' ', 'PARTsolutions', ' ' );
FILE_SCHEMA( ( 'AUTOMOTIVE_DESIGN { 1 0 10303 214 1 1 1 1 }' ) );
ENDSEC;
DATA;
#1 = MECHANICAL_DESIGN_GEOMETRIC_PRESENTATION_REPRESENTATION( ' ', ( #10, #11, #12, #13, #14, #15, #16, #17, #18, #19, #20 ), #6 );
#2 = PRODUCT_DEFINITION_CONTEXT( '', #21, 'design' );
#3 = APPLICATION_PROTOCOL_DEFINITION( 'international standard', 'automotive_design', 2001, #21 );
#4 = PRODUCT_CATEGORY_RELATIONSHIP( 'NONE', 'NONE', #22, #23 );
#5 = SHAPE_DEFINITION_REPRESENTATION( #24, #25 );
#6 =  ( GEOMETRIC_REPRESENTATION_CONTEXT( 3 )GLOBAL_UNCERTAINTY_ASSIGNED_CONTEXT( ( #28 ) )GLOBAL_UNIT_ASSIGNED_CONTEXT( ( #30, #31, #32 ) )REPRESENTATION_CONTEXT( 'NONE', 'WORKSPACE' ) );
#10 = STYLED_ITEM( '', ( #34 ), #35 );
#11 = STYLED_ITEM( '', ( #36 ), #37 );
#12 = STYLED_ITEM( '', ( #38 ), #39 );
#13 = STYLED_ITEM( '', ( #40 ), #41 );
#14 = STYLED_ITEM( '', ( #42 ), #43 );
#15 = STYLED_ITEM( '', ( #44 ), #45 );
#16 = STYLED_ITEM( '', ( #46 ), #47 );
#17 = STYLED_ITEM( '', ( #48 ), #49 );
#18 = STYLED_ITEM( '', ( #50 ), #51 );
#19 = STYLED_ITEM( '', ( #52 ), #53 );
#20 = STYLED_ITEM( '', ( #54 ), #55 );
#21 = APPLICATION_CONTEXT( 'core data for automotive mechanical design processes' );
#22 = PRODUCT_CATEGORY( 'part', 'NONE' );
#23 = PRODUCT_RELATED_PRODUCT_CATEGORY( 'detail', ' ', ( #56 ) );
#24 = PRODUCT_DEFINITION_SHAPE( 'NONE', 'NONE', #57 );
#25 = ADVANCED_BREP_SHAPE_REPRESENTATION( '_K0570.05003057', ( #58, #59 ), #6 );
#28 = UNCERTAINTY_MEASURE_WITH_UNIT( LENGTH_MEASURE( 0.00100000000000000 ), #30, '', '' );
#30 =  ( CONVERSION_BASED_UNIT( 'MILLIMETRE', #62 )LENGTH_UNIT(  )NAMED_UNIT( #65 ) );
#31 =  ( NAMED_UNIT( #67 )PLANE_ANGLE_UNIT(  )SI_UNIT( $, .RADIAN. ) );
#32 =  ( NAMED_UNIT( #67 )SI_UNIT( $, .STERADIAN. )SOLID_ANGLE_UNIT(  ) );
#34 = PRESENTATION_STYLE_ASSIGNMENT( ( #73 ) );
#35 = ADVANCED_FACE( '', ( #74 ), #75, .F. );
#36 = PRESENTATION_STYLE_ASSIGNMENT( ( #76 ) );
#37 = ADVANCED_FACE( '', ( #77, #78 ), #79, .F. );
#38 = PRESENTATION_STYLE_ASSIGNMENT( ( #80 ) );
#39 = ADVANCED_FACE( '', ( #81, #82 ), #83, .F. );
#40 = PRESENTATION_STYLE_ASSIGNMENT( ( #84 ) );
#41 = ADVANCED_FACE( '', ( #85, #86 ), #87, .T. );
#42 = PRESENTATION_STYLE_ASSIGNMENT( ( #88 ) );
#43 = ADVANCED_FACE( '', ( #89, #90 ), #91, .F. );
#44 = PRESENTATION_STYLE_ASSIGNMENT( ( #92 ) );
#45 = ADVANCED_FACE( '', ( #93, #94 ), #95, .F. );
#46 = PRESENTATION_STYLE_ASSIGNMENT( ( #96 ) );
#47 = ADVANCED_FACE( '', ( #97, #98 ), #99, .F. );
#48 = PRESENTATION_STYLE_ASSIGNMENT( ( #100 ) );
#49 = ADVANCED_FACE( '', ( #101, #102 ), #103, .T. );
#50 = PRESENTATION_STYLE_ASSIGNMENT( ( #104 ) );
#51 = ADVANCED_FACE( '', ( #105, #106 ), #107, .F. );
#52 = PRESENTATION_STYLE_ASSIGNMENT( ( #108 ) );
#53 = ADVANCED_FACE( '', ( #109, #110 ), #111, .F. );
#54 = PRESENTATION_STYLE_ASSIGNMENT( ( #112 ) );
#55 = ADVANCED_FACE( '', ( #113 ), #114, .F. );
#56 = PRODUCT( '_K0570.05003057', '_K0570.05003057', 'PART-_K0570.05003057-DESC', ( #115 ) );
#57 = PRODUCT_DEFINITION( 'NONE', 'NONE', #116, #2 );
#58 = MANIFOLD_SOLID_BREP( '_K0570.05003057', #117 );
#59 = AXIS2_PLACEMENT_3D( '', #118, #119, #120 );
#62 = LENGTH_MEASURE_WITH_UNIT( LENGTH_MEASURE( 1.00000000000000 ), #121 );
#65 = DIMENSIONAL_EXPONENTS( 1.00000000000000, 0.000000000000000, 0.000000000000000, 0.000000000000000, 0.000000000000000, 0.000000000000000, 0.000000000000000 );
#67 = DIMENSIONAL_EXPONENTS( 0.000000000000000, 0.000000000000000, 0.000000000000000, 0.000000000000000, 0.000000000000000, 0.000000000000000, 0.000000000000000 );
#73 = SURFACE_STYLE_USAGE( .BOTH., #122 );
#74 = FACE_OUTER_BOUND( '', #123, .T. );
#75 = PLANE( '', #124 );
#76 = SURFACE_STYLE_USAGE( .BOTH., #125 );
#77 = FACE_BOUND( '', #126, .T. );
#78 = FACE_OUTER_BOUND( '', #127, .T. );
#79 = CONICAL_SURFACE( '', #128, 5.00000000000000, 0.785398163400000 );
#80 = SURFACE_STYLE_USAGE( .BOTH., #129 );
#81 = FACE_OUTER_BOUND( '', #130, .T. );
#82 = FACE_OUTER_BOUND( '', #131, .T. );
#83 = TOROIDAL_SURFACE( '', #132, 34.4472218138000, 14.5000000000000 );
#84 = SURFACE_STYLE_USAGE( .BOTH., #133 );
#85 = FACE_OUTER_BOUND( '', #134, .T. );
#86 = FACE_OUTER_BOUND( '', #135, .T. );
#87 = CYLINDRICAL_SURFACE( '', #136, 25.0000000000000 );
#88 = SURFACE_STYLE_USAGE( .BOTH., #137 );
#89 = FACE_OUTER_BOUND( '', #138, .T. );
#90 = FACE_BOUND( '', #139, .T. );
#91 = CONICAL_SURFACE( '', #140, 4.18800000000000, 0.785398163400000 );
#92 = SURFACE_STYLE_USAGE( .BOTH., #141 );
#93 = FACE_OUTER_BOUND( '', #142, .T. );
#94 = FACE_OUTER_BOUND( '', #143, .T. );
#95 = CYLINDRICAL_SURFACE( '', #144, 4.18800000000000 );
#96 = SURFACE_STYLE_USAGE( .BOTH., #145 );
#97 = FACE_OUTER_BOUND( '', #146, .T. );
#98 = FACE_OUTER_BOUND( '', #147, .T. );
#99 = CYLINDRICAL_SURFACE( '', #148, 4.18800000000000 );
#100 = SURFACE_STYLE_USAGE( .BOTH., #149 );
#101 = FACE_OUTER_BOUND( '', #150, .T. );
#102 = FACE_OUTER_BOUND( '', #151, .T. );
#103 = CYLINDRICAL_SURFACE( '', #152, 25.0000000000000 );
#104 = SURFACE_STYLE_USAGE( .BOTH., #153 );
#105 = FACE_OUTER_BOUND( '', #154, .T. );
#106 = FACE_BOUND( '', #155, .T. );
#107 = PLANE( '', #156 );
#108 = SURFACE_STYLE_USAGE( .BOTH., #157 );
#109 = FACE_BOUND( '', #158, .T. );
#110 = FACE_OUTER_BOUND( '', #159, .T. );
#111 = PLANE( '', #160 );
#112 = SURFACE_STYLE_USAGE( .BOTH., #161 );
#113 = FACE_OUTER_BOUND( '', #162, .T. );
#114 = PLANE( '', #163 );
#115 = PRODUCT_CONTEXT( '', #21, 'mechanical' );
#116 = PRODUCT_DEFINITION_FORMATION_WITH_SPECIFIED_SOURCE( ' ', 'NONE', #56, .NOT_KNOWN. );
#117 = CLOSED_SHELL( '', ( #47, #37, #53, #41, #39, #49, #51, #43, #45, #55, #35 ) );
#118 = CARTESIAN_POINT( '', ( 0.000000000000000, 0.000000000000000, 0.000000000000000 ) );
#119 = DIRECTION( '', ( 0.000000000000000, 0.000000000000000, 1.00000000000000 ) );
#120 = DIRECTION( '', ( 1.00000000000000, 0.000000000000000, 0.000000000000000 ) );
#121 =  ( LENGTH_UNIT(  )NAMED_UNIT( #65 )SI_UNIT( .MILLI., .METRE. ) );
#122 = SURFACE_SIDE_STYLE( '', ( #165 ) );
#123 = EDGE_LOOP( '', ( #166 ) );
#124 = AXIS2_PLACEMENT_3D( '', #167, #168, #169 );
#125 = SURFACE_SIDE_STYLE( '', ( #170 ) );
#126 = EDGE_LOOP( '', ( #171 ) );
#127 = EDGE_LOOP( '', ( #172 ) );
#128 = AXIS2_PLACEMENT_3D( '', #173, #174, #175 );
#129 = SURFACE_SIDE_STYLE( '', ( #176 ) );
#130 = EDGE_LOOP( '', ( #177 ) );
#131 = EDGE_LOOP( '', ( #178 ) );
#132 = AXIS2_PLACEMENT_3D( '', #179, #180, #181 );
#133 = SURFACE_SIDE_STYLE( '', ( #182 ) );
#134 = EDGE_LOOP( '', ( #183 ) );
#135 = EDGE_LOOP( '', ( #184 ) );
#136 = AXIS2_PLACEMENT_3D( '', #185, #186, #187 );
#137 = SURFACE_SIDE_STYLE( '', ( #188 ) );
#138 = EDGE_LOOP( '', ( #189 ) );
#139 = EDGE_LOOP( '', ( #190 ) );
#140 = AXIS2_PLACEMENT_3D( '', #191, #192, #193 );
#141 = SURFACE_SIDE_STYLE( '', ( #194 ) );
#142 = EDGE_LOOP( '', ( #195 ) );
#143 = EDGE_LOOP( '', ( #196 ) );
#144 = AXIS2_PLACEMENT_3D( '', #197, #198, #199 );
#145 = SURFACE_SIDE_STYLE( '', ( #200 ) );
#146 = EDGE_LOOP( '', ( #201 ) );
#147 = EDGE_LOOP( '', ( #202 ) );
#148 = AXIS2_PLACEMENT_3D( '', #203, #204, #205 );
#149 = SURFACE_SIDE_STYLE( '', ( #206 ) );
#150 = EDGE_LOOP( '', ( #207 ) );
#151 = EDGE_LOOP( '', ( #208 ) );
#152 = AXIS2_PLACEMENT_3D( '', #209, #210, #211 );
#153 = SURFACE_SIDE_STYLE( '', ( #212 ) );
#154 = EDGE_LOOP( '', ( #213 ) );
#155 = EDGE_LOOP( '', ( #214 ) );
#156 = AXIS2_PLACEMENT_3D( '', #215, #216, #217 );
#157 = SURFACE_SIDE_STYLE( '', ( #218 ) );
#158 = EDGE_LOOP( '', ( #219 ) );
#159 = EDGE_LOOP( '', ( #220 ) );
#160 = AXIS2_PLACEMENT_3D( '', #221, #222, #223 );
#161 = SURFACE_SIDE_STYLE( '', ( #224 ) );
#162 = EDGE_LOOP( '', ( #225 ) );
#163 = AXIS2_PLACEMENT_3D( '', #226, #227, #228 );
#165 = SURFACE_STYLE_FILL_AREA( #229 );
#166 = ORIENTED_EDGE( '', *, *, #230, .T. );
#167 = CARTESIAN_POINT( '', ( 4.18800000000000, -5.00000000000000, 0.000000000000000 ) );
#168 = DIRECTION( '', ( 0.000000000000000, 1.00000000000000, 0.000000000000000 ) );
#169 = DIRECTION( '', ( 0.000000000000000, -0.000000000000000, 1.00000000000000 ) );
#170 = SURFACE_STYLE_FILL_AREA( #231 );
#171 = ORIENTED_EDGE( '', *, *, #232, .F. );
#172 = ORIENTED_EDGE( '', *, *, #233, .T. );
#173 = CARTESIAN_POINT( '', ( 0.000000000000000, -15.0000000000000, 0.000000000000000 ) );
#174 = DIRECTION( '', ( -0.000000000000000, -1.00000000000000, -0.000000000000000 ) );
#175 = DIRECTION( '', ( 0.000000000000000, 0.000000000000000, -1.00000000000000 ) );
#176 = SURFACE_STYLE_FILL_AREA( #234 );
#177 = ORIENTED_EDGE( '', *, *, #235, .F. );
#178 = ORIENTED_EDGE( '', *, *, #236, .T. );
#179 = CARTESIAN_POINT( '', ( 0.000000000000000, 0.000000000000000, 0.000000000000000 ) );
#180 = DIRECTION( '', ( 0.000000000000000, -1.00000000000000, -0.000000000000000 ) );
#181 = DIRECTION( '', ( 0.000000000000000, 0.000000000000000, -1.00000000000000 ) );
#182 = SURFACE_STYLE_FILL_AREA( #237 );
#183 = ORIENTED_EDGE( '', *, *, #238, .F. );
#184 = ORIENTED_EDGE( '', *, *, #235, .T. );
#185 = CARTESIAN_POINT( '', ( 0.000000000000000, -15.0000000000000, 0.000000000000000 ) );
#186 = DIRECTION( '', ( -0.000000000000000, 1.00000000000000, 0.000000000000000 ) );
#187 = DIRECTION( '', ( 0.000000000000000, 0.000000000000000, -1.00000000000000 ) );
#188 = SURFACE_STYLE_FILL_AREA( #239 );
#189 = ORIENTED_EDGE( '', *, *, #240, .F. );
#190 = ORIENTED_EDGE( '', *, *, #241, .T. );
#191 = CARTESIAN_POINT( '', ( 0.000000000000000, 14.1880000000000, 0.000000000000000 ) );
#192 = DIRECTION( '', ( -0.000000000000000, 1.00000000000000, 0.000000000000000 ) );
#193 = DIRECTION( '', ( 0.000000000000000, -0.000000000000000, 1.00000000000000 ) );
#194 = SURFACE_STYLE_FILL_AREA( #242 );
#195 = ORIENTED_EDGE( '', *, *, #241, .F. );
#196 = ORIENTED_EDGE( '', *, *, #243, .T. );
#197 = CARTESIAN_POINT( '', ( 0.000000000000000, -15.0000000000000, 0.000000000000000 ) );
#198 = DIRECTION( '', ( -0.000000000000000, 1.00000000000000, 0.000000000000000 ) );
#199 = DIRECTION( '', ( 0.000000000000000, 0.000000000000000, -1.00000000000000 ) );
#200 = SURFACE_STYLE_FILL_AREA( #244 );
#201 = ORIENTED_EDGE( '', *, *, #230, .F. );
#202 = ORIENTED_EDGE( '', *, *, #232, .T. );
#203 = CARTESIAN_POINT( '', ( 0.000000000000000, -15.0000000000000, 0.000000000000000 ) );
#204 = DIRECTION( '', ( -0.000000000000000, 1.00000000000000, 0.000000000000000 ) );
#205 = DIRECTION( '', ( 0.000000000000000, 0.000000000000000, -1.00000000000000 ) );
#206 = SURFACE_STYLE_FILL_AREA( #245 );
#207 = ORIENTED_EDGE( '', *, *, #236, .F. );
#208 = ORIENTED_EDGE( '', *, *, #246, .T. );
#209 = CARTESIAN_POINT( '', ( 0.000000000000000, -15.0000000000000, 0.000000000000000 ) );
#210 = DIRECTION( '', ( -0.000000000000000, 1.00000000000000, 0.000000000000000 ) );
#211 = DIRECTION( '', ( 0.000000000000000, 0.000000000000000, -1.00000000000000 ) );
#212 = SURFACE_STYLE_FILL_AREA( #247 );
#213 = ORIENTED_EDGE( '', *, *, #246, .F. );
#214 = ORIENTED_EDGE( '', *, *, #240, .T. );
#215 = CARTESIAN_POINT( '', ( 5.00000000000000, 15.0000000000000, 0.000000000000000 ) );
#216 = DIRECTION( '', ( 0.000000000000000, -1.00000000000000, -0.000000000000000 ) );
#217 = DIRECTION( '', ( 0.000000000000000, 0.000000000000000, -1.00000000000000 ) );
#218 = SURFACE_STYLE_FILL_AREA( #248 );
#219 = ORIENTED_EDGE( '', *, *, #233, .F. );
#220 = ORIENTED_EDGE( '', *, *, #238, .T. );
#221 = CARTESIAN_POINT( '', ( 25.0000000000000, -15.0000000000000, 0.000000000000000 ) );
#222 = DIRECTION( '', ( 0.000000000000000, 1.00000000000000, 0.000000000000000 ) );
#223 = DIRECTION( '', ( 0.000000000000000, -0.000000000000000, 1.00000000000000 ) );
#224 = SURFACE_STYLE_FILL_AREA( #249 );
#225 = ORIENTED_EDGE( '', *, *, #243, .F. );
#226 = CARTESIAN_POINT( '', ( 0.000000000000000, 5.00000000000000, 0.000000000000000 ) );
#227 = DIRECTION( '', ( 0.000000000000000, -1.00000000000000, -0.000000000000000 ) );
#228 = DIRECTION( '', ( 0.000000000000000, 0.000000000000000, -1.00000000000000 ) );
#229 = FILL_AREA_STYLE( '', ( #250 ) );
#230 = EDGE_CURVE( '', #251, #251, #252, .T. );
#231 = FILL_AREA_STYLE( '', ( #253 ) );
#232 = EDGE_CURVE( '', #254, #254, #255, .T. );
#233 = EDGE_CURVE( '', #256, #256, #257, .T. );
#234 = FILL_AREA_STYLE( '', ( #258 ) );
#235 = EDGE_CURVE( '', #259, #259, #260, .T. );
#236 = EDGE_CURVE( '', #261, #261, #262, .T. );
#237 = FILL_AREA_STYLE( '', ( #263 ) );
#238 = EDGE_CURVE( '', #264, #264, #265, .T. );
#239 = FILL_AREA_STYLE( '', ( #266 ) );
#240 = EDGE_CURVE( '', #267, #267, #268, .T. );
#241 = EDGE_CURVE( '', #269, #269, #270, .T. );
#242 = FILL_AREA_STYLE( '', ( #271 ) );
#243 = EDGE_CURVE( '', #272, #272, #273, .T. );
#244 = FILL_AREA_STYLE( '', ( #274 ) );
#245 = FILL_AREA_STYLE( '', ( #275 ) );
#246 = EDGE_CURVE( '', #276, #276, #277, .T. );
#247 = FILL_AREA_STYLE( '', ( #278 ) );
#248 = FILL_AREA_STYLE( '', ( #279 ) );
#249 = FILL_AREA_STYLE( '', ( #280 ) );
#250 = FILL_AREA_STYLE_COLOUR( '', #281 );
#251 = VERTEX_POINT( '', #282 );
#252 = CIRCLE( '', #283, 4.18800000000000 );
#253 = FILL_AREA_STYLE_COLOUR( '', #284 );
#254 = VERTEX_POINT( '', #285 );
#255 = CIRCLE( '', #286, 4.18800000000000 );
#256 = VERTEX_POINT( '', #287 );
#257 = CIRCLE( '', #288, 5.00000000000000 );
#258 = FILL_AREA_STYLE_COLOUR( '', #289 );
#259 = VERTEX_POINT( '', #290 );
#260 = CIRCLE( '', #291, 25.0000000000000 );
#261 = VERTEX_POINT( '', #292 );
#262 = CIRCLE( '', #293, 25.0000000000000 );
#263 = FILL_AREA_STYLE_COLOUR( '', #294 );
#264 = VERTEX_POINT( '', #295 );
#265 = CIRCLE( '', #296, 25.0000000000000 );
#266 = FILL_AREA_STYLE_COLOUR( '', #297 );
#267 = VERTEX_POINT( '', #298 );
#268 = CIRCLE( '', #299, 5.00000000000000 );
#269 = VERTEX_POINT( '', #300 );
#270 = CIRCLE( '', #301, 4.18800000000000 );
#271 = FILL_AREA_STYLE_COLOUR( '', #302 );
#272 = VERTEX_POINT( '', #303 );
#273 = CIRCLE( '', #304, 4.18800000000000 );
#274 = FILL_AREA_STYLE_COLOUR( '', #305 );
#275 = FILL_AREA_STYLE_COLOUR( '', #306 );
#276 = VERTEX_POINT( '', #307 );
#277 = CIRCLE( '', #308, 25.0000000000000 );
#278 = FILL_AREA_STYLE_COLOUR( '', #309 );
#279 = FILL_AREA_STYLE_COLOUR( '', #310 );
#280 = FILL_AREA_STYLE_COLOUR( '', #311 );
#281 = COLOUR_RGB( '', 0.689999997600000, 0.689999997600000, 0.689999997600000 );
#282 = CARTESIAN_POINT( '', ( 0.000000000000000, -5.00000000000000, -4.18800000000000 ) );
#283 = AXIS2_PLACEMENT_3D( '', #312, #313, #314 );
#284 = COLOUR_RGB( '', 0.689999997600000, 0.689999997600000, 0.689999997600000 );
#285 = CARTESIAN_POINT( '', ( 0.000000000000000, -14.1880000000000, -4.18800000000000 ) );
#286 = AXIS2_PLACEMENT_3D( '', #315, #316, #317 );
#287 = CARTESIAN_POINT( '', ( 0.000000000000000, -15.0000000000000, -5.00000000000000 ) );
#288 = AXIS2_PLACEMENT_3D( '', #318, #319, #320 );
#289 = COLOUR_RGB( '', 0.689999997600000, 0.689999997600000, 0.689999997600000 );
#290 = CARTESIAN_POINT( '', ( 0.000000000000000, -11.0000000000000, -25.0000000000000 ) );
#291 = AXIS2_PLACEMENT_3D( '', #321, #322, #323 );
#292 = CARTESIAN_POINT( '', ( 0.000000000000000, 11.0000000000000, -25.0000000000000 ) );
#293 = AXIS2_PLACEMENT_3D( '', #324, #325, #326 );
#294 = COLOUR_RGB( '', 0.689999997600000, 0.689999997600000, 0.689999997600000 );
#295 = CARTESIAN_POINT( '', ( 0.000000000000000, -15.0000000000000, -25.0000000000000 ) );
#296 = AXIS2_PLACEMENT_3D( '', #327, #328, #329 );
#297 = COLOUR_RGB( '', 0.689999997600000, 0.689999997600000, 0.689999997600000 );
#298 = CARTESIAN_POINT( '', ( 0.000000000000000, 15.0000000000000, -5.00000000000000 ) );
#299 = AXIS2_PLACEMENT_3D( '', #330, #331, #332 );
#300 = CARTESIAN_POINT( '', ( 0.000000000000000, 14.1880000000000, -4.18800000000000 ) );
#301 = AXIS2_PLACEMENT_3D( '', #333, #334, #335 );
#302 = COLOUR_RGB( '', 0.689999997600000, 0.689999997600000, 0.689999997600000 );
#303 = CARTESIAN_POINT( '', ( 0.000000000000000, 5.00000000000000, -4.18800000000000 ) );
#304 = AXIS2_PLACEMENT_3D( '', #336, #337, #338 );
#305 = COLOUR_RGB( '', 0.689999997600000, 0.689999997600000, 0.689999997600000 );
#306 = COLOUR_RGB( '', 0.689999997600000, 0.689999997600000, 0.689999997600000 );
#307 = CARTESIAN_POINT( '', ( 0.000000000000000, 15.0000000000000, -25.0000000000000 ) );
#308 = AXIS2_PLACEMENT_3D( '', #339, #340, #341 );
#309 = COLOUR_RGB( '', 0.689999997600000, 0.689999997600000, 0.689999997600000 );
#310 = COLOUR_RGB( '', 0.689999997600000, 0.689999997600000, 0.689999997600000 );
#311 = COLOUR_RGB( '', 0.689999997600000, 0.689999997600000, 0.689999997600000 );
#312 = CARTESIAN_POINT( '', ( 0.000000000000000, -5.00000000000000, 0.000000000000000 ) );
#313 = DIRECTION( '', ( 0.000000000000000, -1.00000000000000, -0.000000000000000 ) );
#314 = DIRECTION( '', ( 0.000000000000000, 0.000000000000000, -1.00000000000000 ) );
#315 = CARTESIAN_POINT( '', ( 0.000000000000000, -14.1880000000000, 0.000000000000000 ) );
#316 = DIRECTION( '', ( 0.000000000000000, -1.00000000000000, -0.000000000000000 ) );
#317 = DIRECTION( '', ( 0.000000000000000, 0.000000000000000, -1.00000000000000 ) );
#318 = CARTESIAN_POINT( '', ( 0.000000000000000, -15.0000000000000, 0.000000000000000 ) );
#319 = DIRECTION( '', ( 0.000000000000000, -1.00000000000000, -0.000000000000000 ) );
#320 = DIRECTION( '', ( 0.000000000000000, 0.000000000000000, -1.00000000000000 ) );
#321 = CARTESIAN_POINT( '', ( 0.000000000000000, -11.0000000000000, 0.000000000000000 ) );
#322 = DIRECTION( '', ( 0.000000000000000, -1.00000000000000, -0.000000000000000 ) );
#323 = DIRECTION( '', ( 0.000000000000000, 0.000000000000000, -1.00000000000000 ) );
#324 = CARTESIAN_POINT( '', ( 0.000000000000000, 11.0000000000000, 0.000000000000000 ) );
#325 = DIRECTION( '', ( 0.000000000000000, -1.00000000000000, -0.000000000000000 ) );
#326 = DIRECTION( '', ( 0.000000000000000, 0.000000000000000, -1.00000000000000 ) );
#327 = CARTESIAN_POINT( '', ( 0.000000000000000, -15.0000000000000, 0.000000000000000 ) );
#328 = DIRECTION( '', ( 0.000000000000000, -1.00000000000000, -0.000000000000000 ) );
#329 = DIRECTION( '', ( 0.000000000000000, 0.000000000000000, -1.00000000000000 ) );
#330 = CARTESIAN_POINT( '', ( 0.000000000000000, 15.0000000000000, 0.000000000000000 ) );
#331 = DIRECTION( '', ( 0.000000000000000, -1.00000000000000, -0.000000000000000 ) );
#332 = DIRECTION( '', ( 0.000000000000000, 0.000000000000000, -1.00000000000000 ) );
#333 = CARTESIAN_POINT( '', ( 0.000000000000000, 14.1880000000000, 0.000000000000000 ) );
#334 = DIRECTION( '', ( 0.000000000000000, -1.00000000000000, -0.000000000000000 ) );
#335 = DIRECTION( '', ( 0.000000000000000, 0.000000000000000, -1.00000000000000 ) );
#336 = CARTESIAN_POINT( '', ( 0.000000000000000, 5.00000000000000, 0.000000000000000 ) );
#337 = DIRECTION( '', ( 0.000000000000000, -1.00000000000000, -0.000000000000000 ) );
#338 = DIRECTION( '', ( 0.000000000000000, 0.000000000000000, -1.00000000000000 ) );
#339 = CARTESIAN_POINT( '', ( 0.000000000000000, 15.0000000000000, 0.000000000000000 ) );
#340 = DIRECTION( '', ( 0.000000000000000, -1.00000000000000, -0.000000000000000 ) );
#341 = DIRECTION( '', ( 0.000000000000000, 0.000000000000000, -1.00000000000000 ) );
ENDSEC;
END-ISO-10303-21;
