ISO-10303-21;
HEADER;
FILE_DESCRIPTION( ( 'STEP AP214' ), '1' );
FILE_NAME( '//goodhand-server/Shared Folders/GoodHand Data/Kipp CAD/K0390/K0390.141X80.stp', '2020-12-07T10:15:56', ( '' ), ( '' ), ' ', 'PARTsolutions', ' ' );
FILE_SCHEMA( ( 'AUTOMOTIVE_DESIGN { 1 0 10303 214 1 1 1 1 }' ) );
ENDSEC;
DATA;
#1 = MECHANICAL_DESIGN_GEOMETRIC_PRESENTATION_REPRESENTATION( ' ', ( #10, #11, #12, #13, #14, #15, #16, #17, #18, #19, #20, #21, #22 ), #6 );
#2 = PRODUCT_DEFINITION_CONTEXT( '', #23, 'design' );
#3 = APPLICATION_PROTOCOL_DEFINITION( 'international standard', 'automotive_design', 2001, #23 );
#4 = PRODUCT_CATEGORY_RELATIONSHIP( 'NONE', 'NONE', #24, #25 );
#5 = SHAPE_DEFINITION_REPRESENTATION( #26, #27 );
#6 =  ( GEOMETRIC_REPRESENTATION_CONTEXT( 3 )GLOBAL_UNCERTAINTY_ASSIGNED_CONTEXT( ( #30 ) )GLOBAL_UNIT_ASSIGNED_CONTEXT( ( #32, #33, #34 ) )REPRESENTATION_CONTEXT( 'NONE', 'WORKSPACE' ) );
#10 = STYLED_ITEM( '', ( #36 ), #37 );
#11 = STYLED_ITEM( '', ( #38 ), #39 );
#12 = STYLED_ITEM( '', ( #40 ), #41 );
#13 = STYLED_ITEM( '', ( #42 ), #43 );
#14 = STYLED_ITEM( '', ( #44 ), #45 );
#15 = STYLED_ITEM( '', ( #46 ), #47 );
#16 = STYLED_ITEM( '', ( #48 ), #49 );
#17 = STYLED_ITEM( '', ( #50 ), #51 );
#18 = STYLED_ITEM( '', ( #52 ), #53 );
#19 = STYLED_ITEM( '', ( #54 ), #55 );
#20 = STYLED_ITEM( '', ( #56 ), #57 );
#21 = STYLED_ITEM( '', ( #58 ), #59 );
#22 = STYLED_ITEM( '', ( #60 ), #61 );
#23 = APPLICATION_CONTEXT( 'core data for automotive mechanical design processes' );
#24 = PRODUCT_CATEGORY( 'part', 'NONE' );
#25 = PRODUCT_RELATED_PRODUCT_CATEGORY( 'detail', ' ', ( #62 ) );
#26 = PRODUCT_DEFINITION_SHAPE( 'NONE', 'NONE', #63 );
#27 = ADVANCED_BREP_SHAPE_REPRESENTATION( '_K0390.141X80', ( #64, #65 ), #6 );
#30 = UNCERTAINTY_MEASURE_WITH_UNIT( LENGTH_MEASURE( 0.00100000000000000 ), #32, '', '' );
#32 =  ( CONVERSION_BASED_UNIT( 'MILLIMETRE', #68 )LENGTH_UNIT(  )NAMED_UNIT( #71 ) );
#33 =  ( NAMED_UNIT( #73 )PLANE_ANGLE_UNIT(  )SI_UNIT( $, .RADIAN. ) );
#34 =  ( NAMED_UNIT( #73 )SI_UNIT( $, .STERADIAN. )SOLID_ANGLE_UNIT(  ) );
#36 = PRESENTATION_STYLE_ASSIGNMENT( ( #79 ) );
#37 = ADVANCED_FACE( '', ( #80, #81 ), #82, .T. );
#38 = PRESENTATION_STYLE_ASSIGNMENT( ( #83 ) );
#39 = ADVANCED_FACE( '', ( #84, #85 ), #86, .T. );
#40 = PRESENTATION_STYLE_ASSIGNMENT( ( #87 ) );
#41 = ADVANCED_FACE( '', ( #88, #89 ), #90, .T. );
#42 = PRESENTATION_STYLE_ASSIGNMENT( ( #91 ) );
#43 = ADVANCED_FACE( '', ( #92 ), #93, .T. );
#44 = PRESENTATION_STYLE_ASSIGNMENT( ( #94 ) );
#45 = ADVANCED_FACE( '', ( #95 ), #96, .F. );
#46 = PRESENTATION_STYLE_ASSIGNMENT( ( #97 ) );
#47 = ADVANCED_FACE( '', ( #98 ), #99, .F. );
#48 = PRESENTATION_STYLE_ASSIGNMENT( ( #100 ) );
#49 = ADVANCED_FACE( '', ( #101, #102 ), #103, .T. );
#50 = PRESENTATION_STYLE_ASSIGNMENT( ( #104 ) );
#51 = ADVANCED_FACE( '', ( #105, #106 ), #107, .F. );
#52 = PRESENTATION_STYLE_ASSIGNMENT( ( #108 ) );
#53 = ADVANCED_FACE( '', ( #109 ), #110, .F. );
#54 = PRESENTATION_STYLE_ASSIGNMENT( ( #111 ) );
#55 = ADVANCED_FACE( '', ( #112 ), #113, .T. );
#56 = PRESENTATION_STYLE_ASSIGNMENT( ( #114 ) );
#57 = ADVANCED_FACE( '', ( #115 ), #116, .T. );
#58 = PRESENTATION_STYLE_ASSIGNMENT( ( #117 ) );
#59 = ADVANCED_FACE( '', ( #118 ), #119, .F. );
#60 = PRESENTATION_STYLE_ASSIGNMENT( ( #120 ) );
#61 = ADVANCED_FACE( '', ( #121, #122 ), #123, .T. );
#62 = PRODUCT( '_K0390.141X80', '_K0390.141X80', 'PART-_K0390.141X80-DESC', ( #124 ) );
#63 = PRODUCT_DEFINITION( 'NONE', 'NONE', #125, #2 );
#64 = MANIFOLD_SOLID_BREP( '_K0390.141X80', #126 );
#65 = AXIS2_PLACEMENT_3D( '', #127, #128, #129 );
#68 = LENGTH_MEASURE_WITH_UNIT( LENGTH_MEASURE( 1.00000000000000 ), #130 );
#71 = DIMENSIONAL_EXPONENTS( 1.00000000000000, 0.000000000000000, 0.000000000000000, 0.000000000000000, 0.000000000000000, 0.000000000000000, 0.000000000000000 );
#73 = DIMENSIONAL_EXPONENTS( 0.000000000000000, 0.000000000000000, 0.000000000000000, 0.000000000000000, 0.000000000000000, 0.000000000000000, 0.000000000000000 );
#79 = SURFACE_STYLE_USAGE( .BOTH., #131 );
#80 = FACE_OUTER_BOUND( '', #132, .T. );
#81 = FACE_OUTER_BOUND( '', #133, .T. );
#82 = CYLINDRICAL_SURFACE( '', #134, 4.50000000000000 );
#83 = SURFACE_STYLE_USAGE( .BOTH., #135 );
#84 = FACE_OUTER_BOUND( '', #136, .T. );
#85 = FACE_OUTER_BOUND( '', #137, .T. );
#86 = CYLINDRICAL_SURFACE( '', #138, 7.00000000000000 );
#87 = SURFACE_STYLE_USAGE( .BOTH., #139 );
#88 = FACE_OUTER_BOUND( '', #140, .T. );
#89 = FACE_OUTER_BOUND( '', #141, .T. );
#90 = CYLINDRICAL_SURFACE( '', #142, 5.00000000000000 );
#91 = SURFACE_STYLE_USAGE( .BOTH., #143 );
#92 = FACE_OUTER_BOUND( '', #144, .T. );
#93 = CONICAL_SURFACE( '', #145, 5.77300000000000, 0.785398163400000 );
#94 = SURFACE_STYLE_USAGE( .BOTH., #146 );
#95 = FACE_OUTER_BOUND( '', #147, .T. );
#96 = PLANE( '', #148 );
#97 = SURFACE_STYLE_USAGE( .BOTH., #149 );
#98 = FACE_OUTER_BOUND( '', #150, .T. );
#99 = PLANE( '', #151 );
#100 = SURFACE_STYLE_USAGE( .BOTH., #152 );
#101 = FACE_BOUND( '', #153, .T. );
#102 = FACE_OUTER_BOUND( '', #154, .T. );
#103 = SPHERICAL_SURFACE( '', #155, 8.38700000000000 );
#104 = SURFACE_STYLE_USAGE( .BOTH., #156 );
#105 = FACE_OUTER_BOUND( '', #157, .T. );
#106 = FACE_BOUND( '', #158, .T. );
#107 = PLANE( '', #159 );
#108 = SURFACE_STYLE_USAGE( .BOTH., #160 );
#109 = FACE_OUTER_BOUND( '', #161, .T. );
#110 = PLANE( '', #162 );
#111 = SURFACE_STYLE_USAGE( .BOTH., #163 );
#112 = FACE_OUTER_BOUND( '', #164, .T. );
#113 = PLANE( '', #165 );
#114 = SURFACE_STYLE_USAGE( .BOTH., #166 );
#115 = FACE_OUTER_BOUND( '', #167, .T. );
#116 = CONICAL_SURFACE( '', #168, 5.77300000000000, 0.785398163400000 );
#117 = SURFACE_STYLE_USAGE( .BOTH., #169 );
#118 = FACE_OUTER_BOUND( '', #170, .T. );
#119 = PLANE( '', #171 );
#120 = SURFACE_STYLE_USAGE( .BOTH., #172 );
#121 = FACE_BOUND( '', #173, .T. );
#122 = FACE_OUTER_BOUND( '', #174, .T. );
#123 = CONICAL_SURFACE( '', #175, 7.00000000000000, 1.13808724680000 );
#124 = PRODUCT_CONTEXT( '', #23, 'mechanical' );
#125 = PRODUCT_DEFINITION_FORMATION_WITH_SPECIFIED_SOURCE( ' ', 'NONE', #62, .NOT_KNOWN. );
#126 = CLOSED_SHELL( '', ( #53, #59, #49, #41, #51, #37, #61, #39, #57, #47, #43, #45, #55 ) );
#127 = CARTESIAN_POINT( '', ( 0.000000000000000, 0.000000000000000, 0.000000000000000 ) );
#128 = DIRECTION( '', ( 0.000000000000000, 0.000000000000000, 1.00000000000000 ) );
#129 = DIRECTION( '', ( 1.00000000000000, 0.000000000000000, 0.000000000000000 ) );
#130 =  ( LENGTH_UNIT(  )NAMED_UNIT( #71 )SI_UNIT( .MILLI., .METRE. ) );
#131 = SURFACE_SIDE_STYLE( '', ( #177 ) );
#132 = EDGE_LOOP( '', ( #178 ) );
#133 = EDGE_LOOP( '', ( #179 ) );
#134 = AXIS2_PLACEMENT_3D( '', #180, #181, #182 );
#135 = SURFACE_SIDE_STYLE( '', ( #183 ) );
#136 = EDGE_LOOP( '', ( #184 ) );
#137 = EDGE_LOOP( '', ( #185, #186, #187, #188, #189, #190, #191, #192 ) );
#138 = AXIS2_PLACEMENT_3D( '', #193, #194, #195 );
#139 = SURFACE_SIDE_STYLE( '', ( #196 ) );
#140 = EDGE_LOOP( '', ( #197 ) );
#141 = EDGE_LOOP( '', ( #198 ) );
#142 = AXIS2_PLACEMENT_3D( '', #199, #200, #201 );
#143 = SURFACE_SIDE_STYLE( '', ( #202 ) );
#144 = EDGE_LOOP( '', ( #203, #204, #205, #206 ) );
#145 = AXIS2_PLACEMENT_3D( '', #207, #208, #209 );
#146 = SURFACE_SIDE_STYLE( '', ( #210 ) );
#147 = EDGE_LOOP( '', ( #211, #212 ) );
#148 = AXIS2_PLACEMENT_3D( '', #213, #214, #215 );
#149 = SURFACE_SIDE_STYLE( '', ( #216 ) );
#150 = EDGE_LOOP( '', ( #217, #218 ) );
#151 = AXIS2_PLACEMENT_3D( '', #219, #220, #221 );
#152 = SURFACE_SIDE_STYLE( '', ( #222 ) );
#153 = VERTEX_LOOP( '', #223 );
#154 = EDGE_LOOP( '', ( #224 ) );
#155 = AXIS2_PLACEMENT_3D( '', #225, #226, #227 );
#156 = SURFACE_SIDE_STYLE( '', ( #228 ) );
#157 = EDGE_LOOP( '', ( #229 ) );
#158 = EDGE_LOOP( '', ( #230 ) );
#159 = AXIS2_PLACEMENT_3D( '', #231, #232, #233 );
#160 = SURFACE_SIDE_STYLE( '', ( #234 ) );
#161 = EDGE_LOOP( '', ( #235, #236, #237, #238, #239, #240 ) );
#162 = AXIS2_PLACEMENT_3D( '', #241, #242, #243 );
#163 = SURFACE_SIDE_STYLE( '', ( #244 ) );
#164 = EDGE_LOOP( '', ( #245, #246, #247, #248 ) );
#165 = AXIS2_PLACEMENT_3D( '', #249, #250, #251 );
#166 = SURFACE_SIDE_STYLE( '', ( #252 ) );
#167 = EDGE_LOOP( '', ( #253, #254, #255, #256 ) );
#168 = AXIS2_PLACEMENT_3D( '', #257, #258, #259 );
#169 = SURFACE_SIDE_STYLE( '', ( #260 ) );
#170 = EDGE_LOOP( '', ( #261, #262, #263, #264, #265, #266 ) );
#171 = AXIS2_PLACEMENT_3D( '', #267, #268, #269 );
#172 = SURFACE_SIDE_STYLE( '', ( #270 ) );
#173 = EDGE_LOOP( '', ( #271 ) );
#174 = EDGE_LOOP( '', ( #272 ) );
#175 = AXIS2_PLACEMENT_3D( '', #273, #274, #275 );
#177 = SURFACE_STYLE_FILL_AREA( #276 );
#178 = ORIENTED_EDGE( '', *, *, #277, .F. );
#179 = ORIENTED_EDGE( '', *, *, #278, .T. );
#180 = CARTESIAN_POINT( '', ( 80.0000000000000, 0.000000000000000, 0.000000000000000 ) );
#181 = DIRECTION( '', ( -1.00000000000000, 6.12323399573676E-17, 0.000000000000000 ) );
#182 = DIRECTION( '', ( 6.12323399573676E-17, 1.00000000000000, 0.000000000000000 ) );
#183 = SURFACE_STYLE_FILL_AREA( #279 );
#184 = ORIENTED_EDGE( '', *, *, #280, .F. );
#185 = ORIENTED_EDGE( '', *, *, #281, .T. );
#186 = ORIENTED_EDGE( '', *, *, #282, .T. );
#187 = ORIENTED_EDGE( '', *, *, #283, .F. );
#188 = ORIENTED_EDGE( '', *, *, #284, .T. );
#189 = ORIENTED_EDGE( '', *, *, #285, .T. );
#190 = ORIENTED_EDGE( '', *, *, #286, .T. );
#191 = ORIENTED_EDGE( '', *, *, #287, .F. );
#192 = ORIENTED_EDGE( '', *, *, #288, .T. );
#193 = CARTESIAN_POINT( '', ( 80.0000000000000, 0.000000000000000, 0.000000000000000 ) );
#194 = DIRECTION( '', ( -1.00000000000000, 6.12323399573677E-17, 0.000000000000000 ) );
#195 = DIRECTION( '', ( 6.12323399573677E-17, 1.00000000000000, 0.000000000000000 ) );
#196 = SURFACE_STYLE_FILL_AREA( #289 );
#197 = ORIENTED_EDGE( '', *, *, #290, .F. );
#198 = ORIENTED_EDGE( '', *, *, #291, .T. );
#199 = CARTESIAN_POINT( '', ( 80.0000000000000, 0.000000000000000, 0.000000000000000 ) );
#200 = DIRECTION( '', ( -1.00000000000000, 6.12323399573677E-17, 0.000000000000000 ) );
#201 = DIRECTION( '', ( 6.12323399573677E-17, 1.00000000000000, 0.000000000000000 ) );
#202 = SURFACE_STYLE_FILL_AREA( #292 );
#203 = ORIENTED_EDGE( '', *, *, #281, .F. );
#204 = ORIENTED_EDGE( '', *, *, #293, .T. );
#205 = ORIENTED_EDGE( '', *, *, #294, .T. );
#206 = ORIENTED_EDGE( '', *, *, #295, .T. );
#207 = CARTESIAN_POINT( '', ( 0.000000000000000, 4.89858719658941E-15, 0.000000000000000 ) );
#208 = DIRECTION( '', ( 1.00000000000000, -6.12323399573677E-17, -0.000000000000000 ) );
#209 = DIRECTION( '', ( 6.12323399573677E-17, 1.00000000000000, 0.000000000000000 ) );
#210 = SURFACE_STYLE_FILL_AREA( #296 );
#211 = ORIENTED_EDGE( '', *, *, #297, .F. );
#212 = ORIENTED_EDGE( '', *, *, #298, .F. );
#213 = CARTESIAN_POINT( '', ( -1.76747149286942E-16, 4.89858719658941E-15, 0.000000000000000 ) );
#214 = DIRECTION( '', ( 1.00000000000000, -6.12323399573677E-17, -0.000000000000000 ) );
#215 = DIRECTION( '', ( 6.12323399573677E-17, 1.00000000000000, 0.000000000000000 ) );
#216 = SURFACE_STYLE_FILL_AREA( #299 );
#217 = ORIENTED_EDGE( '', *, *, #294, .F. );
#218 = ORIENTED_EDGE( '', *, *, #300, .F. );
#219 = CARTESIAN_POINT( '', ( -1.76747149286942E-16, 4.89858719658941E-15, 0.000000000000000 ) );
#220 = DIRECTION( '', ( 1.00000000000000, -6.12323399573677E-17, -0.000000000000000 ) );
#221 = DIRECTION( '', ( 6.12323399573677E-17, 1.00000000000000, 0.000000000000000 ) );
#222 = SURFACE_STYLE_FILL_AREA( #301 );
#223 = VERTEX_POINT( '', #302 );
#224 = ORIENTED_EDGE( '', *, *, #290, .T. );
#225 = CARTESIAN_POINT( '', ( 71.6129999999998, -5.03069808033274E-14, 0.000000000000000 ) );
#226 = DIRECTION( '', ( 1.00000000000000, 0.000000000000000, 0.000000000000000 ) );
#227 = DIRECTION( '', ( 0.000000000000000, 1.00000000000000, 0.000000000000000 ) );
#228 = SURFACE_STYLE_FILL_AREA( #303 );
#229 = ORIENTED_EDGE( '', *, *, #291, .F. );
#230 = ORIENTED_EDGE( '', *, *, #277, .T. );
#231 = CARTESIAN_POINT( '', ( 75.0000000000000, 4.50000000000000, 0.000000000000000 ) );
#232 = DIRECTION( '', ( 1.00000000000000, -6.12323399573677E-17, -0.000000000000000 ) );
#233 = DIRECTION( '', ( 6.12323399573677E-17, 1.00000000000000, 0.000000000000000 ) );
#234 = SURFACE_STYLE_FILL_AREA( #304 );
#235 = ORIENTED_EDGE( '', *, *, #305, .F. );
#236 = ORIENTED_EDGE( '', *, *, #298, .T. );
#237 = ORIENTED_EDGE( '', *, *, #306, .F. );
#238 = ORIENTED_EDGE( '', *, *, #284, .F. );
#239 = ORIENTED_EDGE( '', *, *, #307, .F. );
#240 = ORIENTED_EDGE( '', *, *, #286, .F. );
#241 = CARTESIAN_POINT( '', ( 3.00000000000000, 0.900000000000005, 10.5000000000000 ) );
#242 = DIRECTION( '', ( 0.000000000000000, 1.00000000000000, 0.000000000000000 ) );
#243 = DIRECTION( '', ( 0.000000000000000, -0.000000000000000, 1.00000000000000 ) );
#244 = SURFACE_STYLE_FILL_AREA( #308 );
#245 = ORIENTED_EDGE( '', *, *, #283, .T. );
#246 = ORIENTED_EDGE( '', *, *, #309, .T. );
#247 = ORIENTED_EDGE( '', *, *, #287, .T. );
#248 = ORIENTED_EDGE( '', *, *, #307, .T. );
#249 = CARTESIAN_POINT( '', ( 3.00000000000000, 0.000000000000000, 0.000000000000000 ) );
#250 = DIRECTION( '', ( -1.00000000000000, 0.000000000000000, 0.000000000000000 ) );
#251 = DIRECTION( '', ( 0.000000000000000, 0.000000000000000, 1.00000000000000 ) );
#252 = SURFACE_STYLE_FILL_AREA( #310 );
#253 = ORIENTED_EDGE( '', *, *, #297, .T. );
#254 = ORIENTED_EDGE( '', *, *, #305, .T. );
#255 = ORIENTED_EDGE( '', *, *, #285, .F. );
#256 = ORIENTED_EDGE( '', *, *, #306, .T. );
#257 = CARTESIAN_POINT( '', ( 0.000000000000000, 4.89858719658941E-15, 0.000000000000000 ) );
#258 = DIRECTION( '', ( 1.00000000000000, -6.12323399573677E-17, -0.000000000000000 ) );
#259 = DIRECTION( '', ( 6.12323399573677E-17, 1.00000000000000, 0.000000000000000 ) );
#260 = SURFACE_STYLE_FILL_AREA( #311 );
#261 = ORIENTED_EDGE( '', *, *, #300, .T. );
#262 = ORIENTED_EDGE( '', *, *, #293, .F. );
#263 = ORIENTED_EDGE( '', *, *, #288, .F. );
#264 = ORIENTED_EDGE( '', *, *, #309, .F. );
#265 = ORIENTED_EDGE( '', *, *, #282, .F. );
#266 = ORIENTED_EDGE( '', *, *, #295, .F. );
#267 = CARTESIAN_POINT( '', ( 3.00000000000000, -0.899999999999995, -10.5000000000000 ) );
#268 = DIRECTION( '', ( 0.000000000000000, -1.00000000000000, 0.000000000000000 ) );
#269 = DIRECTION( '', ( 0.000000000000000, 0.000000000000000, -1.00000000000000 ) );
#270 = SURFACE_STYLE_FILL_AREA( #312 );
#271 = ORIENTED_EDGE( '', *, *, #278, .F. );
#272 = ORIENTED_EDGE( '', *, *, #280, .T. );
#273 = CARTESIAN_POINT( '', ( 68.0000000000000, 7.34788079488413E-16, 0.000000000000000 ) );
#274 = DIRECTION( '', ( -1.00000000000000, 6.12323399573677E-17, -0.000000000000000 ) );
#275 = DIRECTION( '', ( -6.12323399573677E-17, -1.00000000000000, 0.000000000000000 ) );
#276 = FILL_AREA_STYLE( '', ( #313 ) );
#277 = EDGE_CURVE( '', #314, #314, #315, .T. );
#278 = EDGE_CURVE( '', #316, #316, #317, .T. );
#279 = FILL_AREA_STYLE( '', ( #318 ) );
#280 = EDGE_CURVE( '', #319, #319, #320, .T. );
#281 = EDGE_CURVE( '', #321, #322, #323, .T. );
#282 = EDGE_CURVE( '', #322, #324, #325, .T. );
#283 = EDGE_CURVE( '', #326, #324, #327, .T. );
#284 = EDGE_CURVE( '', #326, #328, #329, .F. );
#285 = EDGE_CURVE( '', #328, #330, #331, .T. );
#286 = EDGE_CURVE( '', #330, #332, #333, .T. );
#287 = EDGE_CURVE( '', #334, #332, #335, .T. );
#288 = EDGE_CURVE( '', #334, #321, #336, .F. );
#289 = FILL_AREA_STYLE( '', ( #337 ) );
#290 = EDGE_CURVE( '', #338, #338, #339, .T. );
#291 = EDGE_CURVE( '', #340, #340, #341, .T. );
#292 = FILL_AREA_STYLE( '', ( #342 ) );
#293 = EDGE_CURVE( '', #321, #343, #344, .T. );
#294 = EDGE_CURVE( '', #343, #345, #346, .T. );
#295 = EDGE_CURVE( '', #345, #322, #347, .T. );
#296 = FILL_AREA_STYLE( '', ( #348 ) );
#297 = EDGE_CURVE( '', #349, #350, #351, .T. );
#298 = EDGE_CURVE( '', #350, #349, #352, .T. );
#299 = FILL_AREA_STYLE( '', ( #353 ) );
#300 = EDGE_CURVE( '', #345, #343, #354, .T. );
#301 = FILL_AREA_STYLE( '', ( #355 ) );
#302 = CARTESIAN_POINT( '', ( 80.0000000000000, -5.03069808033274E-14, 0.000000000000000 ) );
#303 = FILL_AREA_STYLE( '', ( #356 ) );
#304 = FILL_AREA_STYLE( '', ( #357 ) );
#305 = EDGE_CURVE( '', #350, #330, #358, .T. );
#306 = EDGE_CURVE( '', #328, #349, #359, .T. );
#307 = EDGE_CURVE( '', #332, #326, #360, .T. );
#308 = FILL_AREA_STYLE( '', ( #361 ) );
#309 = EDGE_CURVE( '', #324, #334, #362, .T. );
#310 = FILL_AREA_STYLE( '', ( #363 ) );
#311 = FILL_AREA_STYLE( '', ( #364 ) );
#312 = FILL_AREA_STYLE( '', ( #365 ) );
#313 = FILL_AREA_STYLE_COLOUR( '', #366 );
#314 = VERTEX_POINT( '', #367 );
#315 = CIRCLE( '', #368, 4.50000000000000 );
#316 = VERTEX_POINT( '', #369 );
#317 = CIRCLE( '', #370, 4.50000000000000 );
#318 = FILL_AREA_STYLE_COLOUR( '', #371 );
#319 = VERTEX_POINT( '', #372 );
#320 = CIRCLE( '', #373, 7.00000000000000 );
#321 = VERTEX_POINT( '', #374 );
#322 = VERTEX_POINT( '', #375 );
#323 = CIRCLE( '', #376, 7.00000000000000 );
#324 = VERTEX_POINT( '', #377 );
#325 = LINE( '', #378, #379 );
#326 = VERTEX_POINT( '', #380 );
#327 = CIRCLE( '', #381, 7.00000000000000 );
#328 = VERTEX_POINT( '', #382 );
#329 = LINE( '', #383, #384 );
#330 = VERTEX_POINT( '', #385 );
#331 = CIRCLE( '', #386, 7.00000000000000 );
#332 = VERTEX_POINT( '', #387 );
#333 = LINE( '', #388, #389 );
#334 = VERTEX_POINT( '', #390 );
#335 = CIRCLE( '', #391, 7.00000000000000 );
#336 = LINE( '', #392, #393 );
#337 = FILL_AREA_STYLE_COLOUR( '', #394 );
#338 = VERTEX_POINT( '', #395 );
#339 = CIRCLE( '', #396, 5.00000000000000 );
#340 = VERTEX_POINT( '', #397 );
#341 = CIRCLE( '', #398, 5.00000000000000 );
#342 = FILL_AREA_STYLE_COLOUR( '', #399 );
#343 = VERTEX_POINT( '', #400 );
#344 = B_SPLINE_CURVE_WITH_KNOTS( '', 3, ( #401, #402, #403, #404 ), .UNSPECIFIED., .F., .F., ( 4, 4 ), ( 0.0119476865857433, 0.0136917789295996 ), .UNSPECIFIED. );
#345 = VERTEX_POINT( '', #405 );
#346 = CIRCLE( '', #406, 5.77300000000000 );
#347 = B_SPLINE_CURVE_WITH_KNOTS( '', 3, ( #407, #408, #409, #410 ), .UNSPECIFIED., .F., .F., ( 4, 4 ), ( 0.0288470734708196, 0.0305935337729002 ), .UNSPECIFIED. );
#348 = FILL_AREA_STYLE_COLOUR( '', #411 );
#349 = VERTEX_POINT( '', #412 );
#350 = VERTEX_POINT( '', #413 );
#351 = CIRCLE( '', #414, 5.77300000000000 );
#352 = LINE( '', #415, #416 );
#353 = FILL_AREA_STYLE_COLOUR( '', #417 );
#354 = LINE( '', #418, #419 );
#355 = FILL_AREA_STYLE_COLOUR( '', #420 );
#356 = FILL_AREA_STYLE_COLOUR( '', #421 );
#357 = FILL_AREA_STYLE_COLOUR( '', #422 );
#358 = B_SPLINE_CURVE_WITH_KNOTS( '', 3, ( #423, #424, #425, #426 ), .UNSPECIFIED., .F., .F., ( 4, 4 ), ( 0.0288470734708196, 0.0305935337729002 ), .UNSPECIFIED. );
#359 = B_SPLINE_CURVE_WITH_KNOTS( '', 3, ( #427, #428, #429, #430 ), .UNSPECIFIED., .F., .F., ( 4, 4 ), ( 0.0119476865857433, 0.0136917789295995 ), .UNSPECIFIED. );
#360 = LINE( '', #431, #432 );
#361 = FILL_AREA_STYLE_COLOUR( '', #433 );
#362 = LINE( '', #434, #435 );
#363 = FILL_AREA_STYLE_COLOUR( '', #436 );
#364 = FILL_AREA_STYLE_COLOUR( '', #437 );
#365 = FILL_AREA_STYLE_COLOUR( '', #438 );
#366 = COLOUR_RGB( '', 0.689999997600000, 0.689999997600000, 0.689999997600000 );
#367 = CARTESIAN_POINT( '', ( 75.0000000000000, 4.50000000000000, 0.000000000000000 ) );
#368 = AXIS2_PLACEMENT_3D( '', #439, #440, #441 );
#369 = CARTESIAN_POINT( '', ( 69.1547600000000, 4.50000000000000, 0.000000000000000 ) );
#370 = AXIS2_PLACEMENT_3D( '', #442, #443, #444 );
#371 = COLOUR_RGB( '', 0.689999997600000, 0.689999997600000, 0.689999997600000 );
#372 = CARTESIAN_POINT( '', ( 68.0000000000000, 7.00000000000000, 0.000000000000000 ) );
#373 = AXIS2_PLACEMENT_3D( '', #445, #446, #447 );
#374 = CARTESIAN_POINT( '', ( 1.22700000000001, -0.899999999999990, 6.94190175672344 ) );
#375 = CARTESIAN_POINT( '', ( 1.22700000000001, -0.899999999999990, -6.94190175672344 ) );
#376 = AXIS2_PLACEMENT_3D( '', #448, #449, #450 );
#377 = CARTESIAN_POINT( '', ( 3.00000000000000, -0.899999999999995, -6.94190175672344 ) );
#378 = CARTESIAN_POINT( '', ( 80.0000000000000, -0.899999999999995, -6.94190175672344 ) );
#379 = VECTOR( '', #451, 1000.00000000000 );
#380 = CARTESIAN_POINT( '', ( 3.00000000000000, 0.900000000000005, -6.94190175672344 ) );
#381 = AXIS2_PLACEMENT_3D( '', #452, #453, #454 );
#382 = CARTESIAN_POINT( '', ( 1.22700000000001, 0.900000000000010, -6.94190175672344 ) );
#383 = CARTESIAN_POINT( '', ( 80.0000000000000, 0.900000000000005, -6.94190175672344 ) );
#384 = VECTOR( '', #455, 1000.00000000000 );
#385 = CARTESIAN_POINT( '', ( 1.22700000000001, 0.900000000000010, 6.94190175672344 ) );
#386 = AXIS2_PLACEMENT_3D( '', #456, #457, #458 );
#387 = CARTESIAN_POINT( '', ( 3.00000000000000, 0.900000000000005, 6.94190175672344 ) );
#388 = CARTESIAN_POINT( '', ( 80.0000000000000, 0.900000000000005, 6.94190175672344 ) );
#389 = VECTOR( '', #459, 1000.00000000000 );
#390 = CARTESIAN_POINT( '', ( 3.00000000000000, -0.899999999999995, 6.94190175672344 ) );
#391 = AXIS2_PLACEMENT_3D( '', #460, #461, #462 );
#392 = CARTESIAN_POINT( '', ( 80.0000000000000, -0.899999999999995, 6.94190175672344 ) );
#393 = VECTOR( '', #463, 1000.00000000000 );
#394 = COLOUR_RGB( '', 0.689999997600000, 0.689999997600000, 0.689999997600000 );
#395 = CARTESIAN_POINT( '', ( 78.3466297046986, 5.00000000000000, 0.000000000000000 ) );
#396 = AXIS2_PLACEMENT_3D( '', #464, #465, #466 );
#397 = CARTESIAN_POINT( '', ( 75.0000000000000, 5.00000000000000, 0.000000000000000 ) );
#398 = AXIS2_PLACEMENT_3D( '', #467, #468, #469 );
#399 = COLOUR_RGB( '', 0.689999997600000, 0.689999997600000, 0.689999997600000 );
#400 = CARTESIAN_POINT( '', ( 0.000000000000000, -0.899999999999995, 5.70241431325364 ) );
#401 = CARTESIAN_POINT( '', ( 1.22700000000000, -0.899999999999995, 6.94190175672345 ) );
#402 = CARTESIAN_POINT( '', ( 0.817629976282234, -0.899999999999995, 6.52910562873893 ) );
#403 = CARTESIAN_POINT( '', ( 0.408550449058583, -0.899999999999995, 6.11602188591518 ) );
#404 = CARTESIAN_POINT( '', ( -5.82716233345535E-15, -0.899999999999995, 5.70241431325365 ) );
#405 = CARTESIAN_POINT( '', ( 0.000000000000000, -0.899999999999995, -5.70241431325364 ) );
#406 = AXIS2_PLACEMENT_3D( '', #470, #471, #472 );
#407 = CARTESIAN_POINT( '', ( 1.38051777490968E-16, -0.899999999999995, -5.70241431325364 ) );
#408 = CARTESIAN_POINT( '', ( 0.408551604172656, -0.899999999999995, -6.11602305532749 ) );
#409 = CARTESIAN_POINT( '', ( 0.817630928954746, -0.899999999999995, -6.52910658938455 ) );
#410 = CARTESIAN_POINT( '', ( 1.22700000000001, -0.899999999999995, -6.94190175672344 ) );
#411 = COLOUR_RGB( '', 0.689999997600000, 0.689999997600000, 0.689999997600000 );
#412 = CARTESIAN_POINT( '', ( 0.000000000000000, 0.900000000000005, -5.70241431325364 ) );
#413 = CARTESIAN_POINT( '', ( 0.000000000000000, 0.900000000000005, 5.70241431325364 ) );
#414 = AXIS2_PLACEMENT_3D( '', #473, #474, #475 );
#415 = CARTESIAN_POINT( '', ( 0.000000000000000, 0.900000000000005, 10.5000000000000 ) );
#416 = VECTOR( '', #476, 1000.00000000000 );
#417 = COLOUR_RGB( '', 0.689999997600000, 0.689999997600000, 0.689999997600000 );
#418 = CARTESIAN_POINT( '', ( 0.000000000000000, -0.899999999999995, -10.5000000000000 ) );
#419 = VECTOR( '', #477, 1000.00000000000 );
#420 = COLOUR_RGB( '', 0.689999997600000, 0.689999997600000, 0.689999997600000 );
#421 = COLOUR_RGB( '', 0.689999997600000, 0.689999997600000, 0.689999997600000 );
#422 = COLOUR_RGB( '', 0.689999997600000, 0.689999997600000, 0.689999997600000 );
#423 = CARTESIAN_POINT( '', ( -1.21839675801512E-15, 0.900000000000005, 5.70241431325364 ) );
#424 = CARTESIAN_POINT( '', ( 0.408551604172655, 0.900000000000005, 6.11602305532749 ) );
#425 = CARTESIAN_POINT( '', ( 0.817630928954744, 0.900000000000005, 6.52910658938455 ) );
#426 = CARTESIAN_POINT( '', ( 1.22700000000001, 0.900000000000005, 6.94190175672344 ) );
#427 = CARTESIAN_POINT( '', ( 1.22700000000000, 0.900000000000005, -6.94190175672345 ) );
#428 = CARTESIAN_POINT( '', ( 0.817629976282233, 0.900000000000005, -6.52910562873893 ) );
#429 = CARTESIAN_POINT( '', ( 0.408550449058582, 0.900000000000005, -6.11602188591518 ) );
#430 = CARTESIAN_POINT( '', ( -5.77320782364035E-15, 0.900000000000005, -5.70241431325365 ) );
#431 = CARTESIAN_POINT( '', ( 3.00000000000000, 0.900000000000005, 10.5000000000000 ) );
#432 = VECTOR( '', #478, 1000.00000000000 );
#433 = COLOUR_RGB( '', 0.689999997600000, 0.689999997600000, 0.689999997600000 );
#434 = CARTESIAN_POINT( '', ( 3.00000000000000, -0.899999999999995, -10.5000000000000 ) );
#435 = VECTOR( '', #479, 1000.00000000000 );
#436 = COLOUR_RGB( '', 0.689999997600000, 0.689999997600000, 0.689999997600000 );
#437 = COLOUR_RGB( '', 0.689999997600000, 0.689999997600000, 0.689999997600000 );
#438 = COLOUR_RGB( '', 0.689999997600000, 0.689999997600000, 0.689999997600000 );
#439 = CARTESIAN_POINT( '', ( 75.0000000000000, 3.06161699786839E-16, 0.000000000000000 ) );
#440 = DIRECTION( '', ( 1.00000000000000, -6.12323399573676E-17, -0.000000000000000 ) );
#441 = DIRECTION( '', ( 6.12323399573676E-17, 1.00000000000000, 0.000000000000000 ) );
#442 = CARTESIAN_POINT( '', ( 69.1547600000000, 6.64079422599242E-16, 0.000000000000000 ) );
#443 = DIRECTION( '', ( 1.00000000000000, -6.12323399573676E-17, -0.000000000000000 ) );
#444 = DIRECTION( '', ( 6.12323399573676E-17, 1.00000000000000, 0.000000000000000 ) );
#445 = CARTESIAN_POINT( '', ( 68.0000000000000, 7.34788079488413E-16, 0.000000000000000 ) );
#446 = DIRECTION( '', ( 1.00000000000000, -6.12323399573677E-17, -0.000000000000000 ) );
#447 = DIRECTION( '', ( 6.12323399573677E-17, 1.00000000000000, 0.000000000000000 ) );
#448 = CARTESIAN_POINT( '', ( 1.22700000000001, 4.82345511546172E-15, 0.000000000000000 ) );
#449 = DIRECTION( '', ( 1.00000000000000, -6.12323399573677E-17, -0.000000000000000 ) );
#450 = DIRECTION( '', ( 6.12323399573677E-17, 1.00000000000000, 0.000000000000000 ) );
#451 = DIRECTION( '', ( 1.00000000000000, -6.12323399573677E-17, -0.000000000000000 ) );
#452 = CARTESIAN_POINT( '', ( 3.00000000000000, 4.71489017671731E-15, 0.000000000000000 ) );
#453 = DIRECTION( '', ( -1.00000000000000, 0.000000000000000, 0.000000000000000 ) );
#454 = DIRECTION( '', ( 0.000000000000000, 0.000000000000000, 1.00000000000000 ) );
#455 = DIRECTION( '', ( 1.00000000000000, -6.12323399573677E-17, -0.000000000000000 ) );
#456 = CARTESIAN_POINT( '', ( 1.22700000000001, 4.82345511546172E-15, 0.000000000000000 ) );
#457 = DIRECTION( '', ( 1.00000000000000, -6.12323399573677E-17, -0.000000000000000 ) );
#458 = DIRECTION( '', ( 6.12323399573677E-17, 1.00000000000000, 0.000000000000000 ) );
#459 = DIRECTION( '', ( 1.00000000000000, -6.12323399573677E-17, -0.000000000000000 ) );
#460 = CARTESIAN_POINT( '', ( 3.00000000000000, 4.71489017671731E-15, 0.000000000000000 ) );
#461 = DIRECTION( '', ( -1.00000000000000, 0.000000000000000, 0.000000000000000 ) );
#462 = DIRECTION( '', ( 0.000000000000000, 0.000000000000000, 1.00000000000000 ) );
#463 = DIRECTION( '', ( 1.00000000000000, -6.12323399573677E-17, -0.000000000000000 ) );
#464 = CARTESIAN_POINT( '', ( 78.3466297046986, 1.01239731997306E-16, 0.000000000000000 ) );
#465 = DIRECTION( '', ( 1.00000000000000, -6.12323399573677E-17, -0.000000000000000 ) );
#466 = DIRECTION( '', ( 6.12323399573677E-17, 1.00000000000000, 0.000000000000000 ) );
#467 = CARTESIAN_POINT( '', ( 75.0000000000000, 3.06161699786839E-16, 0.000000000000000 ) );
#468 = DIRECTION( '', ( 1.00000000000000, -6.12323399573677E-17, -0.000000000000000 ) );
#469 = DIRECTION( '', ( 6.12323399573677E-17, 1.00000000000000, 0.000000000000000 ) );
#470 = CARTESIAN_POINT( '', ( 0.000000000000000, 4.89858719658941E-15, 0.000000000000000 ) );
#471 = DIRECTION( '', ( 1.00000000000000, -6.12323399573677E-17, -0.000000000000000 ) );
#472 = DIRECTION( '', ( 6.12323399573677E-17, 1.00000000000000, 0.000000000000000 ) );
#473 = CARTESIAN_POINT( '', ( 0.000000000000000, 4.89858719658941E-15, 0.000000000000000 ) );
#474 = DIRECTION( '', ( 1.00000000000000, -6.12323399573677E-17, -0.000000000000000 ) );
#475 = DIRECTION( '', ( 6.12323399573677E-17, 1.00000000000000, 0.000000000000000 ) );
#476 = DIRECTION( '', ( 0.000000000000000, 0.000000000000000, -1.00000000000000 ) );
#477 = DIRECTION( '', ( 0.000000000000000, 0.000000000000000, 1.00000000000000 ) );
#478 = DIRECTION( '', ( 0.000000000000000, 0.000000000000000, -1.00000000000000 ) );
#479 = DIRECTION( '', ( 0.000000000000000, 0.000000000000000, 1.00000000000000 ) );
ENDSEC;
END-ISO-10303-21;
