ISO-10303-21;
HEADER;
FILE_DESCRIPTION( ( 'STEP AP214' ), '1' );
FILE_NAME( '//goodhand-server/Shared Folders/GoodHand Data/Kipp CAD/K0163/K0163.0360X28.stp', '2020-11-26T10:29:32', ( '' ), ( '' ), ' ', 'PARTsolutions', ' ' );
FILE_SCHEMA( ( 'AUTOMOTIVE_DESIGN { 1 0 10303 214 1 1 1 1 }' ) );
ENDSEC;
DATA;
#1 = MECHANICAL_DESIGN_GEOMETRIC_PRESENTATION_REPRESENTATION( ' ', ( #10, #11, #12, #13, #14, #15, #16, #17, #18, #19, #20, #21 ), #6 );
#2 = PRODUCT_DEFINITION_CONTEXT( '', #22, 'design' );
#3 = APPLICATION_PROTOCOL_DEFINITION( 'international standard', 'automotive_design', 2001, #22 );
#4 = PRODUCT_CATEGORY_RELATIONSHIP( 'NONE', 'NONE', #23, #24 );
#5 = SHAPE_DEFINITION_REPRESENTATION( #25, #26 );
#6 =  ( GEOMETRIC_REPRESENTATION_CONTEXT( 3 )GLOBAL_UNCERTAINTY_ASSIGNED_CONTEXT( ( #29 ) )GLOBAL_UNIT_ASSIGNED_CONTEXT( ( #31, #32, #33 ) )REPRESENTATION_CONTEXT( 'NONE', 'WORKSPACE' ) );
#10 = STYLED_ITEM( '', ( #35 ), #36 );
#11 = STYLED_ITEM( '', ( #37 ), #38 );
#12 = STYLED_ITEM( '', ( #39 ), #40 );
#13 = STYLED_ITEM( '', ( #41 ), #42 );
#14 = STYLED_ITEM( '', ( #43 ), #44 );
#15 = STYLED_ITEM( '', ( #45 ), #46 );
#16 = STYLED_ITEM( '', ( #47 ), #48 );
#17 = STYLED_ITEM( '', ( #49 ), #50 );
#18 = STYLED_ITEM( '', ( #51 ), #52 );
#19 = STYLED_ITEM( '', ( #53 ), #54 );
#20 = STYLED_ITEM( '', ( #55 ), #56 );
#21 = STYLED_ITEM( '', ( #57 ), #58 );
#22 = APPLICATION_CONTEXT( 'core data for automotive mechanical design processes' );
#23 = PRODUCT_CATEGORY( 'part', 'NONE' );
#24 = PRODUCT_RELATED_PRODUCT_CATEGORY( 'detail', ' ', ( #59 ) );
#25 = PRODUCT_DEFINITION_SHAPE( 'NONE', 'NONE', #60 );
#26 = ADVANCED_BREP_SHAPE_REPRESENTATION( '_K0163.0360X28', ( #61, #62 ), #6 );
#29 = UNCERTAINTY_MEASURE_WITH_UNIT( LENGTH_MEASURE( 0.00100000000000000 ), #31, '', '' );
#31 =  ( CONVERSION_BASED_UNIT( 'MILLIMETRE', #65 )LENGTH_UNIT(  )NAMED_UNIT( #68 ) );
#32 =  ( NAMED_UNIT( #70 )PLANE_ANGLE_UNIT(  )SI_UNIT( $, .RADIAN. ) );
#33 =  ( NAMED_UNIT( #70 )SI_UNIT( $, .STERADIAN. )SOLID_ANGLE_UNIT(  ) );
#35 = PRESENTATION_STYLE_ASSIGNMENT( ( #76 ) );
#36 = ADVANCED_FACE( '', ( #77, #78 ), #79, .F. );
#37 = PRESENTATION_STYLE_ASSIGNMENT( ( #80 ) );
#38 = ADVANCED_FACE( '', ( #81, #82 ), #83, .T. );
#39 = PRESENTATION_STYLE_ASSIGNMENT( ( #84 ) );
#40 = ADVANCED_FACE( '', ( #85, #86 ), #87, .F. );
#41 = PRESENTATION_STYLE_ASSIGNMENT( ( #88 ) );
#42 = ADVANCED_FACE( '', ( #89, #90 ), #91, .F. );
#43 = PRESENTATION_STYLE_ASSIGNMENT( ( #92 ) );
#44 = ADVANCED_FACE( '', ( #93, #94 ), #95, .F. );
#45 = PRESENTATION_STYLE_ASSIGNMENT( ( #96 ) );
#46 = ADVANCED_FACE( '', ( #97, #98 ), #99, .T. );
#47 = PRESENTATION_STYLE_ASSIGNMENT( ( #100 ) );
#48 = ADVANCED_FACE( '', ( #101, #102 ), #103, .F. );
#49 = PRESENTATION_STYLE_ASSIGNMENT( ( #104 ) );
#50 = ADVANCED_FACE( '', ( #105, #106 ), #107, .F. );
#51 = PRESENTATION_STYLE_ASSIGNMENT( ( #108 ) );
#52 = ADVANCED_FACE( '', ( #109, #110 ), #111, .F. );
#53 = PRESENTATION_STYLE_ASSIGNMENT( ( #112 ) );
#54 = ADVANCED_FACE( '', ( #113, #114 ), #115, .T. );
#55 = PRESENTATION_STYLE_ASSIGNMENT( ( #116 ) );
#56 = ADVANCED_FACE( '', ( #117, #118 ), #119, .T. );
#57 = PRESENTATION_STYLE_ASSIGNMENT( ( #120 ) );
#58 = ADVANCED_FACE( '', ( #121, #122, #123 ), #124, .T. );
#59 = PRODUCT( '_K0163.0360X28', '_K0163.0360X28', 'PART-_K0163.0360X28-DESC', ( #125 ) );
#60 = PRODUCT_DEFINITION( 'NONE', 'NONE', #126, #2 );
#61 = MANIFOLD_SOLID_BREP( '_K0163.0360X28', #127 );
#62 = AXIS2_PLACEMENT_3D( '', #128, #129, #130 );
#65 = LENGTH_MEASURE_WITH_UNIT( LENGTH_MEASURE( 1.00000000000000 ), #131 );
#68 = DIMENSIONAL_EXPONENTS( 1.00000000000000, 0.000000000000000, 0.000000000000000, 0.000000000000000, 0.000000000000000, 0.000000000000000, 0.000000000000000 );
#70 = DIMENSIONAL_EXPONENTS( 0.000000000000000, 0.000000000000000, 0.000000000000000, 0.000000000000000, 0.000000000000000, 0.000000000000000, 0.000000000000000 );
#76 = SURFACE_STYLE_USAGE( .BOTH., #132 );
#77 = FACE_OUTER_BOUND( '', #133, .T. );
#78 = FACE_BOUND( '', #134, .T. );
#79 = CONICAL_SURFACE( '', #135, 158.500000000000, 0.478830845400000 );
#80 = SURFACE_STYLE_USAGE( .BOTH., #136 );
#81 = FACE_OUTER_BOUND( '', #137, .T. );
#82 = FACE_OUTER_BOUND( '', #138, .T. );
#83 = TOROIDAL_SURFACE( '', #139, 162.235754524500, 15.0000000000000 );
#84 = SURFACE_STYLE_USAGE( .BOTH., #140 );
#85 = FACE_BOUND( '', #141, .T. );
#86 = FACE_OUTER_BOUND( '', #142, .T. );
#87 = CONICAL_SURFACE( '', #143, 159.500000000000, 0.636508215800000 );
#88 = SURFACE_STYLE_USAGE( .BOTH., #144 );
#89 = FACE_BOUND( '', #145, .T. );
#90 = FACE_OUTER_BOUND( '', #146, .T. );
#91 = PLANE( '', #147 );
#92 = SURFACE_STYLE_USAGE( .BOTH., #148 );
#93 = FACE_OUTER_BOUND( '', #149, .T. );
#94 = FACE_BOUND( '', #150, .T. );
#95 = CONICAL_SURFACE( '', #151, 31.5000000000000, 1.31179052760000 );
#96 = SURFACE_STYLE_USAGE( .BOTH., #152 );
#97 = FACE_BOUND( '', #153, .T. );
#98 = FACE_OUTER_BOUND( '', #154, .T. );
#99 = CONICAL_SURFACE( '', #155, 151.000000000000, 1.28973576920000 );
#100 = SURFACE_STYLE_USAGE( .BOTH., #156 );
#101 = FACE_OUTER_BOUND( '', #157, .T. );
#102 = FACE_OUTER_BOUND( '', #158, .T. );
#103 = CYLINDRICAL_SURFACE( '', #159, 14.0000000000000 );
#104 = SURFACE_STYLE_USAGE( .BOTH., #160 );
#105 = FACE_BOUND( '', #161, .T. );
#106 = FACE_OUTER_BOUND( '', #162, .T. );
#107 = CONICAL_SURFACE( '', #163, 162.000000000000, 0.560437519600000 );
#108 = SURFACE_STYLE_USAGE( .BOTH., #164 );
#109 = FACE_OUTER_BOUND( '', #165, .T. );
#110 = FACE_BOUND( '', #166, .T. );
#111 = PLANE( '', #167 );
#112 = SURFACE_STYLE_USAGE( .BOTH., #168 );
#113 = FACE_OUTER_BOUND( '', #169, .T. );
#114 = FACE_OUTER_BOUND( '', #170, .T. );
#115 = CYLINDRICAL_SURFACE( '', #171, 31.5000000000000 );
#116 = SURFACE_STYLE_USAGE( .BOTH., #172 );
#117 = FACE_OUTER_BOUND( '', #173, .T. );
#118 = FACE_OUTER_BOUND( '', #174, .T. );
#119 = CYLINDRICAL_SURFACE( '', #175, 31.5000000000000 );
#120 = SURFACE_STYLE_USAGE( .BOTH., #176 );
#121 = FACE_BOUND( '', #177, .T. );
#122 = FACE_OUTER_BOUND( '', #178, .T. );
#123 = FACE_OUTER_BOUND( '', #179, .T. );
#124 = TOROIDAL_SURFACE( '', #180, 162.750000000000, 17.2500000000000 );
#125 = PRODUCT_CONTEXT( '', #22, 'mechanical' );
#126 = PRODUCT_DEFINITION_FORMATION_WITH_SPECIFIED_SOURCE( ' ', 'NONE', #59, .NOT_KNOWN. );
#127 = CLOSED_SHELL( '', ( #48, #52, #54, #44, #38, #36, #58, #50, #40, #46, #56, #42 ) );
#128 = CARTESIAN_POINT( '', ( 0.000000000000000, 0.000000000000000, 0.000000000000000 ) );
#129 = DIRECTION( '', ( 0.000000000000000, 0.000000000000000, 1.00000000000000 ) );
#130 = DIRECTION( '', ( 1.00000000000000, 0.000000000000000, 0.000000000000000 ) );
#131 =  ( LENGTH_UNIT(  )NAMED_UNIT( #68 )SI_UNIT( .MILLI., .METRE. ) );
#132 = SURFACE_SIDE_STYLE( '', ( #182 ) );
#133 = EDGE_LOOP( '', ( #183 ) );
#134 = EDGE_LOOP( '', ( #184 ) );
#135 = AXIS2_PLACEMENT_3D( '', #185, #186, #187 );
#136 = SURFACE_SIDE_STYLE( '', ( #188 ) );
#137 = EDGE_LOOP( '', ( #189 ) );
#138 = EDGE_LOOP( '', ( #190 ) );
#139 = AXIS2_PLACEMENT_3D( '', #191, #192, #193 );
#140 = SURFACE_SIDE_STYLE( '', ( #194 ) );
#141 = EDGE_LOOP( '', ( #195 ) );
#142 = EDGE_LOOP( '', ( #196 ) );
#143 = AXIS2_PLACEMENT_3D( '', #197, #198, #199 );
#144 = SURFACE_SIDE_STYLE( '', ( #200 ) );
#145 = EDGE_LOOP( '', ( #201 ) );
#146 = EDGE_LOOP( '', ( #202 ) );
#147 = AXIS2_PLACEMENT_3D( '', #203, #204, #205 );
#148 = SURFACE_SIDE_STYLE( '', ( #206 ) );
#149 = EDGE_LOOP( '', ( #207 ) );
#150 = EDGE_LOOP( '', ( #208 ) );
#151 = AXIS2_PLACEMENT_3D( '', #209, #210, #211 );
#152 = SURFACE_SIDE_STYLE( '', ( #212 ) );
#153 = EDGE_LOOP( '', ( #213 ) );
#154 = EDGE_LOOP( '', ( #214 ) );
#155 = AXIS2_PLACEMENT_3D( '', #215, #216, #217 );
#156 = SURFACE_SIDE_STYLE( '', ( #218 ) );
#157 = EDGE_LOOP( '', ( #219 ) );
#158 = EDGE_LOOP( '', ( #220 ) );
#159 = AXIS2_PLACEMENT_3D( '', #221, #222, #223 );
#160 = SURFACE_SIDE_STYLE( '', ( #224 ) );
#161 = EDGE_LOOP( '', ( #225 ) );
#162 = EDGE_LOOP( '', ( #226 ) );
#163 = AXIS2_PLACEMENT_3D( '', #227, #228, #229 );
#164 = SURFACE_SIDE_STYLE( '', ( #230 ) );
#165 = EDGE_LOOP( '', ( #231 ) );
#166 = EDGE_LOOP( '', ( #232 ) );
#167 = AXIS2_PLACEMENT_3D( '', #233, #234, #235 );
#168 = SURFACE_SIDE_STYLE( '', ( #236 ) );
#169 = EDGE_LOOP( '', ( #237 ) );
#170 = EDGE_LOOP( '', ( #238 ) );
#171 = AXIS2_PLACEMENT_3D( '', #239, #240, #241 );
#172 = SURFACE_SIDE_STYLE( '', ( #242 ) );
#173 = EDGE_LOOP( '', ( #243 ) );
#174 = EDGE_LOOP( '', ( #244 ) );
#175 = AXIS2_PLACEMENT_3D( '', #245, #246, #247 );
#176 = SURFACE_SIDE_STYLE( '', ( #248 ) );
#177 = VERTEX_LOOP( '', #249 );
#178 = EDGE_LOOP( '', ( #250 ) );
#179 = EDGE_LOOP( '', ( #251 ) );
#180 = AXIS2_PLACEMENT_3D( '', #252, #253, #254 );
#182 = SURFACE_STYLE_FILL_AREA( #255 );
#183 = ORIENTED_EDGE( '', *, *, #256, .F. );
#184 = ORIENTED_EDGE( '', *, *, #257, .T. );
#185 = CARTESIAN_POINT( '', ( 69.0000000000000, 0.000000000000000, 0.000000000000000 ) );
#186 = DIRECTION( '', ( 1.00000000000000, -0.000000000000000, 0.000000000000000 ) );
#187 = DIRECTION( '', ( 0.000000000000000, 0.000000000000000, -1.00000000000000 ) );
#188 = SURFACE_STYLE_FILL_AREA( #258 );
#189 = ORIENTED_EDGE( '', *, *, #259, .T. );
#190 = ORIENTED_EDGE( '', *, *, #257, .F. );
#191 = CARTESIAN_POINT( '', ( 54.4726417359203, 0.000000000000000, 0.000000000000000 ) );
#192 = DIRECTION( '', ( -1.00000000000000, 0.000000000000000, 0.000000000000000 ) );
#193 = DIRECTION( '', ( 0.000000000000000, 0.000000000000000, 1.00000000000000 ) );
#194 = SURFACE_STYLE_FILL_AREA( #260 );
#195 = ORIENTED_EDGE( '', *, *, #261, .F. );
#196 = ORIENTED_EDGE( '', *, *, #262, .T. );
#197 = CARTESIAN_POINT( '', ( 42.5000000000000, 0.000000000000000, 0.000000000000000 ) );
#198 = DIRECTION( '', ( -1.00000000000000, -0.000000000000000, -0.000000000000000 ) );
#199 = DIRECTION( '', ( 0.000000000000000, 0.000000000000000, 1.00000000000000 ) );
#200 = SURFACE_STYLE_FILL_AREA( #263 );
#201 = ORIENTED_EDGE( '', *, *, #264, .T. );
#202 = ORIENTED_EDGE( '', *, *, #265, .T. );
#203 = CARTESIAN_POINT( '', ( 0.000000000000000, -31.5000000000000, 0.000000000000000 ) );
#204 = DIRECTION( '', ( 1.00000000000000, 0.000000000000000, 0.000000000000000 ) );
#205 = DIRECTION( '', ( 0.000000000000000, 0.000000000000000, -1.00000000000000 ) );
#206 = SURFACE_STYLE_FILL_AREA( #266 );
#207 = ORIENTED_EDGE( '', *, *, #259, .F. );
#208 = ORIENTED_EDGE( '', *, *, #267, .T. );
#209 = CARTESIAN_POINT( '', ( 29.5000000000000, 0.000000000000000, 0.000000000000000 ) );
#210 = DIRECTION( '', ( 1.00000000000000, -0.000000000000000, 0.000000000000000 ) );
#211 = DIRECTION( '', ( 0.000000000000000, 0.000000000000000, -1.00000000000000 ) );
#212 = SURFACE_STYLE_FILL_AREA( #268 );
#213 = ORIENTED_EDGE( '', *, *, #269, .F. );
#214 = ORIENTED_EDGE( '', *, *, #261, .T. );
#215 = CARTESIAN_POINT( '', ( 54.0000000000000, 0.000000000000000, 0.000000000000000 ) );
#216 = DIRECTION( '', ( 1.00000000000000, -0.000000000000000, 0.000000000000000 ) );
#217 = DIRECTION( '', ( 0.000000000000000, 0.000000000000000, -1.00000000000000 ) );
#218 = SURFACE_STYLE_FILL_AREA( #270 );
#219 = ORIENTED_EDGE( '', *, *, #264, .F. );
#220 = ORIENTED_EDGE( '', *, *, #271, .T. );
#221 = CARTESIAN_POINT( '', ( 73.0000000000000, 0.000000000000000, 0.000000000000000 ) );
#222 = DIRECTION( '', ( 1.00000000000000, -0.000000000000000, -0.000000000000000 ) );
#223 = DIRECTION( '', ( 0.000000000000000, 0.000000000000000, 1.00000000000000 ) );
#224 = SURFACE_STYLE_FILL_AREA( #272 );
#225 = ORIENTED_EDGE( '', *, *, #262, .F. );
#226 = ORIENTED_EDGE( '', *, *, #273, .T. );
#227 = CARTESIAN_POINT( '', ( 38.5163120603859, 0.000000000000000, 0.000000000000000 ) );
#228 = DIRECTION( '', ( -1.00000000000000, -0.000000000000000, -0.000000000000000 ) );
#229 = DIRECTION( '', ( 0.000000000000000, 0.000000000000000, 1.00000000000000 ) );
#230 = SURFACE_STYLE_FILL_AREA( #274 );
#231 = ORIENTED_EDGE( '', *, *, #275, .F. );
#232 = ORIENTED_EDGE( '', *, *, #271, .F. );
#233 = CARTESIAN_POINT( '', ( 35.0000000000000, 0.000000000000000, 0.000000000000000 ) );
#234 = DIRECTION( '', ( -1.00000000000000, 0.000000000000000, 0.000000000000000 ) );
#235 = DIRECTION( '', ( 0.000000000000000, 0.000000000000000, 1.00000000000000 ) );
#236 = SURFACE_STYLE_FILL_AREA( #276 );
#237 = ORIENTED_EDGE( '', *, *, #267, .F. );
#238 = ORIENTED_EDGE( '', *, *, #275, .T. );
#239 = CARTESIAN_POINT( '', ( 0.000000000000000, 0.000000000000000, 0.000000000000000 ) );
#240 = DIRECTION( '', ( 1.00000000000000, -0.000000000000000, -0.000000000000000 ) );
#241 = DIRECTION( '', ( 0.000000000000000, 0.000000000000000, 1.00000000000000 ) );
#242 = SURFACE_STYLE_FILL_AREA( #277 );
#243 = ORIENTED_EDGE( '', *, *, #265, .F. );
#244 = ORIENTED_EDGE( '', *, *, #269, .T. );
#245 = CARTESIAN_POINT( '', ( 0.000000000000000, 0.000000000000000, 0.000000000000000 ) );
#246 = DIRECTION( '', ( 1.00000000000000, -0.000000000000000, -0.000000000000000 ) );
#247 = DIRECTION( '', ( 0.000000000000000, 0.000000000000000, 1.00000000000000 ) );
#248 = SURFACE_STYLE_FILL_AREA( #278 );
#249 = VERTEX_POINT( '', #279 );
#250 = ORIENTED_EDGE( '', *, *, #256, .T. );
#251 = ORIENTED_EDGE( '', *, *, #273, .F. );
#252 = CARTESIAN_POINT( '', ( 55.7500000000000, 0.000000000000000, 0.000000000000000 ) );
#253 = DIRECTION( '', ( -1.00000000000000, 0.000000000000000, 0.000000000000000 ) );
#254 = DIRECTION( '', ( 0.000000000000000, 0.000000000000000, 1.00000000000000 ) );
#255 = FILL_AREA_STYLE( '', ( #280 ) );
#256 = EDGE_CURVE( '', #281, #281, #282, .T. );
#257 = EDGE_CURVE( '', #283, #283, #284, .T. );
#258 = FILL_AREA_STYLE( '', ( #285 ) );
#259 = EDGE_CURVE( '', #286, #286, #287, .T. );
#260 = FILL_AREA_STYLE( '', ( #288 ) );
#261 = EDGE_CURVE( '', #289, #289, #290, .T. );
#262 = EDGE_CURVE( '', #291, #291, #292, .T. );
#263 = FILL_AREA_STYLE( '', ( #293 ) );
#264 = EDGE_CURVE( '', #294, #294, #295, .T. );
#265 = EDGE_CURVE( '', #296, #296, #297, .T. );
#266 = FILL_AREA_STYLE( '', ( #298 ) );
#267 = EDGE_CURVE( '', #299, #299, #300, .T. );
#268 = FILL_AREA_STYLE( '', ( #301 ) );
#269 = EDGE_CURVE( '', #302, #302, #303, .T. );
#270 = FILL_AREA_STYLE( '', ( #304 ) );
#271 = EDGE_CURVE( '', #305, #305, #306, .F. );
#272 = FILL_AREA_STYLE( '', ( #307 ) );
#273 = EDGE_CURVE( '', #308, #308, #309, .T. );
#274 = FILL_AREA_STYLE( '', ( #310 ) );
#275 = EDGE_CURVE( '', #311, #311, #312, .T. );
#276 = FILL_AREA_STYLE( '', ( #313 ) );
#277 = FILL_AREA_STYLE( '', ( #314 ) );
#278 = FILL_AREA_STYLE( '', ( #315 ) );
#279 = CARTESIAN_POINT( '', ( 55.7500000000000, 0.000000000000000, 180.000000000000 ) );
#280 = FILL_AREA_STYLE_COLOUR( '', #316 );
#281 = VERTEX_POINT( '', #317 );
#282 = CIRCLE( '', #318, 160.500000000000 );
#283 = VERTEX_POINT( '', #319 );
#284 = CIRCLE( '', #320, 158.500000000000 );
#285 = FILL_AREA_STYLE_COLOUR( '', #321 );
#286 = VERTEX_POINT( '', #322 );
#287 = CIRCLE( '', #323, 148.500000000000 );
#288 = FILL_AREA_STYLE_COLOUR( '', #324 );
#289 = VERTEX_POINT( '', #325 );
#290 = CIRCLE( '', #326, 151.000000000000 );
#291 = VERTEX_POINT( '', #327 );
#292 = CIRCLE( '', #328, 159.500000000000 );
#293 = FILL_AREA_STYLE_COLOUR( '', #329 );
#294 = VERTEX_POINT( '', #330 );
#295 = CIRCLE( '', #331, 14.0000000000000 );
#296 = VERTEX_POINT( '', #332 );
#297 = CIRCLE( '', #333, 31.5000000000000 );
#298 = FILL_AREA_STYLE_COLOUR( '', #334 );
#299 = VERTEX_POINT( '', #335 );
#300 = CIRCLE( '', #336, 31.5000000000000 );
#301 = FILL_AREA_STYLE_COLOUR( '', #337 );
#302 = VERTEX_POINT( '', #338 );
#303 = CIRCLE( '', #339, 31.5000000000000 );
#304 = FILL_AREA_STYLE_COLOUR( '', #340 );
#305 = VERTEX_POINT( '', #341 );
#306 = CIRCLE( '', #342, 14.0000000000000 );
#307 = FILL_AREA_STYLE_COLOUR( '', #343 );
#308 = VERTEX_POINT( '', #344 );
#309 = CIRCLE( '', #345, 162.000000000000 );
#310 = FILL_AREA_STYLE_COLOUR( '', #346 );
#311 = VERTEX_POINT( '', #347 );
#312 = CIRCLE( '', #348, 31.5000000000000 );
#313 = FILL_AREA_STYLE_COLOUR( '', #349 );
#314 = FILL_AREA_STYLE_COLOUR( '', #350 );
#315 = FILL_AREA_STYLE_COLOUR( '', #351 );
#316 = COLOUR_RGB( '', 0.689999997600000, 0.689999997600000, 0.689999997600000 );
#317 = CARTESIAN_POINT( '', ( 72.8526313764871, 0.000000000000000, 160.500000000000 ) );
#318 = AXIS2_PLACEMENT_3D( '', #352, #353, #354 );
#319 = CARTESIAN_POINT( '', ( 69.0000000000000, 0.000000000000000, 158.500000000000 ) );
#320 = AXIS2_PLACEMENT_3D( '', #355, #356, #357 );
#321 = COLOUR_RGB( '', 0.689999997600000, 0.689999997600000, 0.689999997600000 );
#322 = CARTESIAN_POINT( '', ( 60.5000000000000, 0.000000000000000, 148.500000000000 ) );
#323 = AXIS2_PLACEMENT_3D( '', #358, #359, #360 );
#324 = COLOUR_RGB( '', 0.689999997600000, 0.689999997600000, 0.689999997600000 );
#325 = CARTESIAN_POINT( '', ( 54.0000000000000, 0.000000000000000, 151.000000000000 ) );
#326 = AXIS2_PLACEMENT_3D( '', #361, #362, #363 );
#327 = CARTESIAN_POINT( '', ( 42.5000000000000, 0.000000000000000, 159.500000000000 ) );
#328 = AXIS2_PLACEMENT_3D( '', #364, #365, #366 );
#329 = COLOUR_RGB( '', 0.689999997600000, 0.689999997600000, 0.689999997600000 );
#330 = CARTESIAN_POINT( '', ( 0.000000000000000, 0.000000000000000, -14.0000000000000 ) );
#331 = AXIS2_PLACEMENT_3D( '', #367, #368, #369 );
#332 = CARTESIAN_POINT( '', ( 0.000000000000000, 0.000000000000000, 31.5000000000000 ) );
#333 = AXIS2_PLACEMENT_3D( '', #370, #371, #372 );
#334 = COLOUR_RGB( '', 0.689999997600000, 0.689999997600000, 0.689999997600000 );
#335 = CARTESIAN_POINT( '', ( 29.5000000000000, 0.000000000000000, 31.5000000000000 ) );
#336 = AXIS2_PLACEMENT_3D( '', #373, #374, #375 );
#337 = COLOUR_RGB( '', 0.689999997600000, 0.689999997600000, 0.689999997600000 );
#338 = CARTESIAN_POINT( '', ( 19.5000000000000, 0.000000000000000, 31.5000000000000 ) );
#339 = AXIS2_PLACEMENT_3D( '', #376, #377, #378 );
#340 = COLOUR_RGB( '', 0.689999997600000, 0.689999997600000, 0.689999997600000 );
#341 = CARTESIAN_POINT( '', ( 35.0000000000000, 0.000000000000000, 14.0000000000000 ) );
#342 = AXIS2_PLACEMENT_3D( '', #379, #380, #381 );
#343 = COLOUR_RGB( '', 0.689999997600000, 0.689999997600000, 0.689999997600000 );
#344 = CARTESIAN_POINT( '', ( 38.5163120603859, 0.000000000000000, 162.000000000000 ) );
#345 = AXIS2_PLACEMENT_3D( '', #382, #383, #384 );
#346 = COLOUR_RGB( '', 0.689999997600000, 0.689999997600000, 0.689999997600000 );
#347 = CARTESIAN_POINT( '', ( 35.0000000000000, 0.000000000000000, 31.5000000000000 ) );
#348 = AXIS2_PLACEMENT_3D( '', #385, #386, #387 );
#349 = COLOUR_RGB( '', 0.689999997600000, 0.689999997600000, 0.689999997600000 );
#350 = COLOUR_RGB( '', 0.689999997600000, 0.689999997600000, 0.689999997600000 );
#351 = COLOUR_RGB( '', 0.689999997600000, 0.689999997600000, 0.689999997600000 );
#352 = CARTESIAN_POINT( '', ( 72.8526313764871, 0.000000000000000, 0.000000000000000 ) );
#353 = DIRECTION( '', ( -1.00000000000000, 0.000000000000000, 0.000000000000000 ) );
#354 = DIRECTION( '', ( 0.000000000000000, 0.000000000000000, 1.00000000000000 ) );
#355 = CARTESIAN_POINT( '', ( 69.0000000000000, 0.000000000000000, 0.000000000000000 ) );
#356 = DIRECTION( '', ( -1.00000000000000, 0.000000000000000, 0.000000000000000 ) );
#357 = DIRECTION( '', ( 0.000000000000000, 0.000000000000000, 1.00000000000000 ) );
#358 = CARTESIAN_POINT( '', ( 60.5000000000000, 0.000000000000000, 0.000000000000000 ) );
#359 = DIRECTION( '', ( -1.00000000000000, 0.000000000000000, 0.000000000000000 ) );
#360 = DIRECTION( '', ( 0.000000000000000, 0.000000000000000, 1.00000000000000 ) );
#361 = CARTESIAN_POINT( '', ( 54.0000000000000, 0.000000000000000, 0.000000000000000 ) );
#362 = DIRECTION( '', ( -1.00000000000000, 0.000000000000000, 0.000000000000000 ) );
#363 = DIRECTION( '', ( 0.000000000000000, 0.000000000000000, 1.00000000000000 ) );
#364 = CARTESIAN_POINT( '', ( 42.5000000000000, 0.000000000000000, 0.000000000000000 ) );
#365 = DIRECTION( '', ( -1.00000000000000, 0.000000000000000, 0.000000000000000 ) );
#366 = DIRECTION( '', ( 0.000000000000000, 0.000000000000000, 1.00000000000000 ) );
#367 = CARTESIAN_POINT( '', ( 0.000000000000000, 0.000000000000000, 0.000000000000000 ) );
#368 = DIRECTION( '', ( 1.00000000000000, 0.000000000000000, 0.000000000000000 ) );
#369 = DIRECTION( '', ( 0.000000000000000, 0.000000000000000, -1.00000000000000 ) );
#370 = CARTESIAN_POINT( '', ( 0.000000000000000, 0.000000000000000, 0.000000000000000 ) );
#371 = DIRECTION( '', ( -1.00000000000000, 0.000000000000000, 0.000000000000000 ) );
#372 = DIRECTION( '', ( 0.000000000000000, 0.000000000000000, 1.00000000000000 ) );
#373 = CARTESIAN_POINT( '', ( 29.5000000000000, 0.000000000000000, 0.000000000000000 ) );
#374 = DIRECTION( '', ( -1.00000000000000, 0.000000000000000, 0.000000000000000 ) );
#375 = DIRECTION( '', ( 0.000000000000000, 0.000000000000000, 1.00000000000000 ) );
#376 = CARTESIAN_POINT( '', ( 19.5000000000000, 0.000000000000000, 0.000000000000000 ) );
#377 = DIRECTION( '', ( -1.00000000000000, 0.000000000000000, 0.000000000000000 ) );
#378 = DIRECTION( '', ( 0.000000000000000, 0.000000000000000, 1.00000000000000 ) );
#379 = CARTESIAN_POINT( '', ( 35.0000000000000, 0.000000000000000, 0.000000000000000 ) );
#380 = DIRECTION( '', ( -1.00000000000000, 0.000000000000000, 0.000000000000000 ) );
#381 = DIRECTION( '', ( 0.000000000000000, 0.000000000000000, 1.00000000000000 ) );
#382 = CARTESIAN_POINT( '', ( 38.5163120603859, 0.000000000000000, 0.000000000000000 ) );
#383 = DIRECTION( '', ( -1.00000000000000, 0.000000000000000, 0.000000000000000 ) );
#384 = DIRECTION( '', ( 0.000000000000000, 0.000000000000000, 1.00000000000000 ) );
#385 = CARTESIAN_POINT( '', ( 35.0000000000000, 0.000000000000000, 0.000000000000000 ) );
#386 = DIRECTION( '', ( -1.00000000000000, 0.000000000000000, 0.000000000000000 ) );
#387 = DIRECTION( '', ( 0.000000000000000, 0.000000000000000, 1.00000000000000 ) );
ENDSEC;
END-ISO-10303-21;
