ISO-10303-21;
HEADER;
FILE_DESCRIPTION( ( 'STEP AP214' ), '1' );
FILE_NAME( '//goodhand-server/Shared Folders/GoodHand Data/Kipp CAD/K0390/K0390.101X60.stp', '2020-12-07T10:15:38', ( '' ), ( '' ), ' ', 'PARTsolutions', ' ' );
FILE_SCHEMA( ( 'AUTOMOTIVE_DESIGN { 1 0 10303 214 1 1 1 1 }' ) );
ENDSEC;
DATA;
#1 = MECHANICAL_DESIGN_GEOMETRIC_PRESENTATION_REPRESENTATION( ' ', ( #10, #11, #12, #13, #14, #15, #16, #17, #18, #19, #20, #21, #22 ), #6 );
#2 = PRODUCT_DEFINITION_CONTEXT( '', #23, 'design' );
#3 = APPLICATION_PROTOCOL_DEFINITION( 'international standard', 'automotive_design', 2001, #23 );
#4 = PRODUCT_CATEGORY_RELATIONSHIP( 'NONE', 'NONE', #24, #25 );
#5 = SHAPE_DEFINITION_REPRESENTATION( #26, #27 );
#6 =  ( GEOMETRIC_REPRESENTATION_CONTEXT( 3 )GLOBAL_UNCERTAINTY_ASSIGNED_CONTEXT( ( #30 ) )GLOBAL_UNIT_ASSIGNED_CONTEXT( ( #32, #33, #34 ) )REPRESENTATION_CONTEXT( 'NONE', 'WORKSPACE' ) );
#10 = STYLED_ITEM( '', ( #36 ), #37 );
#11 = STYLED_ITEM( '', ( #38 ), #39 );
#12 = STYLED_ITEM( '', ( #40 ), #41 );
#13 = STYLED_ITEM( '', ( #42 ), #43 );
#14 = STYLED_ITEM( '', ( #44 ), #45 );
#15 = STYLED_ITEM( '', ( #46 ), #47 );
#16 = STYLED_ITEM( '', ( #48 ), #49 );
#17 = STYLED_ITEM( '', ( #50 ), #51 );
#18 = STYLED_ITEM( '', ( #52 ), #53 );
#19 = STYLED_ITEM( '', ( #54 ), #55 );
#20 = STYLED_ITEM( '', ( #56 ), #57 );
#21 = STYLED_ITEM( '', ( #58 ), #59 );
#22 = STYLED_ITEM( '', ( #60 ), #61 );
#23 = APPLICATION_CONTEXT( 'core data for automotive mechanical design processes' );
#24 = PRODUCT_CATEGORY( 'part', 'NONE' );
#25 = PRODUCT_RELATED_PRODUCT_CATEGORY( 'detail', ' ', ( #62 ) );
#26 = PRODUCT_DEFINITION_SHAPE( 'NONE', 'NONE', #63 );
#27 = ADVANCED_BREP_SHAPE_REPRESENTATION( '_K0390.101X60', ( #64, #65 ), #6 );
#30 = UNCERTAINTY_MEASURE_WITH_UNIT( LENGTH_MEASURE( 0.00100000000000000 ), #32, '', '' );
#32 =  ( CONVERSION_BASED_UNIT( 'MILLIMETRE', #68 )LENGTH_UNIT(  )NAMED_UNIT( #71 ) );
#33 =  ( NAMED_UNIT( #73 )PLANE_ANGLE_UNIT(  )SI_UNIT( $, .RADIAN. ) );
#34 =  ( NAMED_UNIT( #73 )SI_UNIT( $, .STERADIAN. )SOLID_ANGLE_UNIT(  ) );
#36 = PRESENTATION_STYLE_ASSIGNMENT( ( #79 ) );
#37 = ADVANCED_FACE( '', ( #80, #81 ), #82, .T. );
#38 = PRESENTATION_STYLE_ASSIGNMENT( ( #83 ) );
#39 = ADVANCED_FACE( '', ( #84 ), #85, .T. );
#40 = PRESENTATION_STYLE_ASSIGNMENT( ( #86 ) );
#41 = ADVANCED_FACE( '', ( #87 ), #88, .T. );
#42 = PRESENTATION_STYLE_ASSIGNMENT( ( #89 ) );
#43 = ADVANCED_FACE( '', ( #90 ), #91, .T. );
#44 = PRESENTATION_STYLE_ASSIGNMENT( ( #92 ) );
#45 = ADVANCED_FACE( '', ( #93 ), #94, .F. );
#46 = PRESENTATION_STYLE_ASSIGNMENT( ( #95 ) );
#47 = ADVANCED_FACE( '', ( #96, #97 ), #98, .T. );
#48 = PRESENTATION_STYLE_ASSIGNMENT( ( #99 ) );
#49 = ADVANCED_FACE( '', ( #100, #101 ), #102, .T. );
#50 = PRESENTATION_STYLE_ASSIGNMENT( ( #103 ) );
#51 = ADVANCED_FACE( '', ( #104 ), #105, .F. );
#52 = PRESENTATION_STYLE_ASSIGNMENT( ( #106 ) );
#53 = ADVANCED_FACE( '', ( #107, #108 ), #109, .F. );
#54 = PRESENTATION_STYLE_ASSIGNMENT( ( #110 ) );
#55 = ADVANCED_FACE( '', ( #111, #112 ), #113, .T. );
#56 = PRESENTATION_STYLE_ASSIGNMENT( ( #114 ) );
#57 = ADVANCED_FACE( '', ( #115, #116 ), #117, .T. );
#58 = PRESENTATION_STYLE_ASSIGNMENT( ( #118 ) );
#59 = ADVANCED_FACE( '', ( #119 ), #120, .F. );
#60 = PRESENTATION_STYLE_ASSIGNMENT( ( #121 ) );
#61 = ADVANCED_FACE( '', ( #122 ), #123, .F. );
#62 = PRODUCT( '_K0390.101X60', '_K0390.101X60', 'PART-_K0390.101X60-DESC', ( #124 ) );
#63 = PRODUCT_DEFINITION( 'NONE', 'NONE', #125, #2 );
#64 = MANIFOLD_SOLID_BREP( '_K0390.101X60', #126 );
#65 = AXIS2_PLACEMENT_3D( '', #127, #128, #129 );
#68 = LENGTH_MEASURE_WITH_UNIT( LENGTH_MEASURE( 1.00000000000000 ), #130 );
#71 = DIMENSIONAL_EXPONENTS( 1.00000000000000, 0.000000000000000, 0.000000000000000, 0.000000000000000, 0.000000000000000, 0.000000000000000, 0.000000000000000 );
#73 = DIMENSIONAL_EXPONENTS( 0.000000000000000, 0.000000000000000, 0.000000000000000, 0.000000000000000, 0.000000000000000, 0.000000000000000, 0.000000000000000 );
#79 = SURFACE_STYLE_USAGE( .BOTH., #131 );
#80 = FACE_OUTER_BOUND( '', #132, .T. );
#81 = FACE_OUTER_BOUND( '', #133, .T. );
#82 = CYLINDRICAL_SURFACE( '', #134, 3.60000000000000 );
#83 = SURFACE_STYLE_USAGE( .BOTH., #135 );
#84 = FACE_OUTER_BOUND( '', #136, .T. );
#85 = PLANE( '', #137 );
#86 = SURFACE_STYLE_USAGE( .BOTH., #138 );
#87 = FACE_OUTER_BOUND( '', #139, .T. );
#88 = CONICAL_SURFACE( '', #140, 4.08000000000000, 0.785398163400000 );
#89 = SURFACE_STYLE_USAGE( .BOTH., #141 );
#90 = FACE_OUTER_BOUND( '', #142, .T. );
#91 = CONICAL_SURFACE( '', #143, 4.08000000000000, 0.785398163400000 );
#92 = SURFACE_STYLE_USAGE( .BOTH., #144 );
#93 = FACE_OUTER_BOUND( '', #145, .T. );
#94 = PLANE( '', #146 );
#95 = SURFACE_STYLE_USAGE( .BOTH., #147 );
#96 = FACE_BOUND( '', #148, .T. );
#97 = FACE_OUTER_BOUND( '', #149, .T. );
#98 = SPHERICAL_SURFACE( '', #150, 6.70960000000000 );
#99 = SURFACE_STYLE_USAGE( .BOTH., #151 );
#100 = FACE_OUTER_BOUND( '', #152, .T. );
#101 = FACE_OUTER_BOUND( '', #153, .T. );
#102 = CYLINDRICAL_SURFACE( '', #154, 5.00000000000000 );
#103 = SURFACE_STYLE_USAGE( .BOTH., #155 );
#104 = FACE_OUTER_BOUND( '', #156, .T. );
#105 = PLANE( '', #157 );
#106 = SURFACE_STYLE_USAGE( .BOTH., #158 );
#107 = FACE_OUTER_BOUND( '', #159, .T. );
#108 = FACE_BOUND( '', #160, .T. );
#109 = PLANE( '', #161 );
#110 = SURFACE_STYLE_USAGE( .BOTH., #162 );
#111 = FACE_BOUND( '', #163, .T. );
#112 = FACE_OUTER_BOUND( '', #164, .T. );
#113 = CONICAL_SURFACE( '', #165, 5.00000000000000, 1.01679700410000 );
#114 = SURFACE_STYLE_USAGE( .BOTH., #166 );
#115 = FACE_OUTER_BOUND( '', #167, .T. );
#116 = FACE_OUTER_BOUND( '', #168, .T. );
#117 = CYLINDRICAL_SURFACE( '', #169, 4.00000000000000 );
#118 = SURFACE_STYLE_USAGE( .BOTH., #170 );
#119 = FACE_OUTER_BOUND( '', #171, .T. );
#120 = PLANE( '', #172 );
#121 = SURFACE_STYLE_USAGE( .BOTH., #173 );
#122 = FACE_OUTER_BOUND( '', #174, .T. );
#123 = PLANE( '', #175 );
#124 = PRODUCT_CONTEXT( '', #23, 'mechanical' );
#125 = PRODUCT_DEFINITION_FORMATION_WITH_SPECIFIED_SOURCE( ' ', 'NONE', #62, .NOT_KNOWN. );
#126 = CLOSED_SHELL( '', ( #51, #59, #47, #57, #53, #37, #55, #49, #41, #45, #43, #61, #39 ) );
#127 = CARTESIAN_POINT( '', ( 0.000000000000000, 0.000000000000000, 0.000000000000000 ) );
#128 = DIRECTION( '', ( 0.000000000000000, 0.000000000000000, 1.00000000000000 ) );
#129 = DIRECTION( '', ( 1.00000000000000, 0.000000000000000, 0.000000000000000 ) );
#130 =  ( LENGTH_UNIT(  )NAMED_UNIT( #71 )SI_UNIT( .MILLI., .METRE. ) );
#131 = SURFACE_SIDE_STYLE( '', ( #177 ) );
#132 = EDGE_LOOP( '', ( #178 ) );
#133 = EDGE_LOOP( '', ( #179 ) );
#134 = AXIS2_PLACEMENT_3D( '', #180, #181, #182 );
#135 = SURFACE_SIDE_STYLE( '', ( #183 ) );
#136 = EDGE_LOOP( '', ( #184, #185, #186, #187 ) );
#137 = AXIS2_PLACEMENT_3D( '', #188, #189, #190 );
#138 = SURFACE_SIDE_STYLE( '', ( #191 ) );
#139 = EDGE_LOOP( '', ( #192, #193, #194, #195 ) );
#140 = AXIS2_PLACEMENT_3D( '', #196, #197, #198 );
#141 = SURFACE_SIDE_STYLE( '', ( #199 ) );
#142 = EDGE_LOOP( '', ( #200, #201, #202, #203 ) );
#143 = AXIS2_PLACEMENT_3D( '', #204, #205, #206 );
#144 = SURFACE_SIDE_STYLE( '', ( #207 ) );
#145 = EDGE_LOOP( '', ( #208, #209 ) );
#146 = AXIS2_PLACEMENT_3D( '', #210, #211, #212 );
#147 = SURFACE_SIDE_STYLE( '', ( #213 ) );
#148 = VERTEX_LOOP( '', #214 );
#149 = EDGE_LOOP( '', ( #215 ) );
#150 = AXIS2_PLACEMENT_3D( '', #216, #217, #218 );
#151 = SURFACE_SIDE_STYLE( '', ( #219 ) );
#152 = EDGE_LOOP( '', ( #220 ) );
#153 = EDGE_LOOP( '', ( #221, #222, #223, #224, #225, #226, #227, #228 ) );
#154 = AXIS2_PLACEMENT_3D( '', #229, #230, #231 );
#155 = SURFACE_SIDE_STYLE( '', ( #232 ) );
#156 = EDGE_LOOP( '', ( #233, #234, #235, #236, #237, #238 ) );
#157 = AXIS2_PLACEMENT_3D( '', #239, #240, #241 );
#158 = SURFACE_SIDE_STYLE( '', ( #242 ) );
#159 = EDGE_LOOP( '', ( #243 ) );
#160 = EDGE_LOOP( '', ( #244 ) );
#161 = AXIS2_PLACEMENT_3D( '', #245, #246, #247 );
#162 = SURFACE_SIDE_STYLE( '', ( #248 ) );
#163 = EDGE_LOOP( '', ( #249 ) );
#164 = EDGE_LOOP( '', ( #250 ) );
#165 = AXIS2_PLACEMENT_3D( '', #251, #252, #253 );
#166 = SURFACE_SIDE_STYLE( '', ( #254 ) );
#167 = EDGE_LOOP( '', ( #255 ) );
#168 = EDGE_LOOP( '', ( #256 ) );
#169 = AXIS2_PLACEMENT_3D( '', #257, #258, #259 );
#170 = SURFACE_SIDE_STYLE( '', ( #260 ) );
#171 = EDGE_LOOP( '', ( #261, #262, #263, #264, #265, #266 ) );
#172 = AXIS2_PLACEMENT_3D( '', #267, #268, #269 );
#173 = SURFACE_SIDE_STYLE( '', ( #270 ) );
#174 = EDGE_LOOP( '', ( #271, #272 ) );
#175 = AXIS2_PLACEMENT_3D( '', #273, #274, #275 );
#177 = SURFACE_STYLE_FILL_AREA( #276 );
#178 = ORIENTED_EDGE( '', *, *, #277, .F. );
#179 = ORIENTED_EDGE( '', *, *, #278, .T. );
#180 = CARTESIAN_POINT( '', ( 60.0000000000000, 1.77635683940025E-15, 0.000000000000000 ) );
#181 = DIRECTION( '', ( -1.00000000000000, 6.12323399573677E-17, 0.000000000000000 ) );
#182 = DIRECTION( '', ( 6.12323399573677E-17, 1.00000000000000, 0.000000000000000 ) );
#183 = SURFACE_STYLE_FILL_AREA( #279 );
#184 = ORIENTED_EDGE( '', *, *, #280, .T. );
#185 = ORIENTED_EDGE( '', *, *, #281, .T. );
#186 = ORIENTED_EDGE( '', *, *, #282, .T. );
#187 = ORIENTED_EDGE( '', *, *, #283, .T. );
#188 = CARTESIAN_POINT( '', ( 3.00000000000000, 0.000000000000000, 0.000000000000000 ) );
#189 = DIRECTION( '', ( -1.00000000000000, 0.000000000000000, 0.000000000000000 ) );
#190 = DIRECTION( '', ( 0.000000000000000, 0.000000000000000, 1.00000000000000 ) );
#191 = SURFACE_STYLE_FILL_AREA( #284 );
#192 = ORIENTED_EDGE( '', *, *, #285, .T. );
#193 = ORIENTED_EDGE( '', *, *, #286, .T. );
#194 = ORIENTED_EDGE( '', *, *, #287, .F. );
#195 = ORIENTED_EDGE( '', *, *, #288, .T. );
#196 = CARTESIAN_POINT( '', ( 0.000000000000000, 5.45029723684231E-15, 0.000000000000000 ) );
#197 = DIRECTION( '', ( 1.00000000000000, -6.12323399573677E-17, -0.000000000000000 ) );
#198 = DIRECTION( '', ( 6.12323399573677E-17, 1.00000000000000, 0.000000000000000 ) );
#199 = SURFACE_STYLE_FILL_AREA( #289 );
#200 = ORIENTED_EDGE( '', *, *, #290, .F. );
#201 = ORIENTED_EDGE( '', *, *, #291, .T. );
#202 = ORIENTED_EDGE( '', *, *, #292, .T. );
#203 = ORIENTED_EDGE( '', *, *, #293, .T. );
#204 = CARTESIAN_POINT( '', ( 0.000000000000000, 5.45029723684231E-15, 0.000000000000000 ) );
#205 = DIRECTION( '', ( 1.00000000000000, -6.12323399573677E-17, -0.000000000000000 ) );
#206 = DIRECTION( '', ( 6.12323399573677E-17, 1.00000000000000, 0.000000000000000 ) );
#207 = SURFACE_STYLE_FILL_AREA( #294 );
#208 = ORIENTED_EDGE( '', *, *, #292, .F. );
#209 = ORIENTED_EDGE( '', *, *, #295, .F. );
#210 = CARTESIAN_POINT( '', ( -1.24913973513030E-16, 5.45029723684231E-15, 0.000000000000000 ) );
#211 = DIRECTION( '', ( 1.00000000000000, -6.12323399573677E-17, -0.000000000000000 ) );
#212 = DIRECTION( '', ( 6.12323399573677E-17, 1.00000000000000, 0.000000000000000 ) );
#213 = SURFACE_STYLE_FILL_AREA( #296 );
#214 = VERTEX_POINT( '', #297 );
#215 = ORIENTED_EDGE( '', *, *, #298, .T. );
#216 = CARTESIAN_POINT( '', ( 53.2904000000000, 1.38777878078145E-14, 0.000000000000000 ) );
#217 = DIRECTION( '', ( 1.00000000000000, 0.000000000000000, 0.000000000000000 ) );
#218 = DIRECTION( '', ( 0.000000000000000, -1.00000000000000, 0.000000000000000 ) );
#219 = SURFACE_STYLE_FILL_AREA( #299 );
#220 = ORIENTED_EDGE( '', *, *, #300, .F. );
#221 = ORIENTED_EDGE( '', *, *, #290, .T. );
#222 = ORIENTED_EDGE( '', *, *, #301, .T. );
#223 = ORIENTED_EDGE( '', *, *, #280, .F. );
#224 = ORIENTED_EDGE( '', *, *, #302, .T. );
#225 = ORIENTED_EDGE( '', *, *, #287, .T. );
#226 = ORIENTED_EDGE( '', *, *, #303, .T. );
#227 = ORIENTED_EDGE( '', *, *, #282, .F. );
#228 = ORIENTED_EDGE( '', *, *, #304, .T. );
#229 = CARTESIAN_POINT( '', ( 60.0000000000000, 1.77635683940025E-15, 0.000000000000000 ) );
#230 = DIRECTION( '', ( -1.00000000000000, 6.12323399573677E-17, 0.000000000000000 ) );
#231 = DIRECTION( '', ( 6.12323399573677E-17, 1.00000000000000, 0.000000000000000 ) );
#232 = SURFACE_STYLE_FILL_AREA( #305 );
#233 = ORIENTED_EDGE( '', *, *, #286, .F. );
#234 = ORIENTED_EDGE( '', *, *, #306, .T. );
#235 = ORIENTED_EDGE( '', *, *, #288, .F. );
#236 = ORIENTED_EDGE( '', *, *, #302, .F. );
#237 = ORIENTED_EDGE( '', *, *, #283, .F. );
#238 = ORIENTED_EDGE( '', *, *, #303, .F. );
#239 = CARTESIAN_POINT( '', ( 3.00000000000000, 0.900000000000005, 10.5000000000000 ) );
#240 = DIRECTION( '', ( 0.000000000000000, 1.00000000000000, 0.000000000000000 ) );
#241 = DIRECTION( '', ( 0.000000000000000, -0.000000000000000, 1.00000000000000 ) );
#242 = SURFACE_STYLE_FILL_AREA( #307 );
#243 = ORIENTED_EDGE( '', *, *, #308, .F. );
#244 = ORIENTED_EDGE( '', *, *, #277, .T. );
#245 = CARTESIAN_POINT( '', ( 55.5000000000000, 3.60000000000000, 0.000000000000000 ) );
#246 = DIRECTION( '', ( 1.00000000000000, -6.12323399573677E-17, -0.000000000000000 ) );
#247 = DIRECTION( '', ( 6.12323399573677E-17, 1.00000000000000, 0.000000000000000 ) );
#248 = SURFACE_STYLE_FILL_AREA( #309 );
#249 = ORIENTED_EDGE( '', *, *, #278, .F. );
#250 = ORIENTED_EDGE( '', *, *, #300, .T. );
#251 = CARTESIAN_POINT( '', ( 51.0000000000000, 2.32744789901656E-15, 0.000000000000000 ) );
#252 = DIRECTION( '', ( -1.00000000000000, 6.12323399573677E-17, -0.000000000000000 ) );
#253 = DIRECTION( '', ( -6.12323399573677E-17, -1.00000000000000, 0.000000000000000 ) );
#254 = SURFACE_STYLE_FILL_AREA( #310 );
#255 = ORIENTED_EDGE( '', *, *, #298, .F. );
#256 = ORIENTED_EDGE( '', *, *, #308, .T. );
#257 = CARTESIAN_POINT( '', ( 60.0000000000000, 1.77635683940025E-15, 0.000000000000000 ) );
#258 = DIRECTION( '', ( -1.00000000000000, 6.12323399573677E-17, 0.000000000000000 ) );
#259 = DIRECTION( '', ( 6.12323399573677E-17, 1.00000000000000, 0.000000000000000 ) );
#260 = SURFACE_STYLE_FILL_AREA( #311 );
#261 = ORIENTED_EDGE( '', *, *, #295, .T. );
#262 = ORIENTED_EDGE( '', *, *, #291, .F. );
#263 = ORIENTED_EDGE( '', *, *, #304, .F. );
#264 = ORIENTED_EDGE( '', *, *, #281, .F. );
#265 = ORIENTED_EDGE( '', *, *, #301, .F. );
#266 = ORIENTED_EDGE( '', *, *, #293, .F. );
#267 = CARTESIAN_POINT( '', ( 3.00000000000000, -0.899999999999995, -10.5000000000000 ) );
#268 = DIRECTION( '', ( 0.000000000000000, -1.00000000000000, 0.000000000000000 ) );
#269 = DIRECTION( '', ( 0.000000000000000, 0.000000000000000, -1.00000000000000 ) );
#270 = SURFACE_STYLE_FILL_AREA( #312 );
#271 = ORIENTED_EDGE( '', *, *, #285, .F. );
#272 = ORIENTED_EDGE( '', *, *, #306, .F. );
#273 = CARTESIAN_POINT( '', ( -1.24913973513030E-16, 5.45029723684231E-15, 0.000000000000000 ) );
#274 = DIRECTION( '', ( 1.00000000000000, -6.12323399573677E-17, -0.000000000000000 ) );
#275 = DIRECTION( '', ( 6.12323399573677E-17, 1.00000000000000, 0.000000000000000 ) );
#276 = FILL_AREA_STYLE( '', ( #313 ) );
#277 = EDGE_CURVE( '', #314, #314, #315, .T. );
#278 = EDGE_CURVE( '', #316, #316, #317, .T. );
#279 = FILL_AREA_STYLE( '', ( #318 ) );
#280 = EDGE_CURVE( '', #319, #320, #321, .T. );
#281 = EDGE_CURVE( '', #320, #322, #323, .T. );
#282 = EDGE_CURVE( '', #322, #324, #325, .T. );
#283 = EDGE_CURVE( '', #324, #319, #326, .T. );
#284 = FILL_AREA_STYLE( '', ( #327 ) );
#285 = EDGE_CURVE( '', #328, #329, #330, .T. );
#286 = EDGE_CURVE( '', #329, #331, #332, .T. );
#287 = EDGE_CURVE( '', #333, #331, #334, .T. );
#288 = EDGE_CURVE( '', #333, #328, #335, .T. );
#289 = FILL_AREA_STYLE( '', ( #336 ) );
#290 = EDGE_CURVE( '', #337, #338, #339, .T. );
#291 = EDGE_CURVE( '', #337, #340, #341, .T. );
#292 = EDGE_CURVE( '', #340, #342, #343, .T. );
#293 = EDGE_CURVE( '', #342, #338, #344, .T. );
#294 = FILL_AREA_STYLE( '', ( #345 ) );
#295 = EDGE_CURVE( '', #342, #340, #346, .T. );
#296 = FILL_AREA_STYLE( '', ( #347 ) );
#297 = CARTESIAN_POINT( '', ( 60.0000000000000, 1.30560987914585E-14, 0.000000000000000 ) );
#298 = EDGE_CURVE( '', #348, #348, #349, .T. );
#299 = FILL_AREA_STYLE( '', ( #350 ) );
#300 = EDGE_CURVE( '', #351, #351, #352, .T. );
#301 = EDGE_CURVE( '', #338, #320, #353, .T. );
#302 = EDGE_CURVE( '', #319, #333, #354, .F. );
#303 = EDGE_CURVE( '', #331, #324, #355, .T. );
#304 = EDGE_CURVE( '', #322, #337, #356, .F. );
#305 = FILL_AREA_STYLE( '', ( #357 ) );
#306 = EDGE_CURVE( '', #329, #328, #358, .T. );
#307 = FILL_AREA_STYLE( '', ( #359 ) );
#308 = EDGE_CURVE( '', #360, #360, #361, .T. );
#309 = FILL_AREA_STYLE( '', ( #362 ) );
#310 = FILL_AREA_STYLE( '', ( #363 ) );
#311 = FILL_AREA_STYLE( '', ( #364 ) );
#312 = FILL_AREA_STYLE( '', ( #365 ) );
#313 = FILL_AREA_STYLE_COLOUR( '', #366 );
#314 = VERTEX_POINT( '', #367 );
#315 = CIRCLE( '', #368, 3.60000000000000 );
#316 = VERTEX_POINT( '', #369 );
#317 = CIRCLE( '', #370, 3.60000000000000 );
#318 = FILL_AREA_STYLE_COLOUR( '', #371 );
#319 = VERTEX_POINT( '', #372 );
#320 = VERTEX_POINT( '', #373 );
#321 = CIRCLE( '', #374, 5.00000000000000 );
#322 = VERTEX_POINT( '', #375 );
#323 = LINE( '', #376, #377 );
#324 = VERTEX_POINT( '', #378 );
#325 = CIRCLE( '', #379, 5.00000000000000 );
#326 = LINE( '', #380, #381 );
#327 = FILL_AREA_STYLE_COLOUR( '', #382 );
#328 = VERTEX_POINT( '', #383 );
#329 = VERTEX_POINT( '', #384 );
#330 = CIRCLE( '', #385, 4.08000000000000 );
#331 = VERTEX_POINT( '', #386 );
#332 = B_SPLINE_CURVE_WITH_KNOTS( '', 3, ( #387, #388, #389, #390 ), .UNSPECIFIED., .F., .F., ( 4, 4 ), ( 0.0201757967681981, 0.0214894077203397 ), .UNSPECIFIED. );
#333 = VERTEX_POINT( '', #391 );
#334 = CIRCLE( '', #392, 5.00000000000000 );
#335 = B_SPLINE_CURVE_WITH_KNOTS( '', 3, ( #393, #394, #395, #396 ), .UNSPECIFIED., .F., .F., ( 4, 4 ), ( 0.00855302721908261, 0.00986748988713592 ), .UNSPECIFIED. );
#336 = FILL_AREA_STYLE_COLOUR( '', #397 );
#337 = VERTEX_POINT( '', #398 );
#338 = VERTEX_POINT( '', #399 );
#339 = CIRCLE( '', #400, 5.00000000000000 );
#340 = VERTEX_POINT( '', #401 );
#341 = B_SPLINE_CURVE_WITH_KNOTS( '', 3, ( #402, #403, #404, #405 ), .UNSPECIFIED., .F., .F., ( 4, 4 ), ( 0.00855302721908261, 0.00986748988713592 ), .UNSPECIFIED. );
#342 = VERTEX_POINT( '', #406 );
#343 = CIRCLE( '', #407, 4.08000000000000 );
#344 = B_SPLINE_CURVE_WITH_KNOTS( '', 3, ( #408, #409, #410, #411 ), .UNSPECIFIED., .F., .F., ( 4, 4 ), ( 0.0201757967681981, 0.0214894077203397 ), .UNSPECIFIED. );
#345 = FILL_AREA_STYLE_COLOUR( '', #412 );
#346 = LINE( '', #413, #414 );
#347 = FILL_AREA_STYLE_COLOUR( '', #415 );
#348 = VERTEX_POINT( '', #416 );
#349 = CIRCLE( '', #417, 4.00000000000000 );
#350 = FILL_AREA_STYLE_COLOUR( '', #418 );
#351 = VERTEX_POINT( '', #419 );
#352 = CIRCLE( '', #420, 5.00000000000000 );
#353 = LINE( '', #421, #422 );
#354 = LINE( '', #423, #424 );
#355 = LINE( '', #425, #426 );
#356 = LINE( '', #427, #428 );
#357 = FILL_AREA_STYLE_COLOUR( '', #429 );
#358 = LINE( '', #430, #431 );
#359 = FILL_AREA_STYLE_COLOUR( '', #432 );
#360 = VERTEX_POINT( '', #433 );
#361 = CIRCLE( '', #434, 4.00000000000000 );
#362 = FILL_AREA_STYLE_COLOUR( '', #435 );
#363 = FILL_AREA_STYLE_COLOUR( '', #436 );
#364 = FILL_AREA_STYLE_COLOUR( '', #437 );
#365 = FILL_AREA_STYLE_COLOUR( '', #438 );
#366 = COLOUR_RGB( '', 0.689999997600000, 0.689999997600000, 0.689999997600000 );
#367 = CARTESIAN_POINT( '', ( 55.5000000000000, 3.60000000000000, 0.000000000000000 ) );
#368 = AXIS2_PLACEMENT_3D( '', #439, #440, #441 );
#369 = CARTESIAN_POINT( '', ( 51.8660700000000, 3.60000000000000, 0.000000000000000 ) );
#370 = AXIS2_PLACEMENT_3D( '', #442, #443, #444 );
#371 = COLOUR_RGB( '', 0.689999997600000, 0.689999997600000, 0.689999997600000 );
#372 = CARTESIAN_POINT( '', ( 3.00000000000000, 0.900000000000005, -4.91833305094317 ) );
#373 = CARTESIAN_POINT( '', ( 3.00000000000000, -0.899999999999994, -4.91833305094317 ) );
#374 = AXIS2_PLACEMENT_3D( '', #445, #446, #447 );
#375 = CARTESIAN_POINT( '', ( 3.00000000000000, -0.899999999999994, 4.91833305094317 ) );
#376 = CARTESIAN_POINT( '', ( 3.00000000000000, -0.899999999999995, -10.5000000000000 ) );
#377 = VECTOR( '', #448, 1000.00000000000 );
#378 = CARTESIAN_POINT( '', ( 3.00000000000000, 0.900000000000005, 4.91833305094317 ) );
#379 = AXIS2_PLACEMENT_3D( '', #449, #450, #451 );
#380 = CARTESIAN_POINT( '', ( 3.00000000000000, 0.900000000000005, 10.5000000000000 ) );
#381 = VECTOR( '', #452, 1000.00000000000 );
#382 = COLOUR_RGB( '', 0.689999997600000, 0.689999997600000, 0.689999997600000 );
#383 = CARTESIAN_POINT( '', ( 0.000000000000000, 0.900000000000005, -3.97949745570970 ) );
#384 = CARTESIAN_POINT( '', ( 0.000000000000000, 0.900000000000005, 3.97949745570970 ) );
#385 = AXIS2_PLACEMENT_3D( '', #453, #454, #455 );
#386 = CARTESIAN_POINT( '', ( 0.920000000000004, 0.900000000000009, 4.91833305094317 ) );
#387 = CARTESIAN_POINT( '', ( -4.68354095998620E-16, 0.900000000000005, 3.97949745570970 ) );
#388 = CARTESIAN_POINT( '', ( 0.305938770650470, 0.900000000000005, 4.29316273584777 ) );
#389 = CARTESIAN_POINT( '', ( 0.612741841782414, 0.900000000000005, 4.60597299415660 ) );
#390 = CARTESIAN_POINT( '', ( 0.920000000000000, 0.900000000000005, 4.91833305094318 ) );
#391 = CARTESIAN_POINT( '', ( 0.920000000000004, 0.900000000000009, -4.91833305094317 ) );
#392 = AXIS2_PLACEMENT_3D( '', #456, #457, #458 );
#393 = CARTESIAN_POINT( '', ( 0.920000000000001, 0.900000000000005, -4.91833305094318 ) );
#394 = CARTESIAN_POINT( '', ( 0.612739261072120, 0.900000000000005, -4.60597037059464 ) );
#395 = CARTESIAN_POINT( '', ( 0.305935608496525, 0.900000000000005, -4.29315949383336 ) );
#396 = CARTESIAN_POINT( '', ( -8.43797886681952E-16, 0.900000000000005, -3.97949745570970 ) );
#397 = COLOUR_RGB( '', 0.689999997600000, 0.689999997600000, 0.689999997600000 );
#398 = CARTESIAN_POINT( '', ( 0.920000000000004, -0.899999999999991, 4.91833305094318 ) );
#399 = CARTESIAN_POINT( '', ( 0.920000000000004, -0.899999999999991, -4.91833305094318 ) );
#400 = AXIS2_PLACEMENT_3D( '', #459, #460, #461 );
#401 = CARTESIAN_POINT( '', ( 0.000000000000000, -0.899999999999994, 3.97949745570970 ) );
#402 = CARTESIAN_POINT( '', ( 0.920000000000000, -0.899999999999995, 4.91833305094318 ) );
#403 = CARTESIAN_POINT( '', ( 0.612739261072119, -0.899999999999995, 4.60597037059464 ) );
#404 = CARTESIAN_POINT( '', ( 0.305935608496525, -0.899999999999995, 4.29315949383336 ) );
#405 = CARTESIAN_POINT( '', ( -1.34582577845783E-15, -0.899999999999995, 3.97949745570970 ) );
#406 = CARTESIAN_POINT( '', ( 0.000000000000000, -0.899999999999994, -3.97949745570970 ) );
#407 = AXIS2_PLACEMENT_3D( '', #462, #463, #464 );
#408 = CARTESIAN_POINT( '', ( 2.89847860650126E-16, -0.899999999999995, -3.97949745570970 ) );
#409 = CARTESIAN_POINT( '', ( 0.305938770650471, -0.899999999999995, -4.29316273584777 ) );
#410 = CARTESIAN_POINT( '', ( 0.612741841782415, -0.899999999999995, -4.60597299415660 ) );
#411 = CARTESIAN_POINT( '', ( 0.920000000000001, -0.899999999999995, -4.91833305094318 ) );
#412 = COLOUR_RGB( '', 0.689999997600000, 0.689999997600000, 0.689999997600000 );
#413 = CARTESIAN_POINT( '', ( 0.000000000000000, -0.899999999999995, -10.5000000000000 ) );
#414 = VECTOR( '', #465, 1000.00000000000 );
#415 = COLOUR_RGB( '', 0.689999997600000, 0.689999997600000, 0.689999997600000 );
#416 = CARTESIAN_POINT( '', ( 58.6773037637589, 4.00000000000000, 0.000000000000000 ) );
#417 = AXIS2_PLACEMENT_3D( '', #466, #467, #468 );
#418 = COLOUR_RGB( '', 0.689999997600000, 0.689999997600000, 0.689999997600000 );
#419 = CARTESIAN_POINT( '', ( 51.0000000000000, 5.00000000000000, 0.000000000000000 ) );
#420 = AXIS2_PLACEMENT_3D( '', #469, #470, #471 );
#421 = CARTESIAN_POINT( '', ( 60.0000000000000, -0.899999999999995, -4.91833305094318 ) );
#422 = VECTOR( '', #472, 1000.00000000000 );
#423 = CARTESIAN_POINT( '', ( 60.0000000000000, 0.900000000000005, -4.91833305094317 ) );
#424 = VECTOR( '', #473, 1000.00000000000 );
#425 = CARTESIAN_POINT( '', ( 60.0000000000000, 0.900000000000005, 4.91833305094317 ) );
#426 = VECTOR( '', #474, 1000.00000000000 );
#427 = CARTESIAN_POINT( '', ( 60.0000000000000, -0.899999999999995, 4.91833305094318 ) );
#428 = VECTOR( '', #475, 1000.00000000000 );
#429 = COLOUR_RGB( '', 0.689999997600000, 0.689999997600000, 0.689999997600000 );
#430 = CARTESIAN_POINT( '', ( 0.000000000000000, 0.900000000000005, 10.5000000000000 ) );
#431 = VECTOR( '', #476, 1000.00000000000 );
#432 = COLOUR_RGB( '', 0.689999997600000, 0.689999997600000, 0.689999997600000 );
#433 = CARTESIAN_POINT( '', ( 55.5000000000000, 4.00000000000000, 0.000000000000000 ) );
#434 = AXIS2_PLACEMENT_3D( '', #477, #478, #479 );
#435 = COLOUR_RGB( '', 0.689999997600000, 0.689999997600000, 0.689999997600000 );
#436 = COLOUR_RGB( '', 0.689999997600000, 0.689999997600000, 0.689999997600000 );
#437 = COLOUR_RGB( '', 0.689999997600000, 0.689999997600000, 0.689999997600000 );
#438 = COLOUR_RGB( '', 0.689999997600000, 0.689999997600000, 0.689999997600000 );
#439 = CARTESIAN_POINT( '', ( 55.5000000000000, 2.05190236920840E-15, 0.000000000000000 ) );
#440 = DIRECTION( '', ( 1.00000000000000, -6.12323399573677E-17, -0.000000000000000 ) );
#441 = DIRECTION( '', ( 6.12323399573677E-17, 1.00000000000000, 0.000000000000000 ) );
#442 = CARTESIAN_POINT( '', ( 51.8660700000000, 2.27441640634968E-15, 0.000000000000000 ) );
#443 = DIRECTION( '', ( 1.00000000000000, -6.12323399573677E-17, -0.000000000000000 ) );
#444 = DIRECTION( '', ( 6.12323399573677E-17, 1.00000000000000, 0.000000000000000 ) );
#445 = CARTESIAN_POINT( '', ( 3.00000000000000, 5.26660021697021E-15, 0.000000000000000 ) );
#446 = DIRECTION( '', ( -1.00000000000000, 0.000000000000000, 0.000000000000000 ) );
#447 = DIRECTION( '', ( 0.000000000000000, 0.000000000000000, 1.00000000000000 ) );
#448 = DIRECTION( '', ( 0.000000000000000, 0.000000000000000, 1.00000000000000 ) );
#449 = CARTESIAN_POINT( '', ( 3.00000000000000, 5.26660021697021E-15, 0.000000000000000 ) );
#450 = DIRECTION( '', ( -1.00000000000000, 0.000000000000000, 0.000000000000000 ) );
#451 = DIRECTION( '', ( 0.000000000000000, 0.000000000000000, 1.00000000000000 ) );
#452 = DIRECTION( '', ( 0.000000000000000, 0.000000000000000, -1.00000000000000 ) );
#453 = CARTESIAN_POINT( '', ( 0.000000000000000, 5.45029723684231E-15, 0.000000000000000 ) );
#454 = DIRECTION( '', ( 1.00000000000000, -6.12323399573677E-17, -0.000000000000000 ) );
#455 = DIRECTION( '', ( 6.12323399573677E-17, 1.00000000000000, 0.000000000000000 ) );
#456 = CARTESIAN_POINT( '', ( 0.919999999999997, 5.39396348408153E-15, 0.000000000000000 ) );
#457 = DIRECTION( '', ( 1.00000000000000, -6.12323399573677E-17, -0.000000000000000 ) );
#458 = DIRECTION( '', ( 6.12323399573677E-17, 1.00000000000000, 0.000000000000000 ) );
#459 = CARTESIAN_POINT( '', ( 0.919999999999997, 5.39396348408153E-15, 0.000000000000000 ) );
#460 = DIRECTION( '', ( 1.00000000000000, -6.12323399573677E-17, -0.000000000000000 ) );
#461 = DIRECTION( '', ( 6.12323399573677E-17, 1.00000000000000, 0.000000000000000 ) );
#462 = CARTESIAN_POINT( '', ( 0.000000000000000, 5.45029723684231E-15, 0.000000000000000 ) );
#463 = DIRECTION( '', ( 1.00000000000000, -6.12323399573677E-17, -0.000000000000000 ) );
#464 = DIRECTION( '', ( 6.12323399573677E-17, 1.00000000000000, 0.000000000000000 ) );
#465 = DIRECTION( '', ( 0.000000000000000, 0.000000000000000, 1.00000000000000 ) );
#466 = CARTESIAN_POINT( '', ( 58.6773037637589, 1.85734862499809E-15, 0.000000000000000 ) );
#467 = DIRECTION( '', ( 1.00000000000000, -6.12323399573677E-17, -0.000000000000000 ) );
#468 = DIRECTION( '', ( 6.12323399573677E-17, 1.00000000000000, 0.000000000000000 ) );
#469 = CARTESIAN_POINT( '', ( 51.0000000000000, 2.32744789901656E-15, 0.000000000000000 ) );
#470 = DIRECTION( '', ( 1.00000000000000, -6.12323399573677E-17, -0.000000000000000 ) );
#471 = DIRECTION( '', ( 6.12323399573677E-17, 1.00000000000000, 0.000000000000000 ) );
#472 = DIRECTION( '', ( 1.00000000000000, -6.12323399573677E-17, -0.000000000000000 ) );
#473 = DIRECTION( '', ( 1.00000000000000, -6.12323399573677E-17, -0.000000000000000 ) );
#474 = DIRECTION( '', ( 1.00000000000000, -6.12323399573677E-17, -0.000000000000000 ) );
#475 = DIRECTION( '', ( 1.00000000000000, -6.12323399573677E-17, -0.000000000000000 ) );
#476 = DIRECTION( '', ( 0.000000000000000, 0.000000000000000, -1.00000000000000 ) );
#477 = CARTESIAN_POINT( '', ( 55.5000000000000, 2.05190236920840E-15, 0.000000000000000 ) );
#478 = DIRECTION( '', ( 1.00000000000000, -6.12323399573677E-17, -0.000000000000000 ) );
#479 = DIRECTION( '', ( 6.12323399573677E-17, 1.00000000000000, 0.000000000000000 ) );
ENDSEC;
END-ISO-10303-21;
