ISO-10303-21;
HEADER;
FILE_DESCRIPTION( ( 'STEP AP214' ), '1' );
FILE_NAME( '//goodhand-server/Shared Folders/GoodHand Data/Kipp CAD/K0390/K0390.081X60.stp', '2020-12-07T10:15:33', ( '' ), ( '' ), ' ', 'PARTsolutions', ' ' );
FILE_SCHEMA( ( 'AUTOMOTIVE_DESIGN { 1 0 10303 214 1 1 1 1 }' ) );
ENDSEC;
DATA;
#1 = MECHANICAL_DESIGN_GEOMETRIC_PRESENTATION_REPRESENTATION( ' ', ( #10, #11, #12, #13, #14, #15, #16, #17, #18, #19, #20, #21, #22 ), #6 );
#2 = PRODUCT_DEFINITION_CONTEXT( '', #23, 'design' );
#3 = APPLICATION_PROTOCOL_DEFINITION( 'international standard', 'automotive_design', 2001, #23 );
#4 = PRODUCT_CATEGORY_RELATIONSHIP( 'NONE', 'NONE', #24, #25 );
#5 = SHAPE_DEFINITION_REPRESENTATION( #26, #27 );
#6 =  ( GEOMETRIC_REPRESENTATION_CONTEXT( 3 )GLOBAL_UNCERTAINTY_ASSIGNED_CONTEXT( ( #30 ) )GLOBAL_UNIT_ASSIGNED_CONTEXT( ( #32, #33, #34 ) )REPRESENTATION_CONTEXT( 'NONE', 'WORKSPACE' ) );
#10 = STYLED_ITEM( '', ( #36 ), #37 );
#11 = STYLED_ITEM( '', ( #38 ), #39 );
#12 = STYLED_ITEM( '', ( #40 ), #41 );
#13 = STYLED_ITEM( '', ( #42 ), #43 );
#14 = STYLED_ITEM( '', ( #44 ), #45 );
#15 = STYLED_ITEM( '', ( #46 ), #47 );
#16 = STYLED_ITEM( '', ( #48 ), #49 );
#17 = STYLED_ITEM( '', ( #50 ), #51 );
#18 = STYLED_ITEM( '', ( #52 ), #53 );
#19 = STYLED_ITEM( '', ( #54 ), #55 );
#20 = STYLED_ITEM( '', ( #56 ), #57 );
#21 = STYLED_ITEM( '', ( #58 ), #59 );
#22 = STYLED_ITEM( '', ( #60 ), #61 );
#23 = APPLICATION_CONTEXT( 'core data for automotive mechanical design processes' );
#24 = PRODUCT_CATEGORY( 'part', 'NONE' );
#25 = PRODUCT_RELATED_PRODUCT_CATEGORY( 'detail', ' ', ( #62 ) );
#26 = PRODUCT_DEFINITION_SHAPE( 'NONE', 'NONE', #63 );
#27 = ADVANCED_BREP_SHAPE_REPRESENTATION( '_K0390.081X60', ( #64, #65 ), #6 );
#30 = UNCERTAINTY_MEASURE_WITH_UNIT( LENGTH_MEASURE( 0.00100000000000000 ), #32, '', '' );
#32 =  ( CONVERSION_BASED_UNIT( 'MILLIMETRE', #68 )LENGTH_UNIT(  )NAMED_UNIT( #71 ) );
#33 =  ( NAMED_UNIT( #73 )PLANE_ANGLE_UNIT(  )SI_UNIT( $, .RADIAN. ) );
#34 =  ( NAMED_UNIT( #73 )SI_UNIT( $, .STERADIAN. )SOLID_ANGLE_UNIT(  ) );
#36 = PRESENTATION_STYLE_ASSIGNMENT( ( #79 ) );
#37 = ADVANCED_FACE( '', ( #80, #81 ), #82, .T. );
#38 = PRESENTATION_STYLE_ASSIGNMENT( ( #83 ) );
#39 = ADVANCED_FACE( '', ( #84, #85 ), #86, .T. );
#40 = PRESENTATION_STYLE_ASSIGNMENT( ( #87 ) );
#41 = ADVANCED_FACE( '', ( #88 ), #89, .T. );
#42 = PRESENTATION_STYLE_ASSIGNMENT( ( #90 ) );
#43 = ADVANCED_FACE( '', ( #91 ), #92, .F. );
#44 = PRESENTATION_STYLE_ASSIGNMENT( ( #93 ) );
#45 = ADVANCED_FACE( '', ( #94, #95 ), #96, .T. );
#46 = PRESENTATION_STYLE_ASSIGNMENT( ( #97 ) );
#47 = ADVANCED_FACE( '', ( #98, #99 ), #100, .T. );
#48 = PRESENTATION_STYLE_ASSIGNMENT( ( #101 ) );
#49 = ADVANCED_FACE( '', ( #102 ), #103, .F. );
#50 = PRESENTATION_STYLE_ASSIGNMENT( ( #104 ) );
#51 = ADVANCED_FACE( '', ( #105 ), #106, .T. );
#52 = PRESENTATION_STYLE_ASSIGNMENT( ( #107 ) );
#53 = ADVANCED_FACE( '', ( #108 ), #109, .T. );
#54 = PRESENTATION_STYLE_ASSIGNMENT( ( #110 ) );
#55 = ADVANCED_FACE( '', ( #111, #112 ), #113, .T. );
#56 = PRESENTATION_STYLE_ASSIGNMENT( ( #114 ) );
#57 = ADVANCED_FACE( '', ( #115, #116 ), #117, .F. );
#58 = PRESENTATION_STYLE_ASSIGNMENT( ( #118 ) );
#59 = ADVANCED_FACE( '', ( #119 ), #120, .F. );
#60 = PRESENTATION_STYLE_ASSIGNMENT( ( #121 ) );
#61 = ADVANCED_FACE( '', ( #122 ), #123, .F. );
#62 = PRODUCT( '_K0390.081X60', '_K0390.081X60', 'PART-_K0390.081X60-DESC', ( #124 ) );
#63 = PRODUCT_DEFINITION( 'NONE', 'NONE', #125, #2 );
#64 = MANIFOLD_SOLID_BREP( '_K0390.081X60', #126 );
#65 = AXIS2_PLACEMENT_3D( '', #127, #128, #129 );
#68 = LENGTH_MEASURE_WITH_UNIT( LENGTH_MEASURE( 1.00000000000000 ), #130 );
#71 = DIMENSIONAL_EXPONENTS( 1.00000000000000, 0.000000000000000, 0.000000000000000, 0.000000000000000, 0.000000000000000, 0.000000000000000, 0.000000000000000 );
#73 = DIMENSIONAL_EXPONENTS( 0.000000000000000, 0.000000000000000, 0.000000000000000, 0.000000000000000, 0.000000000000000, 0.000000000000000, 0.000000000000000 );
#79 = SURFACE_STYLE_USAGE( .BOTH., #131 );
#80 = FACE_OUTER_BOUND( '', #132, .T. );
#81 = FACE_OUTER_BOUND( '', #133, .T. );
#82 = CYLINDRICAL_SURFACE( '', #134, 4.00000000000000 );
#83 = SURFACE_STYLE_USAGE( .BOTH., #135 );
#84 = FACE_OUTER_BOUND( '', #136, .T. );
#85 = FACE_OUTER_BOUND( '', #137, .T. );
#86 = CYLINDRICAL_SURFACE( '', #138, 3.00000000000000 );
#87 = SURFACE_STYLE_USAGE( .BOTH., #139 );
#88 = FACE_OUTER_BOUND( '', #140, .T. );
#89 = CONICAL_SURFACE( '', #141, 3.23300000000000, 0.785398163400000 );
#90 = SURFACE_STYLE_USAGE( .BOTH., #142 );
#91 = FACE_OUTER_BOUND( '', #143, .T. );
#92 = PLANE( '', #144 );
#93 = SURFACE_STYLE_USAGE( .BOTH., #145 );
#94 = FACE_BOUND( '', #146, .T. );
#95 = FACE_OUTER_BOUND( '', #147, .T. );
#96 = SPHERICAL_SURFACE( '', #148, 5.03220000000000 );
#97 = SURFACE_STYLE_USAGE( .BOTH., #149 );
#98 = FACE_OUTER_BOUND( '', #150, .T. );
#99 = FACE_OUTER_BOUND( '', #151, .T. );
#100 = CYLINDRICAL_SURFACE( '', #152, 2.70000000000000 );
#101 = SURFACE_STYLE_USAGE( .BOTH., #153 );
#102 = FACE_OUTER_BOUND( '', #154, .T. );
#103 = PLANE( '', #155 );
#104 = SURFACE_STYLE_USAGE( .BOTH., #156 );
#105 = FACE_OUTER_BOUND( '', #157, .T. );
#106 = CONICAL_SURFACE( '', #158, 3.23300000000000, 0.785398163400000 );
#107 = SURFACE_STYLE_USAGE( .BOTH., #159 );
#108 = FACE_OUTER_BOUND( '', #160, .T. );
#109 = PLANE( '', #161 );
#110 = SURFACE_STYLE_USAGE( .BOTH., #162 );
#111 = FACE_BOUND( '', #163, .T. );
#112 = FACE_OUTER_BOUND( '', #164, .T. );
#113 = CONICAL_SURFACE( '', #165, 4.00000000000000, 1.06399014130000 );
#114 = SURFACE_STYLE_USAGE( .BOTH., #166 );
#115 = FACE_OUTER_BOUND( '', #167, .T. );
#116 = FACE_BOUND( '', #168, .T. );
#117 = PLANE( '', #169 );
#118 = SURFACE_STYLE_USAGE( .BOTH., #170 );
#119 = FACE_OUTER_BOUND( '', #171, .T. );
#120 = PLANE( '', #172 );
#121 = SURFACE_STYLE_USAGE( .BOTH., #173 );
#122 = FACE_OUTER_BOUND( '', #174, .T. );
#123 = PLANE( '', #175 );
#124 = PRODUCT_CONTEXT( '', #23, 'mechanical' );
#125 = PRODUCT_DEFINITION_FORMATION_WITH_SPECIFIED_SOURCE( ' ', 'NONE', #62, .NOT_KNOWN. );
#126 = CLOSED_SHELL( '', ( #49, #59, #45, #39, #57, #47, #55, #37, #41, #43, #51, #61, #53 ) );
#127 = CARTESIAN_POINT( '', ( 0.000000000000000, 0.000000000000000, 0.000000000000000 ) );
#128 = DIRECTION( '', ( 0.000000000000000, 0.000000000000000, 1.00000000000000 ) );
#129 = DIRECTION( '', ( 1.00000000000000, 0.000000000000000, 0.000000000000000 ) );
#130 =  ( LENGTH_UNIT(  )NAMED_UNIT( #71 )SI_UNIT( .MILLI., .METRE. ) );
#131 = SURFACE_SIDE_STYLE( '', ( #177 ) );
#132 = EDGE_LOOP( '', ( #178 ) );
#133 = EDGE_LOOP( '', ( #179, #180, #181, #182, #183, #184, #185, #186 ) );
#134 = AXIS2_PLACEMENT_3D( '', #187, #188, #189 );
#135 = SURFACE_SIDE_STYLE( '', ( #190 ) );
#136 = EDGE_LOOP( '', ( #191 ) );
#137 = EDGE_LOOP( '', ( #192 ) );
#138 = AXIS2_PLACEMENT_3D( '', #193, #194, #195 );
#139 = SURFACE_SIDE_STYLE( '', ( #196 ) );
#140 = EDGE_LOOP( '', ( #197, #198, #199, #200 ) );
#141 = AXIS2_PLACEMENT_3D( '', #201, #202, #203 );
#142 = SURFACE_SIDE_STYLE( '', ( #204 ) );
#143 = EDGE_LOOP( '', ( #205, #206 ) );
#144 = AXIS2_PLACEMENT_3D( '', #207, #208, #209 );
#145 = SURFACE_SIDE_STYLE( '', ( #210 ) );
#146 = VERTEX_LOOP( '', #211 );
#147 = EDGE_LOOP( '', ( #212 ) );
#148 = AXIS2_PLACEMENT_3D( '', #213, #214, #215 );
#149 = SURFACE_SIDE_STYLE( '', ( #216 ) );
#150 = EDGE_LOOP( '', ( #217 ) );
#151 = EDGE_LOOP( '', ( #218 ) );
#152 = AXIS2_PLACEMENT_3D( '', #219, #220, #221 );
#153 = SURFACE_SIDE_STYLE( '', ( #222 ) );
#154 = EDGE_LOOP( '', ( #223, #224, #225, #226, #227, #228 ) );
#155 = AXIS2_PLACEMENT_3D( '', #229, #230, #231 );
#156 = SURFACE_SIDE_STYLE( '', ( #232 ) );
#157 = EDGE_LOOP( '', ( #233, #234, #235, #236 ) );
#158 = AXIS2_PLACEMENT_3D( '', #237, #238, #239 );
#159 = SURFACE_SIDE_STYLE( '', ( #240 ) );
#160 = EDGE_LOOP( '', ( #241, #242, #243, #244 ) );
#161 = AXIS2_PLACEMENT_3D( '', #245, #246, #247 );
#162 = SURFACE_SIDE_STYLE( '', ( #248 ) );
#163 = EDGE_LOOP( '', ( #249 ) );
#164 = EDGE_LOOP( '', ( #250 ) );
#165 = AXIS2_PLACEMENT_3D( '', #251, #252, #253 );
#166 = SURFACE_SIDE_STYLE( '', ( #254 ) );
#167 = EDGE_LOOP( '', ( #255 ) );
#168 = EDGE_LOOP( '', ( #256 ) );
#169 = AXIS2_PLACEMENT_3D( '', #257, #258, #259 );
#170 = SURFACE_SIDE_STYLE( '', ( #260 ) );
#171 = EDGE_LOOP( '', ( #261, #262, #263, #264, #265, #266 ) );
#172 = AXIS2_PLACEMENT_3D( '', #267, #268, #269 );
#173 = SURFACE_SIDE_STYLE( '', ( #270 ) );
#174 = EDGE_LOOP( '', ( #271, #272 ) );
#175 = AXIS2_PLACEMENT_3D( '', #273, #274, #275 );
#177 = SURFACE_STYLE_FILL_AREA( #276 );
#178 = ORIENTED_EDGE( '', *, *, #277, .F. );
#179 = ORIENTED_EDGE( '', *, *, #278, .T. );
#180 = ORIENTED_EDGE( '', *, *, #279, .T. );
#181 = ORIENTED_EDGE( '', *, *, #280, .F. );
#182 = ORIENTED_EDGE( '', *, *, #281, .T. );
#183 = ORIENTED_EDGE( '', *, *, #282, .T. );
#184 = ORIENTED_EDGE( '', *, *, #283, .T. );
#185 = ORIENTED_EDGE( '', *, *, #284, .F. );
#186 = ORIENTED_EDGE( '', *, *, #285, .T. );
#187 = CARTESIAN_POINT( '', ( 60.0000000000000, 3.55271367880050E-15, 0.000000000000000 ) );
#188 = DIRECTION( '', ( -1.00000000000000, 6.12323399573677E-17, 0.000000000000000 ) );
#189 = DIRECTION( '', ( 6.12323399573677E-17, 1.00000000000000, 0.000000000000000 ) );
#190 = SURFACE_STYLE_FILL_AREA( #286 );
#191 = ORIENTED_EDGE( '', *, *, #287, .F. );
#192 = ORIENTED_EDGE( '', *, *, #288, .T. );
#193 = CARTESIAN_POINT( '', ( 60.0000000000000, 3.55271367880050E-15, 0.000000000000000 ) );
#194 = DIRECTION( '', ( -1.00000000000000, 6.12323399573677E-17, 0.000000000000000 ) );
#195 = DIRECTION( '', ( 6.12323399573677E-17, 1.00000000000000, 0.000000000000000 ) );
#196 = SURFACE_STYLE_FILL_AREA( #289 );
#197 = ORIENTED_EDGE( '', *, *, #290, .T. );
#198 = ORIENTED_EDGE( '', *, *, #291, .T. );
#199 = ORIENTED_EDGE( '', *, *, #282, .F. );
#200 = ORIENTED_EDGE( '', *, *, #292, .T. );
#201 = CARTESIAN_POINT( '', ( 0.000000000000000, 7.22665407624256E-15, 0.000000000000000 ) );
#202 = DIRECTION( '', ( 1.00000000000000, -6.12323399573676E-17, -0.000000000000000 ) );
#203 = DIRECTION( '', ( 6.12323399573677E-17, 1.00000000000000, 0.000000000000000 ) );
#204 = SURFACE_STYLE_FILL_AREA( #293 );
#205 = ORIENTED_EDGE( '', *, *, #294, .F. );
#206 = ORIENTED_EDGE( '', *, *, #295, .F. );
#207 = CARTESIAN_POINT( '', ( -9.89820775410848E-17, 7.22665407624256E-15, 0.000000000000000 ) );
#208 = DIRECTION( '', ( 1.00000000000000, -6.12323399573677E-17, -0.000000000000000 ) );
#209 = DIRECTION( '', ( 6.12323399573677E-17, 1.00000000000000, 0.000000000000000 ) );
#210 = SURFACE_STYLE_FILL_AREA( #296 );
#211 = VERTEX_POINT( '', #297 );
#212 = ORIENTED_EDGE( '', *, *, #287, .T. );
#213 = CARTESIAN_POINT( '', ( 54.9678000000001, 2.94902990916057E-14, 0.000000000000000 ) );
#214 = DIRECTION( '', ( 1.00000000000000, 0.000000000000000, 0.000000000000000 ) );
#215 = DIRECTION( '', ( 0.000000000000000, -1.00000000000000, 0.000000000000000 ) );
#216 = SURFACE_STYLE_FILL_AREA( #298 );
#217 = ORIENTED_EDGE( '', *, *, #299, .F. );
#218 = ORIENTED_EDGE( '', *, *, #300, .T. );
#219 = CARTESIAN_POINT( '', ( 60.0000000000000, 3.55271367880050E-15, 0.000000000000000 ) );
#220 = DIRECTION( '', ( -1.00000000000000, 6.12323399573676E-17, 0.000000000000000 ) );
#221 = DIRECTION( '', ( 6.12323399573677E-17, 1.00000000000000, 0.000000000000000 ) );
#222 = SURFACE_STYLE_FILL_AREA( #301 );
#223 = ORIENTED_EDGE( '', *, *, #291, .F. );
#224 = ORIENTED_EDGE( '', *, *, #302, .T. );
#225 = ORIENTED_EDGE( '', *, *, #292, .F. );
#226 = ORIENTED_EDGE( '', *, *, #281, .F. );
#227 = ORIENTED_EDGE( '', *, *, #303, .F. );
#228 = ORIENTED_EDGE( '', *, *, #283, .F. );
#229 = CARTESIAN_POINT( '', ( 3.00000000000000, 0.900000000000007, 10.5000000000000 ) );
#230 = DIRECTION( '', ( 0.000000000000000, 1.00000000000000, 0.000000000000000 ) );
#231 = DIRECTION( '', ( 0.000000000000000, -0.000000000000000, 1.00000000000000 ) );
#232 = SURFACE_STYLE_FILL_AREA( #304 );
#233 = ORIENTED_EDGE( '', *, *, #278, .F. );
#234 = ORIENTED_EDGE( '', *, *, #305, .T. );
#235 = ORIENTED_EDGE( '', *, *, #294, .T. );
#236 = ORIENTED_EDGE( '', *, *, #306, .T. );
#237 = CARTESIAN_POINT( '', ( 0.000000000000000, 7.22665407624256E-15, 0.000000000000000 ) );
#238 = DIRECTION( '', ( 1.00000000000000, -6.12323399573676E-17, -0.000000000000000 ) );
#239 = DIRECTION( '', ( 6.12323399573677E-17, 1.00000000000000, 0.000000000000000 ) );
#240 = SURFACE_STYLE_FILL_AREA( #307 );
#241 = ORIENTED_EDGE( '', *, *, #280, .T. );
#242 = ORIENTED_EDGE( '', *, *, #308, .T. );
#243 = ORIENTED_EDGE( '', *, *, #284, .T. );
#244 = ORIENTED_EDGE( '', *, *, #303, .T. );
#245 = CARTESIAN_POINT( '', ( 3.00000000000000, 0.000000000000000, 0.000000000000000 ) );
#246 = DIRECTION( '', ( -1.00000000000000, 0.000000000000000, 0.000000000000000 ) );
#247 = DIRECTION( '', ( 0.000000000000000, 0.000000000000000, 1.00000000000000 ) );
#248 = SURFACE_STYLE_FILL_AREA( #309 );
#249 = ORIENTED_EDGE( '', *, *, #300, .F. );
#250 = ORIENTED_EDGE( '', *, *, #277, .T. );
#251 = CARTESIAN_POINT( '', ( 52.5000000000000, 4.01195622848076E-15, 0.000000000000000 ) );
#252 = DIRECTION( '', ( -1.00000000000000, 6.12323399573677E-17, -0.000000000000000 ) );
#253 = DIRECTION( '', ( -6.12323399573677E-17, -1.00000000000000, 0.000000000000000 ) );
#254 = SURFACE_STYLE_FILL_AREA( #310 );
#255 = ORIENTED_EDGE( '', *, *, #288, .F. );
#256 = ORIENTED_EDGE( '', *, *, #299, .T. );
#257 = CARTESIAN_POINT( '', ( 57.0000000000000, 2.70000000000000, 0.000000000000000 ) );
#258 = DIRECTION( '', ( 1.00000000000000, -6.12323399573677E-17, -0.000000000000000 ) );
#259 = DIRECTION( '', ( 6.12323399573677E-17, 1.00000000000000, 0.000000000000000 ) );
#260 = SURFACE_STYLE_FILL_AREA( #311 );
#261 = ORIENTED_EDGE( '', *, *, #295, .T. );
#262 = ORIENTED_EDGE( '', *, *, #305, .F. );
#263 = ORIENTED_EDGE( '', *, *, #285, .F. );
#264 = ORIENTED_EDGE( '', *, *, #308, .F. );
#265 = ORIENTED_EDGE( '', *, *, #279, .F. );
#266 = ORIENTED_EDGE( '', *, *, #306, .F. );
#267 = CARTESIAN_POINT( '', ( 3.00000000000000, -0.899999999999993, -10.5000000000000 ) );
#268 = DIRECTION( '', ( 0.000000000000000, -1.00000000000000, 0.000000000000000 ) );
#269 = DIRECTION( '', ( 0.000000000000000, 0.000000000000000, -1.00000000000000 ) );
#270 = SURFACE_STYLE_FILL_AREA( #312 );
#271 = ORIENTED_EDGE( '', *, *, #290, .F. );
#272 = ORIENTED_EDGE( '', *, *, #302, .F. );
#273 = CARTESIAN_POINT( '', ( -9.89820775410848E-17, 7.22665407624256E-15, 0.000000000000000 ) );
#274 = DIRECTION( '', ( 1.00000000000000, -6.12323399573677E-17, -0.000000000000000 ) );
#275 = DIRECTION( '', ( 6.12323399573677E-17, 1.00000000000000, 0.000000000000000 ) );
#276 = FILL_AREA_STYLE( '', ( #313 ) );
#277 = EDGE_CURVE( '', #314, #314, #315, .T. );
#278 = EDGE_CURVE( '', #316, #317, #318, .T. );
#279 = EDGE_CURVE( '', #317, #319, #320, .T. );
#280 = EDGE_CURVE( '', #321, #319, #322, .T. );
#281 = EDGE_CURVE( '', #321, #323, #324, .F. );
#282 = EDGE_CURVE( '', #323, #325, #326, .T. );
#283 = EDGE_CURVE( '', #325, #327, #328, .T. );
#284 = EDGE_CURVE( '', #329, #327, #330, .T. );
#285 = EDGE_CURVE( '', #329, #316, #331, .F. );
#286 = FILL_AREA_STYLE( '', ( #332 ) );
#287 = EDGE_CURVE( '', #333, #333, #334, .T. );
#288 = EDGE_CURVE( '', #335, #335, #336, .T. );
#289 = FILL_AREA_STYLE( '', ( #337 ) );
#290 = EDGE_CURVE( '', #338, #339, #340, .T. );
#291 = EDGE_CURVE( '', #339, #325, #341, .T. );
#292 = EDGE_CURVE( '', #323, #338, #342, .T. );
#293 = FILL_AREA_STYLE( '', ( #343 ) );
#294 = EDGE_CURVE( '', #344, #345, #346, .T. );
#295 = EDGE_CURVE( '', #345, #344, #347, .T. );
#296 = FILL_AREA_STYLE( '', ( #348 ) );
#297 = CARTESIAN_POINT( '', ( 60.0000000000000, 2.88740323293388E-14, 0.000000000000000 ) );
#298 = FILL_AREA_STYLE( '', ( #349 ) );
#299 = EDGE_CURVE( '', #350, #350, #351, .T. );
#300 = EDGE_CURVE( '', #352, #352, #353, .T. );
#301 = FILL_AREA_STYLE( '', ( #354 ) );
#302 = EDGE_CURVE( '', #339, #338, #355, .T. );
#303 = EDGE_CURVE( '', #327, #321, #356, .T. );
#304 = FILL_AREA_STYLE( '', ( #357 ) );
#305 = EDGE_CURVE( '', #316, #344, #358, .T. );
#306 = EDGE_CURVE( '', #345, #317, #359, .T. );
#307 = FILL_AREA_STYLE( '', ( #360 ) );
#308 = EDGE_CURVE( '', #319, #329, #361, .T. );
#309 = FILL_AREA_STYLE( '', ( #362 ) );
#310 = FILL_AREA_STYLE( '', ( #363 ) );
#311 = FILL_AREA_STYLE( '', ( #364 ) );
#312 = FILL_AREA_STYLE( '', ( #365 ) );
#313 = FILL_AREA_STYLE_COLOUR( '', #366 );
#314 = VERTEX_POINT( '', #367 );
#315 = CIRCLE( '', #368, 4.00000000000000 );
#316 = VERTEX_POINT( '', #369 );
#317 = VERTEX_POINT( '', #370 );
#318 = CIRCLE( '', #371, 4.00000000000000 );
#319 = VERTEX_POINT( '', #372 );
#320 = LINE( '', #373, #374 );
#321 = VERTEX_POINT( '', #375 );
#322 = CIRCLE( '', #376, 4.00000000000000 );
#323 = VERTEX_POINT( '', #377 );
#324 = LINE( '', #378, #379 );
#325 = VERTEX_POINT( '', #380 );
#326 = CIRCLE( '', #381, 4.00000000000000 );
#327 = VERTEX_POINT( '', #382 );
#328 = LINE( '', #383, #384 );
#329 = VERTEX_POINT( '', #385 );
#330 = CIRCLE( '', #386, 4.00000000000000 );
#331 = LINE( '', #387, #388 );
#332 = FILL_AREA_STYLE_COLOUR( '', #389 );
#333 = VERTEX_POINT( '', #390 );
#334 = CIRCLE( '', #391, 3.00000000000000 );
#335 = VERTEX_POINT( '', #392 );
#336 = CIRCLE( '', #393, 3.00000000000000 );
#337 = FILL_AREA_STYLE_COLOUR( '', #394 );
#338 = VERTEX_POINT( '', #395 );
#339 = VERTEX_POINT( '', #396 );
#340 = CIRCLE( '', #397, 3.23300000000000 );
#341 = B_SPLINE_CURVE_WITH_KNOTS( '', 3, ( #398, #399, #400, #401 ), .UNSPECIFIED., .F., .F., ( 4, 4 ), ( 0.0158157249040059, 0.0169130244324276 ), .UNSPECIFIED. );
#342 = B_SPLINE_CURVE_WITH_KNOTS( '', 3, ( #402, #403, #404, #405 ), .UNSPECIFIED., .F., .F., ( 4, 4 ), ( 0.00685941369446053, 0.00796210091278452 ), .UNSPECIFIED. );
#343 = FILL_AREA_STYLE_COLOUR( '', #406 );
#344 = VERTEX_POINT( '', #407 );
#345 = VERTEX_POINT( '', #408 );
#346 = CIRCLE( '', #409, 3.23300000000000 );
#347 = LINE( '', #410, #411 );
#348 = FILL_AREA_STYLE_COLOUR( '', #412 );
#349 = FILL_AREA_STYLE_COLOUR( '', #413 );
#350 = VERTEX_POINT( '', #414 );
#351 = CIRCLE( '', #415, 2.70000000000000 );
#352 = VERTEX_POINT( '', #416 );
#353 = CIRCLE( '', #417, 2.70000000000000 );
#354 = FILL_AREA_STYLE_COLOUR( '', #418 );
#355 = LINE( '', #419, #420 );
#356 = LINE( '', #421, #422 );
#357 = FILL_AREA_STYLE_COLOUR( '', #423 );
#358 = B_SPLINE_CURVE_WITH_KNOTS( '', 3, ( #424, #425, #426, #427 ), .UNSPECIFIED., .F., .F., ( 4, 4 ), ( 0.00685941369446052, 0.00796210091278451 ), .UNSPECIFIED. );
#359 = B_SPLINE_CURVE_WITH_KNOTS( '', 3, ( #428, #429, #430, #431 ), .UNSPECIFIED., .F., .F., ( 4, 4 ), ( 0.0158157249040059, 0.0169130244324276 ), .UNSPECIFIED. );
#360 = FILL_AREA_STYLE_COLOUR( '', #432 );
#361 = LINE( '', #433, #434 );
#362 = FILL_AREA_STYLE_COLOUR( '', #435 );
#363 = FILL_AREA_STYLE_COLOUR( '', #436 );
#364 = FILL_AREA_STYLE_COLOUR( '', #437 );
#365 = FILL_AREA_STYLE_COLOUR( '', #438 );
#366 = COLOUR_RGB( '', 0.689999997600000, 0.689999997600000, 0.689999997600000 );
#367 = CARTESIAN_POINT( '', ( 52.5000000000000, 4.00000000000000, 0.000000000000000 ) );
#368 = AXIS2_PLACEMENT_3D( '', #439, #440, #441 );
#369 = CARTESIAN_POINT( '', ( 0.767000000000004, -0.899999999999989, 3.89743505398102 ) );
#370 = CARTESIAN_POINT( '', ( 0.767000000000004, -0.899999999999989, -3.89743505398102 ) );
#371 = AXIS2_PLACEMENT_3D( '', #442, #443, #444 );
#372 = CARTESIAN_POINT( '', ( 3.00000000000000, -0.899999999999993, -3.89743505398101 ) );
#373 = CARTESIAN_POINT( '', ( 60.0000000000000, -0.899999999999993, -3.89743505398102 ) );
#374 = VECTOR( '', #445, 1000.00000000000 );
#375 = CARTESIAN_POINT( '', ( 3.00000000000000, 0.900000000000007, -3.89743505398101 ) );
#376 = AXIS2_PLACEMENT_3D( '', #446, #447, #448 );
#377 = CARTESIAN_POINT( '', ( 0.767000000000004, 0.900000000000011, -3.89743505398101 ) );
#378 = CARTESIAN_POINT( '', ( 60.0000000000000, 0.900000000000007, -3.89743505398101 ) );
#379 = VECTOR( '', #449, 1000.00000000000 );
#380 = CARTESIAN_POINT( '', ( 0.767000000000004, 0.900000000000011, 3.89743505398101 ) );
#381 = AXIS2_PLACEMENT_3D( '', #450, #451, #452 );
#382 = CARTESIAN_POINT( '', ( 3.00000000000000, 0.900000000000007, 3.89743505398101 ) );
#383 = CARTESIAN_POINT( '', ( 60.0000000000000, 0.900000000000007, 3.89743505398101 ) );
#384 = VECTOR( '', #453, 1000.00000000000 );
#385 = CARTESIAN_POINT( '', ( 3.00000000000000, -0.899999999999993, 3.89743505398101 ) );
#386 = AXIS2_PLACEMENT_3D( '', #454, #455, #456 );
#387 = CARTESIAN_POINT( '', ( 60.0000000000000, -0.899999999999993, 3.89743505398102 ) );
#388 = VECTOR( '', #457, 1000.00000000000 );
#389 = COLOUR_RGB( '', 0.689999997600000, 0.689999997600000, 0.689999997600000 );
#390 = CARTESIAN_POINT( '', ( 59.0079778228192, 3.00000000000000, 0.000000000000000 ) );
#391 = AXIS2_PLACEMENT_3D( '', #458, #459, #460 );
#392 = CARTESIAN_POINT( '', ( 57.0000000000000, 3.00000000000000, 0.000000000000000 ) );
#393 = AXIS2_PLACEMENT_3D( '', #461, #462, #463 );
#394 = COLOUR_RGB( '', 0.689999997600000, 0.689999997600000, 0.689999997600000 );
#395 = CARTESIAN_POINT( '', ( 0.000000000000000, 0.900000000000007, -3.10520353600211 ) );
#396 = CARTESIAN_POINT( '', ( 0.000000000000000, 0.900000000000007, 3.10520353600211 ) );
#397 = AXIS2_PLACEMENT_3D( '', #464, #465, #466 );
#398 = CARTESIAN_POINT( '', ( 6.05051833877497E-16, 0.900000000000007, 3.10520353600211 ) );
#399 = CARTESIAN_POINT( '', ( 0.254623855499881, 0.900000000000007, 3.37030658489628 ) );
#400 = CARTESIAN_POINT( '', ( 0.510496360619596, 0.900000000000007, 3.63418126185596 ) );
#401 = CARTESIAN_POINT( '', ( 0.766999999999999, 0.900000000000007, 3.89743505398102 ) );
#402 = CARTESIAN_POINT( '', ( 0.766999999999999, 0.900000000000007, -3.89743505398102 ) );
#403 = CARTESIAN_POINT( '', ( 0.510490421567082, 0.900000000000007, -3.63417516651127 ) );
#404 = CARTESIAN_POINT( '', ( 0.254616510453989, 0.900000000000007, -3.37029893756074 ) );
#405 = CARTESIAN_POINT( '', ( 3.97124697309625E-16, 0.900000000000007, -3.10520353600211 ) );
#406 = COLOUR_RGB( '', 0.689999997600000, 0.689999997600000, 0.689999997600000 );
#407 = CARTESIAN_POINT( '', ( 0.000000000000000, -0.899999999999993, 3.10520353600211 ) );
#408 = CARTESIAN_POINT( '', ( 0.000000000000000, -0.899999999999993, -3.10520353600211 ) );
#409 = AXIS2_PLACEMENT_3D( '', #467, #468, #469 );
#410 = CARTESIAN_POINT( '', ( 0.000000000000000, -0.899999999999993, -10.5000000000000 ) );
#411 = VECTOR( '', #470, 1000.00000000000 );
#412 = COLOUR_RGB( '', 0.689999997600000, 0.689999997600000, 0.689999997600000 );
#413 = COLOUR_RGB( '', 0.689999997600000, 0.689999997600000, 0.689999997600000 );
#414 = CARTESIAN_POINT( '', ( 57.0000000000000, 2.70000000000000, 0.000000000000000 ) );
#415 = AXIS2_PLACEMENT_3D( '', #471, #472, #473 );
#416 = CARTESIAN_POINT( '', ( 53.2217250000000, 2.70000000000000, 0.000000000000000 ) );
#417 = AXIS2_PLACEMENT_3D( '', #474, #475, #476 );
#418 = COLOUR_RGB( '', 0.689999997600000, 0.689999997600000, 0.689999997600000 );
#419 = CARTESIAN_POINT( '', ( 0.000000000000000, 0.900000000000007, 10.5000000000000 ) );
#420 = VECTOR( '', #477, 1000.00000000000 );
#421 = CARTESIAN_POINT( '', ( 3.00000000000000, 0.900000000000007, 10.5000000000000 ) );
#422 = VECTOR( '', #478, 1000.00000000000 );
#423 = COLOUR_RGB( '', 0.689999997600000, 0.689999997600000, 0.689999997600000 );
#424 = CARTESIAN_POINT( '', ( 0.767000000000001, -0.899999999999993, 3.89743505398102 ) );
#425 = CARTESIAN_POINT( '', ( 0.510490421567083, -0.899999999999993, 3.63417516651128 ) );
#426 = CARTESIAN_POINT( '', ( 0.254616510453989, -0.899999999999993, 3.37029893756074 ) );
#427 = CARTESIAN_POINT( '', ( -9.89644392929829E-17, -0.899999999999993, 3.10520353600211 ) );
#428 = CARTESIAN_POINT( '', ( -1.07228568014189E-15, -0.899999999999993, -3.10520353600211 ) );
#429 = CARTESIAN_POINT( '', ( 0.254623855499881, -0.899999999999993, -3.37030658489628 ) );
#430 = CARTESIAN_POINT( '', ( 0.510496360619597, -0.899999999999993, -3.63418126185596 ) );
#431 = CARTESIAN_POINT( '', ( 0.767000000000001, -0.899999999999993, -3.89743505398102 ) );
#432 = COLOUR_RGB( '', 0.689999997600000, 0.689999997600000, 0.689999997600000 );
#433 = CARTESIAN_POINT( '', ( 3.00000000000000, -0.899999999999993, -10.5000000000000 ) );
#434 = VECTOR( '', #479, 1000.00000000000 );
#435 = COLOUR_RGB( '', 0.689999997600000, 0.689999997600000, 0.689999997600000 );
#436 = COLOUR_RGB( '', 0.689999997600000, 0.689999997600000, 0.689999997600000 );
#437 = COLOUR_RGB( '', 0.689999997600000, 0.689999997600000, 0.689999997600000 );
#438 = COLOUR_RGB( '', 0.689999997600000, 0.689999997600000, 0.689999997600000 );
#439 = CARTESIAN_POINT( '', ( 52.5000000000000, 4.01195622848076E-15, 0.000000000000000 ) );
#440 = DIRECTION( '', ( 1.00000000000000, -6.12323399573677E-17, -0.000000000000000 ) );
#441 = DIRECTION( '', ( 6.12323399573677E-17, 1.00000000000000, 0.000000000000000 ) );
#442 = CARTESIAN_POINT( '', ( 0.766999999999997, 7.17968887149526E-15, 0.000000000000000 ) );
#443 = DIRECTION( '', ( 1.00000000000000, -6.12323399573677E-17, -0.000000000000000 ) );
#444 = DIRECTION( '', ( 6.12323399573677E-17, 1.00000000000000, 0.000000000000000 ) );
#445 = DIRECTION( '', ( 1.00000000000000, -6.12323399573677E-17, -0.000000000000000 ) );
#446 = CARTESIAN_POINT( '', ( 3.00000000000000, 7.04295705637046E-15, 0.000000000000000 ) );
#447 = DIRECTION( '', ( -1.00000000000000, 0.000000000000000, 0.000000000000000 ) );
#448 = DIRECTION( '', ( 0.000000000000000, 0.000000000000000, 1.00000000000000 ) );
#449 = DIRECTION( '', ( 1.00000000000000, -6.12323399573677E-17, -0.000000000000000 ) );
#450 = CARTESIAN_POINT( '', ( 0.766999999999997, 7.17968887149526E-15, 0.000000000000000 ) );
#451 = DIRECTION( '', ( 1.00000000000000, -6.12323399573677E-17, -0.000000000000000 ) );
#452 = DIRECTION( '', ( 6.12323399573677E-17, 1.00000000000000, 0.000000000000000 ) );
#453 = DIRECTION( '', ( 1.00000000000000, -6.12323399573677E-17, -0.000000000000000 ) );
#454 = CARTESIAN_POINT( '', ( 3.00000000000000, 7.04295705637046E-15, 0.000000000000000 ) );
#455 = DIRECTION( '', ( -1.00000000000000, 0.000000000000000, 0.000000000000000 ) );
#456 = DIRECTION( '', ( 0.000000000000000, 0.000000000000000, 1.00000000000000 ) );
#457 = DIRECTION( '', ( 1.00000000000000, -6.12323399573677E-17, -0.000000000000000 ) );
#458 = CARTESIAN_POINT( '', ( 59.0079778228192, 3.61345751799888E-15, 0.000000000000000 ) );
#459 = DIRECTION( '', ( 1.00000000000000, -6.12323399573677E-17, -0.000000000000000 ) );
#460 = DIRECTION( '', ( 6.12323399573677E-17, 1.00000000000000, 0.000000000000000 ) );
#461 = CARTESIAN_POINT( '', ( 57.0000000000000, 3.73641069867260E-15, 0.000000000000000 ) );
#462 = DIRECTION( '', ( 1.00000000000000, -6.12323399573677E-17, -0.000000000000000 ) );
#463 = DIRECTION( '', ( 6.12323399573677E-17, 1.00000000000000, 0.000000000000000 ) );
#464 = CARTESIAN_POINT( '', ( 0.000000000000000, 7.22665407624256E-15, 0.000000000000000 ) );
#465 = DIRECTION( '', ( 1.00000000000000, -6.12323399573677E-17, -0.000000000000000 ) );
#466 = DIRECTION( '', ( 6.12323399573677E-17, 1.00000000000000, 0.000000000000000 ) );
#467 = CARTESIAN_POINT( '', ( 0.000000000000000, 7.22665407624256E-15, 0.000000000000000 ) );
#468 = DIRECTION( '', ( 1.00000000000000, -6.12323399573677E-17, -0.000000000000000 ) );
#469 = DIRECTION( '', ( 6.12323399573677E-17, 1.00000000000000, 0.000000000000000 ) );
#470 = DIRECTION( '', ( 0.000000000000000, 0.000000000000000, 1.00000000000000 ) );
#471 = CARTESIAN_POINT( '', ( 57.0000000000000, 3.73641069867260E-15, 0.000000000000000 ) );
#472 = DIRECTION( '', ( 1.00000000000000, -6.12323399573676E-17, -0.000000000000000 ) );
#473 = DIRECTION( '', ( 6.12323399573677E-17, 1.00000000000000, 0.000000000000000 ) );
#474 = CARTESIAN_POINT( '', ( 53.2217250000000, 3.96776331792503E-15, 0.000000000000000 ) );
#475 = DIRECTION( '', ( 1.00000000000000, -6.12323399573676E-17, -0.000000000000000 ) );
#476 = DIRECTION( '', ( 6.12323399573677E-17, 1.00000000000000, 0.000000000000000 ) );
#477 = DIRECTION( '', ( 0.000000000000000, 0.000000000000000, -1.00000000000000 ) );
#478 = DIRECTION( '', ( 0.000000000000000, 0.000000000000000, -1.00000000000000 ) );
#479 = DIRECTION( '', ( 0.000000000000000, 0.000000000000000, 1.00000000000000 ) );
ENDSEC;
END-ISO-10303-21;
