ISO-10303-21;
HEADER;
FILE_DESCRIPTION( ( 'STEP AP214' ), '1' );
FILE_NAME( '//goodhand-server/Shared Folders/GoodHand Data/Kipp CAD/K0392/K0392.081.stp', '2020-12-07T10:23:34', ( '' ), ( '' ), ' ', 'PARTsolutions', ' ' );
FILE_SCHEMA( ( 'AUTOMOTIVE_DESIGN { 1 0 10303 214 1 1 1 1 }' ) );
ENDSEC;
DATA;
#1 = MECHANICAL_DESIGN_GEOMETRIC_PRESENTATION_REPRESENTATION( ' ', ( #10, #11, #12, #13, #14, #15, #16, #17, #18, #19, #20, #21, #22, #23, #24, #25, #26 ), #6 );
#2 = PRODUCT_DEFINITION_CONTEXT( '', #27, 'design' );
#3 = APPLICATION_PROTOCOL_DEFINITION( 'international standard', 'automotive_design', 2001, #27 );
#4 = PRODUCT_CATEGORY_RELATIONSHIP( 'NONE', 'NONE', #28, #29 );
#5 = SHAPE_DEFINITION_REPRESENTATION( #30, #31 );
#6 =  ( GEOMETRIC_REPRESENTATION_CONTEXT( 3 )GLOBAL_UNCERTAINTY_ASSIGNED_CONTEXT( ( #34 ) )GLOBAL_UNIT_ASSIGNED_CONTEXT( ( #36, #37, #38 ) )REPRESENTATION_CONTEXT( 'NONE', 'WORKSPACE' ) );
#10 = STYLED_ITEM( '', ( #40 ), #41 );
#11 = STYLED_ITEM( '', ( #42 ), #43 );
#12 = STYLED_ITEM( '', ( #44 ), #45 );
#13 = STYLED_ITEM( '', ( #46 ), #47 );
#14 = STYLED_ITEM( '', ( #48 ), #49 );
#15 = STYLED_ITEM( '', ( #50 ), #51 );
#16 = STYLED_ITEM( '', ( #52 ), #53 );
#17 = STYLED_ITEM( '', ( #54 ), #55 );
#18 = STYLED_ITEM( '', ( #56 ), #57 );
#19 = STYLED_ITEM( '', ( #58 ), #59 );
#20 = STYLED_ITEM( '', ( #60 ), #61 );
#21 = STYLED_ITEM( '', ( #62 ), #63 );
#22 = STYLED_ITEM( '', ( #64 ), #65 );
#23 = STYLED_ITEM( '', ( #66 ), #67 );
#24 = STYLED_ITEM( '', ( #68 ), #69 );
#25 = STYLED_ITEM( '', ( #70 ), #71 );
#26 = STYLED_ITEM( '', ( #72 ), #73 );
#27 = APPLICATION_CONTEXT( 'core data for automotive mechanical design processes' );
#28 = PRODUCT_CATEGORY( 'part', 'NONE' );
#29 = PRODUCT_RELATED_PRODUCT_CATEGORY( 'detail', ' ', ( #74 ) );
#30 = PRODUCT_DEFINITION_SHAPE( 'NONE', 'NONE', #75 );
#31 = ADVANCED_BREP_SHAPE_REPRESENTATION( '_K0392.081', ( #76, #77 ), #6 );
#34 = UNCERTAINTY_MEASURE_WITH_UNIT( LENGTH_MEASURE( 0.00100000000000000 ), #36, '', '' );
#36 =  ( CONVERSION_BASED_UNIT( 'MILLIMETRE', #80 )LENGTH_UNIT(  )NAMED_UNIT( #83 ) );
#37 =  ( NAMED_UNIT( #85 )PLANE_ANGLE_UNIT(  )SI_UNIT( $, .RADIAN. ) );
#38 =  ( NAMED_UNIT( #85 )SI_UNIT( $, .STERADIAN. )SOLID_ANGLE_UNIT(  ) );
#40 = PRESENTATION_STYLE_ASSIGNMENT( ( #91 ) );
#41 = ADVANCED_FACE( '', ( #92, #93, #94 ), #95, .F. );
#42 = PRESENTATION_STYLE_ASSIGNMENT( ( #96 ) );
#43 = ADVANCED_FACE( '', ( #97, #98 ), #99, .F. );
#44 = PRESENTATION_STYLE_ASSIGNMENT( ( #100 ) );
#45 = ADVANCED_FACE( '', ( #101, #102 ), #103, .T. );
#46 = PRESENTATION_STYLE_ASSIGNMENT( ( #104 ) );
#47 = ADVANCED_FACE( '', ( #105, #106 ), #107, .F. );
#48 = PRESENTATION_STYLE_ASSIGNMENT( ( #108 ) );
#49 = ADVANCED_FACE( '', ( #109, #110 ), #111, .F. );
#50 = PRESENTATION_STYLE_ASSIGNMENT( ( #112 ) );
#51 = ADVANCED_FACE( '', ( #113, #114 ), #115, .F. );
#52 = PRESENTATION_STYLE_ASSIGNMENT( ( #116 ) );
#53 = ADVANCED_FACE( '', ( #117, #118 ), #119, .F. );
#54 = PRESENTATION_STYLE_ASSIGNMENT( ( #120 ) );
#55 = ADVANCED_FACE( '', ( #121, #122 ), #123, .F. );
#56 = PRESENTATION_STYLE_ASSIGNMENT( ( #124 ) );
#57 = ADVANCED_FACE( '', ( #125, #126 ), #127, .T. );
#58 = PRESENTATION_STYLE_ASSIGNMENT( ( #128 ) );
#59 = ADVANCED_FACE( '', ( #129, #130 ), #131, .T. );
#60 = PRESENTATION_STYLE_ASSIGNMENT( ( #132 ) );
#61 = ADVANCED_FACE( '', ( #133, #134 ), #135, .T. );
#62 = PRESENTATION_STYLE_ASSIGNMENT( ( #136 ) );
#63 = ADVANCED_FACE( '', ( #137, #138 ), #139, .F. );
#64 = PRESENTATION_STYLE_ASSIGNMENT( ( #140 ) );
#65 = ADVANCED_FACE( '', ( #141, #142 ), #143, .F. );
#66 = PRESENTATION_STYLE_ASSIGNMENT( ( #144 ) );
#67 = ADVANCED_FACE( '', ( #145, #146 ), #147, .F. );
#68 = PRESENTATION_STYLE_ASSIGNMENT( ( #148 ) );
#69 = ADVANCED_FACE( '', ( #149, #150 ), #151, .T. );
#70 = PRESENTATION_STYLE_ASSIGNMENT( ( #152 ) );
#71 = ADVANCED_FACE( '', ( #153, #154 ), #155, .F. );
#72 = PRESENTATION_STYLE_ASSIGNMENT( ( #156 ) );
#73 = ADVANCED_FACE( '', ( #157 ), #158, .T. );
#74 = PRODUCT( '_K0392.081', '_K0392.081', 'PART-_K0392.081-DESC', ( #159 ) );
#75 = PRODUCT_DEFINITION( 'NONE', 'NONE', #160, #2 );
#76 = MANIFOLD_SOLID_BREP( '_K0392.081', #161 );
#77 = AXIS2_PLACEMENT_3D( '', #162, #163, #164 );
#80 = LENGTH_MEASURE_WITH_UNIT( LENGTH_MEASURE( 1.00000000000000 ), #165 );
#83 = DIMENSIONAL_EXPONENTS( 1.00000000000000, 0.000000000000000, 0.000000000000000, 0.000000000000000, 0.000000000000000, 0.000000000000000, 0.000000000000000 );
#85 = DIMENSIONAL_EXPONENTS( 0.000000000000000, 0.000000000000000, 0.000000000000000, 0.000000000000000, 0.000000000000000, 0.000000000000000, 0.000000000000000 );
#91 = SURFACE_STYLE_USAGE( .BOTH., #166 );
#92 = FACE_BOUND( '', #167, .T. );
#93 = FACE_OUTER_BOUND( '', #168, .T. );
#94 = FACE_OUTER_BOUND( '', #169, .T. );
#95 = TOROIDAL_SURFACE( '', #170, 3.35000000000000, 0.500000000000000 );
#96 = SURFACE_STYLE_USAGE( .BOTH., #171 );
#97 = FACE_OUTER_BOUND( '', #172, .T. );
#98 = FACE_BOUND( '', #173, .T. );
#99 = CONICAL_SURFACE( '', #174, 3.05000000000000, 0.785398163400000 );
#100 = SURFACE_STYLE_USAGE( .BOTH., #175 );
#101 = FACE_BOUND( '', #176, .T. );
#102 = FACE_OUTER_BOUND( '', #177, .T. );
#103 = CONICAL_SURFACE( '', #178, 8.00000000000000, 0.785398163400000 );
#104 = SURFACE_STYLE_USAGE( .BOTH., #179 );
#105 = FACE_OUTER_BOUND( '', #180, .T. );
#106 = FACE_BOUND( '', #181, .T. );
#107 = PLANE( '', #182 );
#108 = SURFACE_STYLE_USAGE( .BOTH., #183 );
#109 = FACE_BOUND( '', #184, .T. );
#110 = FACE_OUTER_BOUND( '', #185, .T. );
#111 = PLANE( '', #186 );
#112 = SURFACE_STYLE_USAGE( .BOTH., #187 );
#113 = FACE_OUTER_BOUND( '', #188, .T. );
#114 = FACE_OUTER_BOUND( '', #189, .T. );
#115 = CYLINDRICAL_SURFACE( '', #190, 3.05000000000000 );
#116 = SURFACE_STYLE_USAGE( .BOTH., #191 );
#117 = FACE_BOUND( '', #192, .T. );
#118 = FACE_OUTER_BOUND( '', #193, .T. );
#119 = PLANE( '', #194 );
#120 = SURFACE_STYLE_USAGE( .BOTH., #195 );
#121 = FACE_OUTER_BOUND( '', #196, .T. );
#122 = FACE_OUTER_BOUND( '', #197, .T. );
#123 = CYLINDRICAL_SURFACE( '', #198, 3.50000000000000 );
#124 = SURFACE_STYLE_USAGE( .BOTH., #199 );
#125 = FACE_OUTER_BOUND( '', #200, .T. );
#126 = FACE_OUTER_BOUND( '', #201, .T. );
#127 = CYLINDRICAL_SURFACE( '', #202, 8.00000000000000 );
#128 = SURFACE_STYLE_USAGE( .BOTH., #203 );
#129 = FACE_OUTER_BOUND( '', #204, .T. );
#130 = FACE_BOUND( '', #205, .T. );
#131 = CONICAL_SURFACE( '', #206, 7.40000000000000, 0.785398163400000 );
#132 = SURFACE_STYLE_USAGE( .BOTH., #207 );
#133 = FACE_OUTER_BOUND( '', #208, .T. );
#134 = FACE_OUTER_BOUND( '', #209, .T. );
#135 = CYLINDRICAL_SURFACE( '', #210, 6.00000000000000 );
#136 = SURFACE_STYLE_USAGE( .BOTH., #211 );
#137 = FACE_OUTER_BOUND( '', #212, .T. );
#138 = FACE_BOUND( '', #213, .T. );
#139 = CONICAL_SURFACE( '', #214, 857.167300702100, 1.02974425870000 );
#140 = SURFACE_STYLE_USAGE( .BOTH., #215 );
#141 = FACE_OUTER_BOUND( '', #216, .T. );
#142 = FACE_OUTER_BOUND( '', #217, .T. );
#143 = CYLINDRICAL_SURFACE( '', #218, 3.05000000000000 );
#144 = SURFACE_STYLE_USAGE( .BOTH., #219 );
#145 = FACE_OUTER_BOUND( '', #220, .T. );
#146 = FACE_BOUND( '', #221, .T. );
#147 = PLANE( '', #222 );
#148 = SURFACE_STYLE_USAGE( .BOTH., #223 );
#149 = FACE_OUTER_BOUND( '', #224, .T. );
#150 = FACE_BOUND( '', #225, .T. );
#151 = CONICAL_SURFACE( '', #226, 5.40000000000000, 0.785398163400000 );
#152 = SURFACE_STYLE_USAGE( .BOTH., #227 );
#153 = FACE_OUTER_BOUND( '', #228, .T. );
#154 = FACE_OUTER_BOUND( '', #229, .T. );
#155 = TOROIDAL_SURFACE( '', #230, 8.00000000000000, 2.00000000000000 );
#156 = SURFACE_STYLE_USAGE( .BOTH., #231 );
#157 = FACE_OUTER_BOUND( '', #232, .T. );
#158 = PLANE( '', #233 );
#159 = PRODUCT_CONTEXT( '', #27, 'mechanical' );
#160 = PRODUCT_DEFINITION_FORMATION_WITH_SPECIFIED_SOURCE( ' ', 'NONE', #74, .NOT_KNOWN. );
#161 = CLOSED_SHELL( '', ( #63, #65, #67, #41, #53, #51, #43, #47, #69, #61, #71, #59, #57, #45, #49, #73, #55 ) );
#162 = CARTESIAN_POINT( '', ( 0.000000000000000, 0.000000000000000, 0.000000000000000 ) );
#163 = DIRECTION( '', ( 0.000000000000000, 0.000000000000000, 1.00000000000000 ) );
#164 = DIRECTION( '', ( 1.00000000000000, 0.000000000000000, 0.000000000000000 ) );
#165 =  ( LENGTH_UNIT(  )NAMED_UNIT( #83 )SI_UNIT( .MILLI., .METRE. ) );
#166 = SURFACE_SIDE_STYLE( '', ( #235 ) );
#167 = VERTEX_LOOP( '', #236 );
#168 = EDGE_LOOP( '', ( #237 ) );
#169 = EDGE_LOOP( '', ( #238 ) );
#170 = AXIS2_PLACEMENT_3D( '', #239, #240, #241 );
#171 = SURFACE_SIDE_STYLE( '', ( #242 ) );
#172 = EDGE_LOOP( '', ( #243 ) );
#173 = EDGE_LOOP( '', ( #244 ) );
#174 = AXIS2_PLACEMENT_3D( '', #245, #246, #247 );
#175 = SURFACE_SIDE_STYLE( '', ( #248 ) );
#176 = EDGE_LOOP( '', ( #249 ) );
#177 = EDGE_LOOP( '', ( #250 ) );
#178 = AXIS2_PLACEMENT_3D( '', #251, #252, #253 );
#179 = SURFACE_SIDE_STYLE( '', ( #254 ) );
#180 = EDGE_LOOP( '', ( #255 ) );
#181 = EDGE_LOOP( '', ( #256 ) );
#182 = AXIS2_PLACEMENT_3D( '', #257, #258, #259 );
#183 = SURFACE_SIDE_STYLE( '', ( #260 ) );
#184 = EDGE_LOOP( '', ( #261 ) );
#185 = EDGE_LOOP( '', ( #262 ) );
#186 = AXIS2_PLACEMENT_3D( '', #263, #264, #265 );
#187 = SURFACE_SIDE_STYLE( '', ( #266 ) );
#188 = EDGE_LOOP( '', ( #267 ) );
#189 = EDGE_LOOP( '', ( #268 ) );
#190 = AXIS2_PLACEMENT_3D( '', #269, #270, #271 );
#191 = SURFACE_SIDE_STYLE( '', ( #272 ) );
#192 = EDGE_LOOP( '', ( #273 ) );
#193 = EDGE_LOOP( '', ( #274 ) );
#194 = AXIS2_PLACEMENT_3D( '', #275, #276, #277 );
#195 = SURFACE_SIDE_STYLE( '', ( #278 ) );
#196 = EDGE_LOOP( '', ( #279 ) );
#197 = EDGE_LOOP( '', ( #280 ) );
#198 = AXIS2_PLACEMENT_3D( '', #281, #282, #283 );
#199 = SURFACE_SIDE_STYLE( '', ( #284 ) );
#200 = EDGE_LOOP( '', ( #285 ) );
#201 = EDGE_LOOP( '', ( #286 ) );
#202 = AXIS2_PLACEMENT_3D( '', #287, #288, #289 );
#203 = SURFACE_SIDE_STYLE( '', ( #290 ) );
#204 = EDGE_LOOP( '', ( #291 ) );
#205 = EDGE_LOOP( '', ( #292 ) );
#206 = AXIS2_PLACEMENT_3D( '', #293, #294, #295 );
#207 = SURFACE_SIDE_STYLE( '', ( #296 ) );
#208 = EDGE_LOOP( '', ( #297 ) );
#209 = EDGE_LOOP( '', ( #298 ) );
#210 = AXIS2_PLACEMENT_3D( '', #299, #300, #301 );
#211 = SURFACE_SIDE_STYLE( '', ( #302 ) );
#212 = EDGE_LOOP( '', ( #303 ) );
#213 = VERTEX_LOOP( '', #304 );
#214 = AXIS2_PLACEMENT_3D( '', #305, #306, #307 );
#215 = SURFACE_SIDE_STYLE( '', ( #308 ) );
#216 = EDGE_LOOP( '', ( #309 ) );
#217 = EDGE_LOOP( '', ( #310 ) );
#218 = AXIS2_PLACEMENT_3D( '', #311, #312, #313 );
#219 = SURFACE_SIDE_STYLE( '', ( #314 ) );
#220 = EDGE_LOOP( '', ( #315 ) );
#221 = EDGE_LOOP( '', ( #316 ) );
#222 = AXIS2_PLACEMENT_3D( '', #317, #318, #319 );
#223 = SURFACE_SIDE_STYLE( '', ( #320 ) );
#224 = EDGE_LOOP( '', ( #321 ) );
#225 = EDGE_LOOP( '', ( #322 ) );
#226 = AXIS2_PLACEMENT_3D( '', #323, #324, #325 );
#227 = SURFACE_SIDE_STYLE( '', ( #326 ) );
#228 = EDGE_LOOP( '', ( #327 ) );
#229 = EDGE_LOOP( '', ( #328 ) );
#230 = AXIS2_PLACEMENT_3D( '', #329, #330, #331 );
#231 = SURFACE_SIDE_STYLE( '', ( #332 ) );
#232 = EDGE_LOOP( '', ( #333 ) );
#233 = AXIS2_PLACEMENT_3D( '', #334, #335, #336 );
#235 = SURFACE_STYLE_FILL_AREA( #337 );
#236 = VERTEX_POINT( '', #338 );
#237 = ORIENTED_EDGE( '', *, *, #339, .F. );
#238 = ORIENTED_EDGE( '', *, *, #340, .T. );
#239 = CARTESIAN_POINT( '', ( 0.000000000000000, 7.00000000000000, 0.000000000000000 ) );
#240 = DIRECTION( '', ( 0.000000000000000, -1.00000000000000, -0.000000000000000 ) );
#241 = DIRECTION( '', ( 0.000000000000000, 0.000000000000000, -1.00000000000000 ) );
#242 = SURFACE_STYLE_FILL_AREA( #341 );
#243 = ORIENTED_EDGE( '', *, *, #342, .F. );
#244 = ORIENTED_EDGE( '', *, *, #343, .T. );
#245 = CARTESIAN_POINT( '', ( 0.000000000000000, 8.00000000000000, 0.000000000000000 ) );
#246 = DIRECTION( '', ( -0.000000000000000, 1.00000000000000, 0.000000000000000 ) );
#247 = DIRECTION( '', ( 0.000000000000000, -0.000000000000000, 1.00000000000000 ) );
#248 = SURFACE_STYLE_FILL_AREA( #344 );
#249 = ORIENTED_EDGE( '', *, *, #345, .F. );
#250 = ORIENTED_EDGE( '', *, *, #346, .T. );
#251 = CARTESIAN_POINT( '', ( 0.000000000000000, 0.599999999999999, 0.000000000000000 ) );
#252 = DIRECTION( '', ( -0.000000000000000, 1.00000000000000, 0.000000000000000 ) );
#253 = DIRECTION( '', ( 0.000000000000000, -0.000000000000000, 1.00000000000000 ) );
#254 = SURFACE_STYLE_FILL_AREA( #347 );
#255 = ORIENTED_EDGE( '', *, *, #348, .F. );
#256 = ORIENTED_EDGE( '', *, *, #342, .T. );
#257 = CARTESIAN_POINT( '', ( 4.05000000000000, 9.00000000000000, 0.000000000000000 ) );
#258 = DIRECTION( '', ( 0.000000000000000, -1.00000000000000, -0.000000000000000 ) );
#259 = DIRECTION( '', ( 0.000000000000000, 0.000000000000000, -1.00000000000000 ) );
#260 = SURFACE_STYLE_FILL_AREA( #349 );
#261 = ORIENTED_EDGE( '', *, *, #350, .F. );
#262 = ORIENTED_EDGE( '', *, *, #345, .T. );
#263 = CARTESIAN_POINT( '', ( 7.40000000000000, 0.000000000000000, 0.000000000000000 ) );
#264 = DIRECTION( '', ( 0.000000000000000, 1.00000000000000, 0.000000000000000 ) );
#265 = DIRECTION( '', ( 0.000000000000000, -0.000000000000000, 1.00000000000000 ) );
#266 = SURFACE_STYLE_FILL_AREA( #351 );
#267 = ORIENTED_EDGE( '', *, *, #343, .F. );
#268 = ORIENTED_EDGE( '', *, *, #352, .T. );
#269 = CARTESIAN_POINT( '', ( 0.000000000000000, 0.000000000000000, 0.000000000000000 ) );
#270 = DIRECTION( '', ( -0.000000000000000, 1.00000000000000, 0.000000000000000 ) );
#271 = DIRECTION( '', ( 0.000000000000000, 0.000000000000000, -1.00000000000000 ) );
#272 = SURFACE_STYLE_FILL_AREA( #353 );
#273 = ORIENTED_EDGE( '', *, *, #352, .F. );
#274 = ORIENTED_EDGE( '', *, *, #339, .T. );
#275 = CARTESIAN_POINT( '', ( 3.35000000000000, 7.50000000000000, 0.000000000000000 ) );
#276 = DIRECTION( '', ( 0.000000000000000, 1.00000000000000, 0.000000000000000 ) );
#277 = DIRECTION( '', ( 0.000000000000000, -0.000000000000000, 1.00000000000000 ) );
#278 = SURFACE_STYLE_FILL_AREA( #354 );
#279 = ORIENTED_EDGE( '', *, *, #350, .T. );
#280 = ORIENTED_EDGE( '', *, *, #355, .F. );
#281 = CARTESIAN_POINT( '', ( 0.000000000000000, 0.000000000000000, 0.000000000000000 ) );
#282 = DIRECTION( '', ( -0.000000000000000, 1.00000000000000, 0.000000000000000 ) );
#283 = DIRECTION( '', ( 0.000000000000000, 0.000000000000000, -1.00000000000000 ) );
#284 = SURFACE_STYLE_FILL_AREA( #356 );
#285 = ORIENTED_EDGE( '', *, *, #346, .F. );
#286 = ORIENTED_EDGE( '', *, *, #357, .T. );
#287 = CARTESIAN_POINT( '', ( 0.000000000000000, 0.000000000000000, 0.000000000000000 ) );
#288 = DIRECTION( '', ( -0.000000000000000, 1.00000000000000, 0.000000000000000 ) );
#289 = DIRECTION( '', ( 0.000000000000000, 0.000000000000000, -1.00000000000000 ) );
#290 = SURFACE_STYLE_FILL_AREA( #358 );
#291 = ORIENTED_EDGE( '', *, *, #357, .F. );
#292 = ORIENTED_EDGE( '', *, *, #359, .T. );
#293 = CARTESIAN_POINT( '', ( 0.000000000000000, 4.00000000000000, 0.000000000000000 ) );
#294 = DIRECTION( '', ( -0.000000000000000, -1.00000000000000, -0.000000000000000 ) );
#295 = DIRECTION( '', ( 0.000000000000000, 0.000000000000000, -1.00000000000000 ) );
#296 = SURFACE_STYLE_FILL_AREA( #360 );
#297 = ORIENTED_EDGE( '', *, *, #361, .F. );
#298 = ORIENTED_EDGE( '', *, *, #362, .T. );
#299 = CARTESIAN_POINT( '', ( 0.000000000000000, 0.000000000000000, 0.000000000000000 ) );
#300 = DIRECTION( '', ( -0.000000000000000, 1.00000000000000, 0.000000000000000 ) );
#301 = DIRECTION( '', ( 0.000000000000000, 0.000000000000000, -1.00000000000000 ) );
#302 = SURFACE_STYLE_FILL_AREA( #363 );
#303 = ORIENTED_EDGE( '', *, *, #364, .F. );
#304 = VERTEX_POINT( '', #365 );
#305 = CARTESIAN_POINT( '', ( 0.000000000000000, 517.205450022020, 0.000000000000000 ) );
#306 = DIRECTION( '', ( -0.000000000000000, 1.00000000000000, 0.000000000000000 ) );
#307 = DIRECTION( '', ( 0.000000000000000, -0.000000000000000, 1.00000000000000 ) );
#308 = SURFACE_STYLE_FILL_AREA( #366 );
#309 = ORIENTED_EDGE( '', *, *, #367, .F. );
#310 = ORIENTED_EDGE( '', *, *, #364, .T. );
#311 = CARTESIAN_POINT( '', ( 0.000000000000000, 0.000000000000000, 0.000000000000000 ) );
#312 = DIRECTION( '', ( -0.000000000000000, 1.00000000000000, 0.000000000000000 ) );
#313 = DIRECTION( '', ( 0.000000000000000, 0.000000000000000, -1.00000000000000 ) );
#314 = SURFACE_STYLE_FILL_AREA( #368 );
#315 = ORIENTED_EDGE( '', *, *, #340, .F. );
#316 = ORIENTED_EDGE( '', *, *, #367, .T. );
#317 = CARTESIAN_POINT( '', ( 3.05000000000000, 6.50000000000000, 0.000000000000000 ) );
#318 = DIRECTION( '', ( 0.000000000000000, -1.00000000000000, -0.000000000000000 ) );
#319 = DIRECTION( '', ( 0.000000000000000, 0.000000000000000, -1.00000000000000 ) );
#320 = SURFACE_STYLE_FILL_AREA( #369 );
#321 = ORIENTED_EDGE( '', *, *, #362, .F. );
#322 = ORIENTED_EDGE( '', *, *, #348, .T. );
#323 = CARTESIAN_POINT( '', ( 0.000000000000000, 9.00000000000000, 0.000000000000000 ) );
#324 = DIRECTION( '', ( -0.000000000000000, -1.00000000000000, -0.000000000000000 ) );
#325 = DIRECTION( '', ( 0.000000000000000, 0.000000000000000, -1.00000000000000 ) );
#326 = SURFACE_STYLE_FILL_AREA( #370 );
#327 = ORIENTED_EDGE( '', *, *, #359, .F. );
#328 = ORIENTED_EDGE( '', *, *, #361, .T. );
#329 = CARTESIAN_POINT( '', ( 0.000000000000000, 5.90787840283389, 0.000000000000000 ) );
#330 = DIRECTION( '', ( 0.000000000000000, -1.00000000000000, -0.000000000000000 ) );
#331 = DIRECTION( '', ( 0.000000000000000, 0.000000000000000, -1.00000000000000 ) );
#332 = SURFACE_STYLE_FILL_AREA( #371 );
#333 = ORIENTED_EDGE( '', *, *, #355, .T. );
#334 = CARTESIAN_POINT( '', ( 0.000000000000000, 0.500000000000000, 0.000000000000000 ) );
#335 = DIRECTION( '', ( 0.000000000000000, -1.00000000000000, -0.000000000000000 ) );
#336 = DIRECTION( '', ( 0.000000000000000, 0.000000000000000, -1.00000000000000 ) );
#337 = FILL_AREA_STYLE( '', ( #372 ) );
#338 = CARTESIAN_POINT( '', ( 0.000000000000000, 7.00000000000000, -3.85000000000000 ) );
#339 = EDGE_CURVE( '', #373, #373, #374, .T. );
#340 = EDGE_CURVE( '', #375, #375, #376, .T. );
#341 = FILL_AREA_STYLE( '', ( #377 ) );
#342 = EDGE_CURVE( '', #378, #378, #379, .T. );
#343 = EDGE_CURVE( '', #380, #380, #381, .T. );
#344 = FILL_AREA_STYLE( '', ( #382 ) );
#345 = EDGE_CURVE( '', #383, #383, #384, .T. );
#346 = EDGE_CURVE( '', #385, #385, #386, .T. );
#347 = FILL_AREA_STYLE( '', ( #387 ) );
#348 = EDGE_CURVE( '', #388, #388, #389, .T. );
#349 = FILL_AREA_STYLE( '', ( #390 ) );
#350 = EDGE_CURVE( '', #391, #391, #392, .T. );
#351 = FILL_AREA_STYLE( '', ( #393 ) );
#352 = EDGE_CURVE( '', #394, #394, #395, .T. );
#353 = FILL_AREA_STYLE( '', ( #396 ) );
#354 = FILL_AREA_STYLE( '', ( #397 ) );
#355 = EDGE_CURVE( '', #398, #398, #399, .T. );
#356 = FILL_AREA_STYLE( '', ( #400 ) );
#357 = EDGE_CURVE( '', #401, #401, #402, .T. );
#358 = FILL_AREA_STYLE( '', ( #403 ) );
#359 = EDGE_CURVE( '', #404, #404, #405, .T. );
#360 = FILL_AREA_STYLE( '', ( #406 ) );
#361 = EDGE_CURVE( '', #407, #407, #408, .T. );
#362 = EDGE_CURVE( '', #409, #409, #410, .T. );
#363 = FILL_AREA_STYLE( '', ( #411 ) );
#364 = EDGE_CURVE( '', #412, #412, #413, .T. );
#365 = CARTESIAN_POINT( '', ( 0.000000000000000, 2.16737511196594, 0.000000000000000 ) );
#366 = FILL_AREA_STYLE( '', ( #414 ) );
#367 = EDGE_CURVE( '', #415, #415, #416, .T. );
#368 = FILL_AREA_STYLE( '', ( #417 ) );
#369 = FILL_AREA_STYLE( '', ( #418 ) );
#370 = FILL_AREA_STYLE( '', ( #419 ) );
#371 = FILL_AREA_STYLE( '', ( #420 ) );
#372 = FILL_AREA_STYLE_COLOUR( '', #421 );
#373 = VERTEX_POINT( '', #422 );
#374 = CIRCLE( '', #423, 3.35000000000000 );
#375 = VERTEX_POINT( '', #424 );
#376 = CIRCLE( '', #425, 3.35000000000000 );
#377 = FILL_AREA_STYLE_COLOUR( '', #426 );
#378 = VERTEX_POINT( '', #427 );
#379 = CIRCLE( '', #428, 4.05000000000000 );
#380 = VERTEX_POINT( '', #429 );
#381 = CIRCLE( '', #430, 3.05000000000000 );
#382 = FILL_AREA_STYLE_COLOUR( '', #431 );
#383 = VERTEX_POINT( '', #432 );
#384 = CIRCLE( '', #433, 7.40000000000000 );
#385 = VERTEX_POINT( '', #434 );
#386 = CIRCLE( '', #435, 8.00000000000000 );
#387 = FILL_AREA_STYLE_COLOUR( '', #436 );
#388 = VERTEX_POINT( '', #437 );
#389 = CIRCLE( '', #438, 5.40000000000000 );
#390 = FILL_AREA_STYLE_COLOUR( '', #439 );
#391 = VERTEX_POINT( '', #440 );
#392 = CIRCLE( '', #441, 3.50000000000000 );
#393 = FILL_AREA_STYLE_COLOUR( '', #442 );
#394 = VERTEX_POINT( '', #443 );
#395 = CIRCLE( '', #444, 3.05000000000000 );
#396 = FILL_AREA_STYLE_COLOUR( '', #445 );
#397 = FILL_AREA_STYLE_COLOUR( '', #446 );
#398 = VERTEX_POINT( '', #447 );
#399 = CIRCLE( '', #448, 3.50000000000000 );
#400 = FILL_AREA_STYLE_COLOUR( '', #449 );
#401 = VERTEX_POINT( '', #450 );
#402 = CIRCLE( '', #451, 8.00000000000000 );
#403 = FILL_AREA_STYLE_COLOUR( '', #452 );
#404 = VERTEX_POINT( '', #453 );
#405 = CIRCLE( '', #454, 7.40000000000000 );
#406 = FILL_AREA_STYLE_COLOUR( '', #455 );
#407 = VERTEX_POINT( '', #456 );
#408 = CIRCLE( '', #457, 6.00000000000000 );
#409 = VERTEX_POINT( '', #458 );
#410 = CIRCLE( '', #459, 6.00000000000000 );
#411 = FILL_AREA_STYLE_COLOUR( '', #460 );
#412 = VERTEX_POINT( '', #461 );
#413 = CIRCLE( '', #462, 3.05000000000000 );
#414 = FILL_AREA_STYLE_COLOUR( '', #463 );
#415 = VERTEX_POINT( '', #464 );
#416 = CIRCLE( '', #465, 3.05000000000000 );
#417 = FILL_AREA_STYLE_COLOUR( '', #466 );
#418 = FILL_AREA_STYLE_COLOUR( '', #467 );
#419 = FILL_AREA_STYLE_COLOUR( '', #468 );
#420 = FILL_AREA_STYLE_COLOUR( '', #469 );
#421 = COLOUR_RGB( '', 0.689999997600000, 0.689999997600000, 0.689999997600000 );
#422 = CARTESIAN_POINT( '', ( 0.000000000000000, 7.50000000000000, -3.35000000000000 ) );
#423 = AXIS2_PLACEMENT_3D( '', #470, #471, #472 );
#424 = CARTESIAN_POINT( '', ( 0.000000000000000, 6.50000000000000, -3.35000000000000 ) );
#425 = AXIS2_PLACEMENT_3D( '', #473, #474, #475 );
#426 = COLOUR_RGB( '', 0.689999997600000, 0.689999997600000, 0.689999997600000 );
#427 = CARTESIAN_POINT( '', ( 0.000000000000000, 9.00000000000000, -4.05000000000000 ) );
#428 = AXIS2_PLACEMENT_3D( '', #476, #477, #478 );
#429 = CARTESIAN_POINT( '', ( 0.000000000000000, 8.00000000000000, -3.05000000000000 ) );
#430 = AXIS2_PLACEMENT_3D( '', #479, #480, #481 );
#431 = COLOUR_RGB( '', 0.689999997600000, 0.689999997600000, 0.689999997600000 );
#432 = CARTESIAN_POINT( '', ( 0.000000000000000, 0.000000000000000, -7.40000000000000 ) );
#433 = AXIS2_PLACEMENT_3D( '', #482, #483, #484 );
#434 = CARTESIAN_POINT( '', ( 0.000000000000000, 0.599999999999999, -8.00000000000000 ) );
#435 = AXIS2_PLACEMENT_3D( '', #485, #486, #487 );
#436 = COLOUR_RGB( '', 0.689999997600000, 0.689999997600000, 0.689999997600000 );
#437 = CARTESIAN_POINT( '', ( 0.000000000000000, 9.00000000000000, -5.40000000000000 ) );
#438 = AXIS2_PLACEMENT_3D( '', #488, #489, #490 );
#439 = COLOUR_RGB( '', 0.689999997600000, 0.689999997600000, 0.689999997600000 );
#440 = CARTESIAN_POINT( '', ( 0.000000000000000, 0.000000000000000, -3.50000000000000 ) );
#441 = AXIS2_PLACEMENT_3D( '', #491, #492, #493 );
#442 = COLOUR_RGB( '', 0.689999997600000, 0.689999997600000, 0.689999997600000 );
#443 = CARTESIAN_POINT( '', ( 0.000000000000000, 7.50000000000000, -3.05000000000000 ) );
#444 = AXIS2_PLACEMENT_3D( '', #494, #495, #496 );
#445 = COLOUR_RGB( '', 0.689999997600000, 0.689999997600000, 0.689999997600000 );
#446 = COLOUR_RGB( '', 0.689999997600000, 0.689999997600000, 0.689999997600000 );
#447 = CARTESIAN_POINT( '', ( 0.000000000000000, 0.500000000000000, -3.50000000000000 ) );
#448 = AXIS2_PLACEMENT_3D( '', #497, #498, #499 );
#449 = COLOUR_RGB( '', 0.689999997600000, 0.689999997600000, 0.689999997600000 );
#450 = CARTESIAN_POINT( '', ( 0.000000000000000, 3.40000000000000, -8.00000000000000 ) );
#451 = AXIS2_PLACEMENT_3D( '', #500, #501, #502 );
#452 = COLOUR_RGB( '', 0.689999997600000, 0.689999997600000, 0.689999997600000 );
#453 = CARTESIAN_POINT( '', ( 0.000000000000000, 4.00000000000000, -7.40000000000000 ) );
#454 = AXIS2_PLACEMENT_3D( '', #503, #504, #505 );
#455 = COLOUR_RGB( '', 0.689999997600000, 0.689999997600000, 0.689999997600000 );
#456 = CARTESIAN_POINT( '', ( 0.000000000000000, 5.90787840283389, -6.00000000000000 ) );
#457 = AXIS2_PLACEMENT_3D( '', #506, #507, #508 );
#458 = CARTESIAN_POINT( '', ( 0.000000000000000, 8.40000000000000, -6.00000000000000 ) );
#459 = AXIS2_PLACEMENT_3D( '', #509, #510, #511 );
#460 = COLOUR_RGB( '', 0.689999997600000, 0.689999997600000, 0.689999997600000 );
#461 = CARTESIAN_POINT( '', ( 0.000000000000000, 4.00000000000000, -3.05000000000000 ) );
#462 = AXIS2_PLACEMENT_3D( '', #512, #513, #514 );
#463 = COLOUR_RGB( '', 0.689999997600000, 0.689999997600000, 0.689999997600000 );
#464 = CARTESIAN_POINT( '', ( 0.000000000000000, 6.50000000000000, -3.05000000000000 ) );
#465 = AXIS2_PLACEMENT_3D( '', #515, #516, #517 );
#466 = COLOUR_RGB( '', 0.689999997600000, 0.689999997600000, 0.689999997600000 );
#467 = COLOUR_RGB( '', 0.689999997600000, 0.689999997600000, 0.689999997600000 );
#468 = COLOUR_RGB( '', 0.689999997600000, 0.689999997600000, 0.689999997600000 );
#469 = COLOUR_RGB( '', 0.689999997600000, 0.689999997600000, 0.689999997600000 );
#470 = CARTESIAN_POINT( '', ( 0.000000000000000, 7.50000000000000, 0.000000000000000 ) );
#471 = DIRECTION( '', ( 0.000000000000000, -1.00000000000000, -0.000000000000000 ) );
#472 = DIRECTION( '', ( 0.000000000000000, 0.000000000000000, -1.00000000000000 ) );
#473 = CARTESIAN_POINT( '', ( 0.000000000000000, 6.50000000000000, 0.000000000000000 ) );
#474 = DIRECTION( '', ( 0.000000000000000, -1.00000000000000, -0.000000000000000 ) );
#475 = DIRECTION( '', ( 0.000000000000000, 0.000000000000000, -1.00000000000000 ) );
#476 = CARTESIAN_POINT( '', ( 0.000000000000000, 9.00000000000000, 0.000000000000000 ) );
#477 = DIRECTION( '', ( 0.000000000000000, -1.00000000000000, -0.000000000000000 ) );
#478 = DIRECTION( '', ( 0.000000000000000, 0.000000000000000, -1.00000000000000 ) );
#479 = CARTESIAN_POINT( '', ( 0.000000000000000, 8.00000000000000, 0.000000000000000 ) );
#480 = DIRECTION( '', ( 0.000000000000000, -1.00000000000000, -0.000000000000000 ) );
#481 = DIRECTION( '', ( 0.000000000000000, 0.000000000000000, -1.00000000000000 ) );
#482 = CARTESIAN_POINT( '', ( 0.000000000000000, 0.000000000000000, 0.000000000000000 ) );
#483 = DIRECTION( '', ( 0.000000000000000, -1.00000000000000, -0.000000000000000 ) );
#484 = DIRECTION( '', ( 0.000000000000000, 0.000000000000000, -1.00000000000000 ) );
#485 = CARTESIAN_POINT( '', ( 0.000000000000000, 0.599999999999999, 0.000000000000000 ) );
#486 = DIRECTION( '', ( 0.000000000000000, -1.00000000000000, -0.000000000000000 ) );
#487 = DIRECTION( '', ( 0.000000000000000, 0.000000000000000, -1.00000000000000 ) );
#488 = CARTESIAN_POINT( '', ( 0.000000000000000, 9.00000000000000, 0.000000000000000 ) );
#489 = DIRECTION( '', ( 0.000000000000000, -1.00000000000000, -0.000000000000000 ) );
#490 = DIRECTION( '', ( 0.000000000000000, 0.000000000000000, -1.00000000000000 ) );
#491 = CARTESIAN_POINT( '', ( 0.000000000000000, 0.000000000000000, 0.000000000000000 ) );
#492 = DIRECTION( '', ( 0.000000000000000, -1.00000000000000, -0.000000000000000 ) );
#493 = DIRECTION( '', ( 0.000000000000000, 0.000000000000000, -1.00000000000000 ) );
#494 = CARTESIAN_POINT( '', ( 0.000000000000000, 7.50000000000000, 0.000000000000000 ) );
#495 = DIRECTION( '', ( 0.000000000000000, -1.00000000000000, -0.000000000000000 ) );
#496 = DIRECTION( '', ( 0.000000000000000, 0.000000000000000, -1.00000000000000 ) );
#497 = CARTESIAN_POINT( '', ( 0.000000000000000, 0.500000000000000, 0.000000000000000 ) );
#498 = DIRECTION( '', ( 0.000000000000000, -1.00000000000000, -0.000000000000000 ) );
#499 = DIRECTION( '', ( 0.000000000000000, 0.000000000000000, -1.00000000000000 ) );
#500 = CARTESIAN_POINT( '', ( 0.000000000000000, 3.40000000000000, 0.000000000000000 ) );
#501 = DIRECTION( '', ( 0.000000000000000, -1.00000000000000, -0.000000000000000 ) );
#502 = DIRECTION( '', ( 0.000000000000000, 0.000000000000000, -1.00000000000000 ) );
#503 = CARTESIAN_POINT( '', ( 0.000000000000000, 4.00000000000000, 0.000000000000000 ) );
#504 = DIRECTION( '', ( 0.000000000000000, -1.00000000000000, -0.000000000000000 ) );
#505 = DIRECTION( '', ( 0.000000000000000, 0.000000000000000, -1.00000000000000 ) );
#506 = CARTESIAN_POINT( '', ( 0.000000000000000, 5.90787840283389, 0.000000000000000 ) );
#507 = DIRECTION( '', ( 0.000000000000000, -1.00000000000000, -0.000000000000000 ) );
#508 = DIRECTION( '', ( 0.000000000000000, 0.000000000000000, -1.00000000000000 ) );
#509 = CARTESIAN_POINT( '', ( 0.000000000000000, 8.40000000000000, 0.000000000000000 ) );
#510 = DIRECTION( '', ( 0.000000000000000, -1.00000000000000, -0.000000000000000 ) );
#511 = DIRECTION( '', ( 0.000000000000000, 0.000000000000000, -1.00000000000000 ) );
#512 = CARTESIAN_POINT( '', ( 0.000000000000000, 4.00000000000000, 0.000000000000000 ) );
#513 = DIRECTION( '', ( 0.000000000000000, -1.00000000000000, -0.000000000000000 ) );
#514 = DIRECTION( '', ( 0.000000000000000, 0.000000000000000, -1.00000000000000 ) );
#515 = CARTESIAN_POINT( '', ( 0.000000000000000, 6.50000000000000, 0.000000000000000 ) );
#516 = DIRECTION( '', ( 0.000000000000000, -1.00000000000000, -0.000000000000000 ) );
#517 = DIRECTION( '', ( 0.000000000000000, 0.000000000000000, -1.00000000000000 ) );
ENDSEC;
END-ISO-10303-21;
