ISO-10303-21;
HEADER;
FILE_DESCRIPTION( ( 'STEP AP214' ), '1' );
FILE_NAME( '//goodhand-server/Shared Folders/GoodHand Data/Kipp CAD/K0575/K0575.05001855.stp', '2020-12-09T08:49:55', ( '' ), ( '' ), ' ', 'PARTsolutions', ' ' );
FILE_SCHEMA( ( 'AUTOMOTIVE_DESIGN { 1 0 10303 214 1 1 1 1 }' ) );
ENDSEC;
DATA;
#1 = MECHANICAL_DESIGN_GEOMETRIC_PRESENTATION_REPRESENTATION( ' ', ( #10, #11, #12, #13, #14, #15, #16 ), #6 );
#2 = PRODUCT_DEFINITION_CONTEXT( '', #17, 'design' );
#3 = APPLICATION_PROTOCOL_DEFINITION( 'international standard', 'automotive_design', 2001, #17 );
#4 = PRODUCT_CATEGORY_RELATIONSHIP( 'NONE', 'NONE', #18, #19 );
#5 = SHAPE_DEFINITION_REPRESENTATION( #20, #21 );
#6 =  ( GEOMETRIC_REPRESENTATION_CONTEXT( 3 )GLOBAL_UNCERTAINTY_ASSIGNED_CONTEXT( ( #24 ) )GLOBAL_UNIT_ASSIGNED_CONTEXT( ( #26, #27, #28 ) )REPRESENTATION_CONTEXT( 'NONE', 'WORKSPACE' ) );
#10 = STYLED_ITEM( '', ( #30 ), #31 );
#11 = STYLED_ITEM( '', ( #32 ), #33 );
#12 = STYLED_ITEM( '', ( #34 ), #35 );
#13 = STYLED_ITEM( '', ( #36 ), #37 );
#14 = STYLED_ITEM( '', ( #38 ), #39 );
#15 = STYLED_ITEM( '', ( #40 ), #41 );
#16 = STYLED_ITEM( '', ( #42 ), #43 );
#17 = APPLICATION_CONTEXT( 'core data for automotive mechanical design processes' );
#18 = PRODUCT_CATEGORY( 'part', 'NONE' );
#19 = PRODUCT_RELATED_PRODUCT_CATEGORY( 'detail', ' ', ( #44 ) );
#20 = PRODUCT_DEFINITION_SHAPE( 'NONE', 'NONE', #45 );
#21 = ADVANCED_BREP_SHAPE_REPRESENTATION( '_K0575.05001855', ( #46, #47 ), #6 );
#24 = UNCERTAINTY_MEASURE_WITH_UNIT( LENGTH_MEASURE( 0.00100000000000000 ), #26, '', '' );
#26 =  ( CONVERSION_BASED_UNIT( 'MILLIMETRE', #50 )LENGTH_UNIT(  )NAMED_UNIT( #53 ) );
#27 =  ( NAMED_UNIT( #55 )PLANE_ANGLE_UNIT(  )SI_UNIT( $, .RADIAN. ) );
#28 =  ( NAMED_UNIT( #55 )SI_UNIT( $, .STERADIAN. )SOLID_ANGLE_UNIT(  ) );
#30 = PRESENTATION_STYLE_ASSIGNMENT( ( #61 ) );
#31 = ADVANCED_FACE( '', ( #62, #63 ), #64, .T. );
#32 = PRESENTATION_STYLE_ASSIGNMENT( ( #65 ) );
#33 = ADVANCED_FACE( '', ( #66 ), #67, .F. );
#34 = PRESENTATION_STYLE_ASSIGNMENT( ( #68 ) );
#35 = ADVANCED_FACE( '', ( #69 ), #70, .F. );
#36 = PRESENTATION_STYLE_ASSIGNMENT( ( #71 ) );
#37 = ADVANCED_FACE( '', ( #72, #73 ), #74, .F. );
#38 = PRESENTATION_STYLE_ASSIGNMENT( ( #75 ) );
#39 = ADVANCED_FACE( '', ( #76, #77 ), #78, .T. );
#40 = PRESENTATION_STYLE_ASSIGNMENT( ( #79 ) );
#41 = ADVANCED_FACE( '', ( #80, #81 ), #82, .T. );
#42 = PRESENTATION_STYLE_ASSIGNMENT( ( #83 ) );
#43 = ADVANCED_FACE( '', ( #84, #85 ), #86, .T. );
#44 = PRODUCT( '_K0575.05001855', '_K0575.05001855', 'PART-_K0575.05001855-DESC', ( #87 ) );
#45 = PRODUCT_DEFINITION( 'NONE', 'NONE', #88, #2 );
#46 = MANIFOLD_SOLID_BREP( '_K0575.05001855', #89 );
#47 = AXIS2_PLACEMENT_3D( '', #90, #91, #92 );
#50 = LENGTH_MEASURE_WITH_UNIT( LENGTH_MEASURE( 1.00000000000000 ), #93 );
#53 = DIMENSIONAL_EXPONENTS( 1.00000000000000, 0.000000000000000, 0.000000000000000, 0.000000000000000, 0.000000000000000, 0.000000000000000, 0.000000000000000 );
#55 = DIMENSIONAL_EXPONENTS( 0.000000000000000, 0.000000000000000, 0.000000000000000, 0.000000000000000, 0.000000000000000, 0.000000000000000, 0.000000000000000 );
#61 = SURFACE_STYLE_USAGE( .BOTH., #94 );
#62 = FACE_OUTER_BOUND( '', #95, .T. );
#63 = FACE_OUTER_BOUND( '', #96, .T. );
#64 = CYLINDRICAL_SURFACE( '', #97, 5.00000000000000 );
#65 = SURFACE_STYLE_USAGE( .BOTH., #98 );
#66 = FACE_OUTER_BOUND( '', #99, .T. );
#67 = PLANE( '', #100 );
#68 = SURFACE_STYLE_USAGE( .BOTH., #101 );
#69 = FACE_OUTER_BOUND( '', #102, .T. );
#70 = PLANE( '', #103 );
#71 = SURFACE_STYLE_USAGE( .BOTH., #104 );
#72 = FACE_BOUND( '', #105, .T. );
#73 = FACE_OUTER_BOUND( '', #106, .T. );
#74 = PLANE( '', #107 );
#75 = SURFACE_STYLE_USAGE( .BOTH., #108 );
#76 = FACE_OUTER_BOUND( '', #109, .T. );
#77 = FACE_OUTER_BOUND( '', #110, .T. );
#78 = TOROIDAL_SURFACE( '', #111, 16.1995717521000, 5.00000000000000 );
#79 = SURFACE_STYLE_USAGE( .BOTH., #112 );
#80 = FACE_OUTER_BOUND( '', #113, .T. );
#81 = FACE_BOUND( '', #114, .T. );
#82 = CONICAL_SURFACE( '', #115, 21.0171613003000, 0.270946850300000 );
#83 = SURFACE_STYLE_USAGE( .BOTH., #116 );
#84 = FACE_BOUND( '', #117, .T. );
#85 = FACE_OUTER_BOUND( '', #118, .T. );
#86 = CONICAL_SURFACE( '', #119, 5.00000000000000, 0.785398163400000 );
#87 = PRODUCT_CONTEXT( '', #17, 'mechanical' );
#88 = PRODUCT_DEFINITION_FORMATION_WITH_SPECIFIED_SOURCE( ' ', 'NONE', #44, .NOT_KNOWN. );
#89 = CLOSED_SHELL( '', ( #43, #31, #37, #41, #39, #35, #33 ) );
#90 = CARTESIAN_POINT( '', ( 0.000000000000000, 0.000000000000000, 0.000000000000000 ) );
#91 = DIRECTION( '', ( 0.000000000000000, 0.000000000000000, 1.00000000000000 ) );
#92 = DIRECTION( '', ( 1.00000000000000, 0.000000000000000, 0.000000000000000 ) );
#93 =  ( LENGTH_UNIT(  )NAMED_UNIT( #53 )SI_UNIT( .MILLI., .METRE. ) );
#94 = SURFACE_SIDE_STYLE( '', ( #121 ) );
#95 = EDGE_LOOP( '', ( #122 ) );
#96 = EDGE_LOOP( '', ( #123 ) );
#97 = AXIS2_PLACEMENT_3D( '', #124, #125, #126 );
#98 = SURFACE_SIDE_STYLE( '', ( #127 ) );
#99 = EDGE_LOOP( '', ( #128 ) );
#100 = AXIS2_PLACEMENT_3D( '', #129, #130, #131 );
#101 = SURFACE_SIDE_STYLE( '', ( #132 ) );
#102 = EDGE_LOOP( '', ( #133 ) );
#103 = AXIS2_PLACEMENT_3D( '', #134, #135, #136 );
#104 = SURFACE_SIDE_STYLE( '', ( #137 ) );
#105 = EDGE_LOOP( '', ( #138 ) );
#106 = EDGE_LOOP( '', ( #139 ) );
#107 = AXIS2_PLACEMENT_3D( '', #140, #141, #142 );
#108 = SURFACE_SIDE_STYLE( '', ( #143 ) );
#109 = EDGE_LOOP( '', ( #144 ) );
#110 = EDGE_LOOP( '', ( #145 ) );
#111 = AXIS2_PLACEMENT_3D( '', #146, #147, #148 );
#112 = SURFACE_SIDE_STYLE( '', ( #149 ) );
#113 = EDGE_LOOP( '', ( #150 ) );
#114 = EDGE_LOOP( '', ( #151 ) );
#115 = AXIS2_PLACEMENT_3D( '', #152, #153, #154 );
#116 = SURFACE_SIDE_STYLE( '', ( #155 ) );
#117 = EDGE_LOOP( '', ( #156 ) );
#118 = EDGE_LOOP( '', ( #157 ) );
#119 = AXIS2_PLACEMENT_3D( '', #158, #159, #160 );
#121 = SURFACE_STYLE_FILL_AREA( #161 );
#122 = ORIENTED_EDGE( '', *, *, #162, .F. );
#123 = ORIENTED_EDGE( '', *, *, #163, .T. );
#124 = CARTESIAN_POINT( '', ( 0.000000000000000, 0.000000000000000, 0.000000000000000 ) );
#125 = DIRECTION( '', ( -0.000000000000000, 1.00000000000000, 0.000000000000000 ) );
#126 = DIRECTION( '', ( 0.000000000000000, 0.000000000000000, -1.00000000000000 ) );
#127 = SURFACE_STYLE_FILL_AREA( #164 );
#128 = ORIENTED_EDGE( '', *, *, #165, .T. );
#129 = CARTESIAN_POINT( '', ( 4.08000000000000, -28.0000000000000, 0.000000000000000 ) );
#130 = DIRECTION( '', ( 0.000000000000000, 1.00000000000000, 0.000000000000000 ) );
#131 = DIRECTION( '', ( 0.000000000000000, -0.000000000000000, 1.00000000000000 ) );
#132 = SURFACE_STYLE_FILL_AREA( #166 );
#133 = ORIENTED_EDGE( '', *, *, #167, .F. );
#134 = CARTESIAN_POINT( '', ( 0.000000000000000, 18.0000000000000, 0.000000000000000 ) );
#135 = DIRECTION( '', ( 0.000000000000000, -1.00000000000000, -0.000000000000000 ) );
#136 = DIRECTION( '', ( 0.000000000000000, 0.000000000000000, -1.00000000000000 ) );
#137 = SURFACE_STYLE_FILL_AREA( #168 );
#138 = ORIENTED_EDGE( '', *, *, #163, .F. );
#139 = ORIENTED_EDGE( '', *, *, #169, .T. );
#140 = CARTESIAN_POINT( '', ( 25.0000000000000, -8.67361737988404E-16, 0.000000000000000 ) );
#141 = DIRECTION( '', ( 0.000000000000000, 1.00000000000000, 0.000000000000000 ) );
#142 = DIRECTION( '', ( 0.000000000000000, -0.000000000000000, 1.00000000000000 ) );
#143 = SURFACE_STYLE_FILL_AREA( #170 );
#144 = ORIENTED_EDGE( '', *, *, #167, .T. );
#145 = ORIENTED_EDGE( '', *, *, #171, .F. );
#146 = CARTESIAN_POINT( '', ( 0.000000000000000, 13.0000000000000, 0.000000000000000 ) );
#147 = DIRECTION( '', ( 0.000000000000000, -1.00000000000000, -0.000000000000000 ) );
#148 = DIRECTION( '', ( 0.000000000000000, 0.000000000000000, -1.00000000000000 ) );
#149 = SURFACE_STYLE_FILL_AREA( #172 );
#150 = ORIENTED_EDGE( '', *, *, #169, .F. );
#151 = ORIENTED_EDGE( '', *, *, #171, .T. );
#152 = CARTESIAN_POINT( '', ( 0.000000000000000, 14.3382193189305, 0.000000000000000 ) );
#153 = DIRECTION( '', ( -0.000000000000000, -1.00000000000000, -0.000000000000000 ) );
#154 = DIRECTION( '', ( 0.000000000000000, 0.000000000000000, -1.00000000000000 ) );
#155 = SURFACE_STYLE_FILL_AREA( #173 );
#156 = ORIENTED_EDGE( '', *, *, #165, .F. );
#157 = ORIENTED_EDGE( '', *, *, #162, .T. );
#158 = CARTESIAN_POINT( '', ( 0.000000000000000, -27.0800000000000, 0.000000000000000 ) );
#159 = DIRECTION( '', ( -0.000000000000000, 1.00000000000000, 0.000000000000000 ) );
#160 = DIRECTION( '', ( 0.000000000000000, -0.000000000000000, 1.00000000000000 ) );
#161 = FILL_AREA_STYLE( '', ( #174 ) );
#162 = EDGE_CURVE( '', #175, #175, #176, .T. );
#163 = EDGE_CURVE( '', #177, #177, #178, .T. );
#164 = FILL_AREA_STYLE( '', ( #179 ) );
#165 = EDGE_CURVE( '', #180, #180, #181, .T. );
#166 = FILL_AREA_STYLE( '', ( #182 ) );
#167 = EDGE_CURVE( '', #183, #183, #184, .T. );
#168 = FILL_AREA_STYLE( '', ( #185 ) );
#169 = EDGE_CURVE( '', #186, #186, #187, .T. );
#170 = FILL_AREA_STYLE( '', ( #188 ) );
#171 = EDGE_CURVE( '', #189, #189, #190, .T. );
#172 = FILL_AREA_STYLE( '', ( #191 ) );
#173 = FILL_AREA_STYLE( '', ( #192 ) );
#174 = FILL_AREA_STYLE_COLOUR( '', #193 );
#175 = VERTEX_POINT( '', #194 );
#176 = CIRCLE( '', #195, 5.00000000000000 );
#177 = VERTEX_POINT( '', #196 );
#178 = CIRCLE( '', #197, 5.00000000000000 );
#179 = FILL_AREA_STYLE_COLOUR( '', #198 );
#180 = VERTEX_POINT( '', #199 );
#181 = CIRCLE( '', #200, 4.08000000000000 );
#182 = FILL_AREA_STYLE_COLOUR( '', #201 );
#183 = VERTEX_POINT( '', #202 );
#184 = CIRCLE( '', #203, 16.1995717521000 );
#185 = FILL_AREA_STYLE_COLOUR( '', #204 );
#186 = VERTEX_POINT( '', #205 );
#187 = CIRCLE( '', #206, 25.0000000000000 );
#188 = FILL_AREA_STYLE_COLOUR( '', #207 );
#189 = VERTEX_POINT( '', #208 );
#190 = CIRCLE( '', #209, 21.0171613003000 );
#191 = FILL_AREA_STYLE_COLOUR( '', #210 );
#192 = FILL_AREA_STYLE_COLOUR( '', #211 );
#193 = COLOUR_RGB( '', 0.689999997600000, 0.689999997600000, 0.689999997600000 );
#194 = CARTESIAN_POINT( '', ( 0.000000000000000, -27.0800000000000, -5.00000000000000 ) );
#195 = AXIS2_PLACEMENT_3D( '', #212, #213, #214 );
#196 = CARTESIAN_POINT( '', ( 0.000000000000000, 0.000000000000000, -5.00000000000000 ) );
#197 = AXIS2_PLACEMENT_3D( '', #215, #216, #217 );
#198 = COLOUR_RGB( '', 0.689999997600000, 0.689999997600000, 0.689999997600000 );
#199 = CARTESIAN_POINT( '', ( 0.000000000000000, -28.0000000000000, -4.08000000000000 ) );
#200 = AXIS2_PLACEMENT_3D( '', #218, #219, #220 );
#201 = COLOUR_RGB( '', 0.689999997600000, 0.689999997600000, 0.689999997600000 );
#202 = CARTESIAN_POINT( '', ( 0.000000000000000, 18.0000000000000, -16.1995717521474 ) );
#203 = AXIS2_PLACEMENT_3D( '', #221, #222, #223 );
#204 = COLOUR_RGB( '', 0.689999997600000, 0.689999997600000, 0.689999997600000 );
#205 = CARTESIAN_POINT( '', ( 0.000000000000000, -1.73472347597681E-15, -25.0000000000000 ) );
#206 = AXIS2_PLACEMENT_3D( '', #224, #225, #226 );
#207 = COLOUR_RGB( '', 0.689999997600000, 0.689999997600000, 0.689999997600000 );
#208 = CARTESIAN_POINT( '', ( 0.000000000000000, 14.3382193189305, -21.0171613002971 ) );
#209 = AXIS2_PLACEMENT_3D( '', #227, #228, #229 );
#210 = COLOUR_RGB( '', 0.689999997600000, 0.689999997600000, 0.689999997600000 );
#211 = COLOUR_RGB( '', 0.689999997600000, 0.689999997600000, 0.689999997600000 );
#212 = CARTESIAN_POINT( '', ( 0.000000000000000, -27.0800000000000, 0.000000000000000 ) );
#213 = DIRECTION( '', ( 0.000000000000000, -1.00000000000000, -0.000000000000000 ) );
#214 = DIRECTION( '', ( 0.000000000000000, 0.000000000000000, -1.00000000000000 ) );
#215 = CARTESIAN_POINT( '', ( 0.000000000000000, 0.000000000000000, 0.000000000000000 ) );
#216 = DIRECTION( '', ( 0.000000000000000, -1.00000000000000, -0.000000000000000 ) );
#217 = DIRECTION( '', ( 0.000000000000000, 0.000000000000000, -1.00000000000000 ) );
#218 = CARTESIAN_POINT( '', ( 0.000000000000000, -28.0000000000000, 0.000000000000000 ) );
#219 = DIRECTION( '', ( 0.000000000000000, -1.00000000000000, -0.000000000000000 ) );
#220 = DIRECTION( '', ( 0.000000000000000, 0.000000000000000, -1.00000000000000 ) );
#221 = CARTESIAN_POINT( '', ( 0.000000000000000, 18.0000000000000, 0.000000000000000 ) );
#222 = DIRECTION( '', ( 0.000000000000000, -1.00000000000000, -0.000000000000000 ) );
#223 = DIRECTION( '', ( 0.000000000000000, 0.000000000000000, -1.00000000000000 ) );
#224 = CARTESIAN_POINT( '', ( 0.000000000000000, -1.73472347597681E-15, 0.000000000000000 ) );
#225 = DIRECTION( '', ( 0.000000000000000, -1.00000000000000, -0.000000000000000 ) );
#226 = DIRECTION( '', ( 0.000000000000000, 0.000000000000000, -1.00000000000000 ) );
#227 = CARTESIAN_POINT( '', ( 0.000000000000000, 14.3382193189305, 0.000000000000000 ) );
#228 = DIRECTION( '', ( 0.000000000000000, -1.00000000000000, -0.000000000000000 ) );
#229 = DIRECTION( '', ( 0.000000000000000, 0.000000000000000, -1.00000000000000 ) );
ENDSEC;
END-ISO-10303-21;
