ISO-10303-21;
HEADER;
FILE_DESCRIPTION( ( 'STEP AP214' ), '1' );
FILE_NAME( '//goodhand-server/Shared Folders/GoodHand Data/Kipp CAD/K0179/K0179.412X100.stp', '2020-11-26T11:24:05', ( '' ), ( '' ), ' ', 'PARTsolutions', ' ' );
FILE_SCHEMA( ( 'AUTOMOTIVE_DESIGN { 1 0 10303 214 1 1 1 1 }' ) );
ENDSEC;
DATA;
#1 = MECHANICAL_DESIGN_GEOMETRIC_PRESENTATION_REPRESENTATION( ' ', ( #10, #11, #12, #13, #14, #15, #16, #17, #18, #19 ), #6 );
#2 = PRODUCT_DEFINITION_CONTEXT( '', #20, 'design' );
#3 = APPLICATION_PROTOCOL_DEFINITION( 'international standard', 'automotive_design', 2001, #20 );
#4 = PRODUCT_CATEGORY_RELATIONSHIP( 'NONE', 'NONE', #21, #22 );
#5 = SHAPE_DEFINITION_REPRESENTATION( #23, #24 );
#6 =  ( GEOMETRIC_REPRESENTATION_CONTEXT( 3 )GLOBAL_UNCERTAINTY_ASSIGNED_CONTEXT( ( #27 ) )GLOBAL_UNIT_ASSIGNED_CONTEXT( ( #29, #30, #31 ) )REPRESENTATION_CONTEXT( 'NONE', 'WORKSPACE' ) );
#10 = STYLED_ITEM( '', ( #33 ), #34 );
#11 = STYLED_ITEM( '', ( #35 ), #36 );
#12 = STYLED_ITEM( '', ( #37 ), #38 );
#13 = STYLED_ITEM( '', ( #39 ), #40 );
#14 = STYLED_ITEM( '', ( #41 ), #42 );
#15 = STYLED_ITEM( '', ( #43 ), #44 );
#16 = STYLED_ITEM( '', ( #45 ), #46 );
#17 = STYLED_ITEM( '', ( #47 ), #48 );
#18 = STYLED_ITEM( '', ( #49 ), #50 );
#19 = STYLED_ITEM( '', ( #51 ), #52 );
#20 = APPLICATION_CONTEXT( 'core data for automotive mechanical design processes' );
#21 = PRODUCT_CATEGORY( 'part', 'NONE' );
#22 = PRODUCT_RELATED_PRODUCT_CATEGORY( 'detail', ' ', ( #53 ) );
#23 = PRODUCT_DEFINITION_SHAPE( 'NONE', 'NONE', #54 );
#24 = ADVANCED_BREP_SHAPE_REPRESENTATION( '_K0179.412X100', ( #55, #56 ), #6 );
#27 = UNCERTAINTY_MEASURE_WITH_UNIT( LENGTH_MEASURE( 0.00100000000000000 ), #29, '', '' );
#29 =  ( CONVERSION_BASED_UNIT( 'MILLIMETRE', #59 )LENGTH_UNIT(  )NAMED_UNIT( #62 ) );
#30 =  ( NAMED_UNIT( #64 )PLANE_ANGLE_UNIT(  )SI_UNIT( $, .RADIAN. ) );
#31 =  ( NAMED_UNIT( #64 )SI_UNIT( $, .STERADIAN. )SOLID_ANGLE_UNIT(  ) );
#33 = PRESENTATION_STYLE_ASSIGNMENT( ( #70 ) );
#34 = ADVANCED_FACE( '', ( #71 ), #72, .F. );
#35 = PRESENTATION_STYLE_ASSIGNMENT( ( #73 ) );
#36 = ADVANCED_FACE( '', ( #74, #75 ), #76, .T. );
#37 = PRESENTATION_STYLE_ASSIGNMENT( ( #77 ) );
#38 = ADVANCED_FACE( '', ( #78 ), #79, .F. );
#39 = PRESENTATION_STYLE_ASSIGNMENT( ( #80 ) );
#40 = ADVANCED_FACE( '', ( #81, #82 ), #83, .T. );
#41 = PRESENTATION_STYLE_ASSIGNMENT( ( #84 ) );
#42 = ADVANCED_FACE( '', ( #85, #86 ), #87, .T. );
#43 = PRESENTATION_STYLE_ASSIGNMENT( ( #88 ) );
#44 = ADVANCED_FACE( '', ( #89, #90 ), #91, .T. );
#45 = PRESENTATION_STYLE_ASSIGNMENT( ( #92 ) );
#46 = ADVANCED_FACE( '', ( #93, #94 ), #95, .F. );
#47 = PRESENTATION_STYLE_ASSIGNMENT( ( #96 ) );
#48 = ADVANCED_FACE( '', ( #97, #98 ), #99, .T. );
#49 = PRESENTATION_STYLE_ASSIGNMENT( ( #100 ) );
#50 = ADVANCED_FACE( '', ( #101, #102 ), #103, .F. );
#51 = PRESENTATION_STYLE_ASSIGNMENT( ( #104 ) );
#52 = ADVANCED_FACE( '', ( #105, #106 ), #107, .T. );
#53 = PRODUCT( '_K0179.412X100', '_K0179.412X100', 'PART-_K0179.412X100-DESC', ( #108 ) );
#54 = PRODUCT_DEFINITION( 'NONE', 'NONE', #109, #2 );
#55 = MANIFOLD_SOLID_BREP( '_K0179.412X100', #110 );
#56 = AXIS2_PLACEMENT_3D( '', #111, #112, #113 );
#59 = LENGTH_MEASURE_WITH_UNIT( LENGTH_MEASURE( 1.00000000000000 ), #114 );
#62 = DIMENSIONAL_EXPONENTS( 1.00000000000000, 0.000000000000000, 0.000000000000000, 0.000000000000000, 0.000000000000000, 0.000000000000000, 0.000000000000000 );
#64 = DIMENSIONAL_EXPONENTS( 0.000000000000000, 0.000000000000000, 0.000000000000000, 0.000000000000000, 0.000000000000000, 0.000000000000000, 0.000000000000000 );
#70 = SURFACE_STYLE_USAGE( .BOTH., #115 );
#71 = FACE_OUTER_BOUND( '', #116, .T. );
#72 = PLANE( '', #117 );
#73 = SURFACE_STYLE_USAGE( .BOTH., #118 );
#74 = FACE_OUTER_BOUND( '', #119, .T. );
#75 = FACE_OUTER_BOUND( '', #120, .T. );
#76 = CYLINDRICAL_SURFACE( '', #121, 6.00000000000000 );
#77 = SURFACE_STYLE_USAGE( .BOTH., #122 );
#78 = FACE_OUTER_BOUND( '', #123, .T. );
#79 = PLANE( '', #124 );
#80 = SURFACE_STYLE_USAGE( .BOTH., #125 );
#81 = FACE_OUTER_BOUND( '', #126, .T. );
#82 = FACE_BOUND( '', #127, .T. );
#83 = CONICAL_SURFACE( '', #128, 10.4000000000000, 0.785398163400000 );
#84 = SURFACE_STYLE_USAGE( .BOTH., #129 );
#85 = FACE_OUTER_BOUND( '', #130, .T. );
#86 = FACE_OUTER_BOUND( '', #131, .T. );
#87 = CYLINDRICAL_SURFACE( '', #132, 5.00000000000000 );
#88 = SURFACE_STYLE_USAGE( .BOTH., #133 );
#89 = FACE_BOUND( '', #134, .T. );
#90 = FACE_OUTER_BOUND( '', #135, .T. );
#91 = CONICAL_SURFACE( '', #136, 15.0000000000000, 0.120190830600000 );
#92 = SURFACE_STYLE_USAGE( .BOTH., #137 );
#93 = FACE_BOUND( '', #138, .T. );
#94 = FACE_OUTER_BOUND( '', #139, .T. );
#95 = PLANE( '', #140 );
#96 = SURFACE_STYLE_USAGE( .BOTH., #141 );
#97 = FACE_OUTER_BOUND( '', #142, .T. );
#98 = FACE_OUTER_BOUND( '', #143, .T. );
#99 = TOROIDAL_SURFACE( '', #144, 8.22701259320000, 2.00000000000000 );
#100 = SURFACE_STYLE_USAGE( .BOTH., #145 );
#101 = FACE_BOUND( '', #146, .T. );
#102 = FACE_OUTER_BOUND( '', #147, .T. );
#103 = PLANE( '', #148 );
#104 = SURFACE_STYLE_USAGE( .BOTH., #149 );
#105 = FACE_BOUND( '', #150, .T. );
#106 = FACE_OUTER_BOUND( '', #151, .T. );
#107 = CONICAL_SURFACE( '', #152, 5.00000000000000, 0.785398163400000 );
#108 = PRODUCT_CONTEXT( '', #20, 'mechanical' );
#109 = PRODUCT_DEFINITION_FORMATION_WITH_SPECIFIED_SOURCE( ' ', 'NONE', #53, .NOT_KNOWN. );
#110 = CLOSED_SHELL( '', ( #52, #42, #50, #36, #46, #48, #44, #38, #40, #34 ) );
#111 = CARTESIAN_POINT( '', ( 0.000000000000000, 0.000000000000000, 0.000000000000000 ) );
#112 = DIRECTION( '', ( 0.000000000000000, 0.000000000000000, 1.00000000000000 ) );
#113 = DIRECTION( '', ( 1.00000000000000, 0.000000000000000, 0.000000000000000 ) );
#114 =  ( LENGTH_UNIT(  )NAMED_UNIT( #62 )SI_UNIT( .MILLI., .METRE. ) );
#115 = SURFACE_SIDE_STYLE( '', ( #154 ) );
#116 = EDGE_LOOP( '', ( #155 ) );
#117 = AXIS2_PLACEMENT_3D( '', #156, #157, #158 );
#118 = SURFACE_SIDE_STYLE( '', ( #159 ) );
#119 = EDGE_LOOP( '', ( #160 ) );
#120 = EDGE_LOOP( '', ( #161 ) );
#121 = AXIS2_PLACEMENT_3D( '', #162, #163, #164 );
#122 = SURFACE_SIDE_STYLE( '', ( #165 ) );
#123 = EDGE_LOOP( '', ( #166 ) );
#124 = AXIS2_PLACEMENT_3D( '', #167, #168, #169 );
#125 = SURFACE_SIDE_STYLE( '', ( #170 ) );
#126 = EDGE_LOOP( '', ( #171 ) );
#127 = EDGE_LOOP( '', ( #172 ) );
#128 = AXIS2_PLACEMENT_3D( '', #173, #174, #175 );
#129 = SURFACE_SIDE_STYLE( '', ( #176 ) );
#130 = EDGE_LOOP( '', ( #177 ) );
#131 = EDGE_LOOP( '', ( #178 ) );
#132 = AXIS2_PLACEMENT_3D( '', #179, #180, #181 );
#133 = SURFACE_SIDE_STYLE( '', ( #182 ) );
#134 = EDGE_LOOP( '', ( #183 ) );
#135 = EDGE_LOOP( '', ( #184 ) );
#136 = AXIS2_PLACEMENT_3D( '', #185, #186, #187 );
#137 = SURFACE_SIDE_STYLE( '', ( #188 ) );
#138 = EDGE_LOOP( '', ( #189 ) );
#139 = EDGE_LOOP( '', ( #190 ) );
#140 = AXIS2_PLACEMENT_3D( '', #191, #192, #193 );
#141 = SURFACE_SIDE_STYLE( '', ( #194 ) );
#142 = EDGE_LOOP( '', ( #195 ) );
#143 = EDGE_LOOP( '', ( #196 ) );
#144 = AXIS2_PLACEMENT_3D( '', #197, #198, #199 );
#145 = SURFACE_SIDE_STYLE( '', ( #200 ) );
#146 = EDGE_LOOP( '', ( #201 ) );
#147 = EDGE_LOOP( '', ( #202 ) );
#148 = AXIS2_PLACEMENT_3D( '', #203, #204, #205 );
#149 = SURFACE_SIDE_STYLE( '', ( #206 ) );
#150 = EDGE_LOOP( '', ( #207 ) );
#151 = EDGE_LOOP( '', ( #208 ) );
#152 = AXIS2_PLACEMENT_3D( '', #209, #210, #211 );
#154 = SURFACE_STYLE_FILL_AREA( #212 );
#155 = ORIENTED_EDGE( '', *, *, #213, .T. );
#156 = CARTESIAN_POINT( '', ( 161.000000000000, 4.08000000000000, 0.000000000000000 ) );
#157 = DIRECTION( '', ( -1.00000000000000, 0.000000000000000, 0.000000000000000 ) );
#158 = DIRECTION( '', ( 0.000000000000000, 0.000000000000000, 1.00000000000000 ) );
#159 = SURFACE_STYLE_FILL_AREA( #214 );
#160 = ORIENTED_EDGE( '', *, *, #215, .F. );
#161 = ORIENTED_EDGE( '', *, *, #216, .T. );
#162 = CARTESIAN_POINT( '', ( 161.000000000000, 0.000000000000000, 0.000000000000000 ) );
#163 = DIRECTION( '', ( -1.00000000000000, -0.000000000000000, 0.000000000000000 ) );
#164 = DIRECTION( '', ( -0.000000000000000, 0.000000000000000, -1.00000000000000 ) );
#165 = SURFACE_STYLE_FILL_AREA( #217 );
#166 = ORIENTED_EDGE( '', *, *, #218, .F. );
#167 = CARTESIAN_POINT( '', ( 0.000000000000000, 0.000000000000000, 0.000000000000000 ) );
#168 = DIRECTION( '', ( 1.00000000000000, 0.000000000000000, -0.000000000000000 ) );
#169 = DIRECTION( '', ( -0.000000000000000, 0.000000000000000, -1.00000000000000 ) );
#170 = SURFACE_STYLE_FILL_AREA( #219 );
#171 = ORIENTED_EDGE( '', *, *, #220, .F. );
#172 = ORIENTED_EDGE( '', *, *, #218, .T. );
#173 = CARTESIAN_POINT( '', ( 0.000000000000000, 0.000000000000000, 0.000000000000000 ) );
#174 = DIRECTION( '', ( 1.00000000000000, -0.000000000000000, -0.000000000000000 ) );
#175 = DIRECTION( '', ( -0.000000000000000, 0.000000000000000, -1.00000000000000 ) );
#176 = SURFACE_STYLE_FILL_AREA( #221 );
#177 = ORIENTED_EDGE( '', *, *, #222, .F. );
#178 = ORIENTED_EDGE( '', *, *, #223, .T. );
#179 = CARTESIAN_POINT( '', ( 161.000000000000, 0.000000000000000, 0.000000000000000 ) );
#180 = DIRECTION( '', ( -1.00000000000000, -0.000000000000000, 0.000000000000000 ) );
#181 = DIRECTION( '', ( -0.000000000000000, 0.000000000000000, -1.00000000000000 ) );
#182 = SURFACE_STYLE_FILL_AREA( #224 );
#183 = ORIENTED_EDGE( '', *, *, #225, .F. );
#184 = ORIENTED_EDGE( '', *, *, #220, .T. );
#185 = CARTESIAN_POINT( '', ( 4.59999999999999, 0.000000000000000, 0.000000000000000 ) );
#186 = DIRECTION( '', ( -1.00000000000000, 0.000000000000000, -0.000000000000000 ) );
#187 = DIRECTION( '', ( 0.000000000000000, 0.000000000000000, 1.00000000000000 ) );
#188 = SURFACE_STYLE_FILL_AREA( #226 );
#189 = ORIENTED_EDGE( '', *, *, #216, .F. );
#190 = ORIENTED_EDGE( '', *, *, #227, .T. );
#191 = CARTESIAN_POINT( '', ( 46.0000000000000, 8.22701259323235, 0.000000000000000 ) );
#192 = DIRECTION( '', ( -1.00000000000000, 0.000000000000000, 0.000000000000000 ) );
#193 = DIRECTION( '', ( 0.000000000000000, 0.000000000000000, 1.00000000000000 ) );
#194 = SURFACE_STYLE_FILL_AREA( #228 );
#195 = ORIENTED_EDGE( '', *, *, #225, .T. );
#196 = ORIENTED_EDGE( '', *, *, #227, .F. );
#197 = CARTESIAN_POINT( '', ( 44.0000000000000, 0.000000000000000, 0.000000000000000 ) );
#198 = DIRECTION( '', ( 1.00000000000000, 0.000000000000000, -0.000000000000000 ) );
#199 = DIRECTION( '', ( -0.000000000000000, 0.000000000000000, -1.00000000000000 ) );
#200 = SURFACE_STYLE_FILL_AREA( #229 );
#201 = ORIENTED_EDGE( '', *, *, #223, .F. );
#202 = ORIENTED_EDGE( '', *, *, #215, .T. );
#203 = CARTESIAN_POINT( '', ( 146.000000000000, 6.00000000000000, 0.000000000000000 ) );
#204 = DIRECTION( '', ( -1.00000000000000, 0.000000000000000, 0.000000000000000 ) );
#205 = DIRECTION( '', ( 0.000000000000000, 0.000000000000000, 1.00000000000000 ) );
#206 = SURFACE_STYLE_FILL_AREA( #230 );
#207 = ORIENTED_EDGE( '', *, *, #213, .F. );
#208 = ORIENTED_EDGE( '', *, *, #222, .T. );
#209 = CARTESIAN_POINT( '', ( 160.080000000000, 0.000000000000000, 0.000000000000000 ) );
#210 = DIRECTION( '', ( -1.00000000000000, 0.000000000000000, -0.000000000000000 ) );
#211 = DIRECTION( '', ( 0.000000000000000, 0.000000000000000, 1.00000000000000 ) );
#212 = FILL_AREA_STYLE( '', ( #231 ) );
#213 = EDGE_CURVE( '', #232, #232, #233, .T. );
#214 = FILL_AREA_STYLE( '', ( #234 ) );
#215 = EDGE_CURVE( '', #235, #235, #236, .T. );
#216 = EDGE_CURVE( '', #237, #237, #238, .T. );
#217 = FILL_AREA_STYLE( '', ( #239 ) );
#218 = EDGE_CURVE( '', #240, #240, #241, .T. );
#219 = FILL_AREA_STYLE( '', ( #242 ) );
#220 = EDGE_CURVE( '', #243, #243, #244, .T. );
#221 = FILL_AREA_STYLE( '', ( #245 ) );
#222 = EDGE_CURVE( '', #246, #246, #247, .T. );
#223 = EDGE_CURVE( '', #248, #248, #249, .T. );
#224 = FILL_AREA_STYLE( '', ( #250 ) );
#225 = EDGE_CURVE( '', #251, #251, #252, .T. );
#226 = FILL_AREA_STYLE( '', ( #253 ) );
#227 = EDGE_CURVE( '', #254, #254, #255, .T. );
#228 = FILL_AREA_STYLE( '', ( #256 ) );
#229 = FILL_AREA_STYLE( '', ( #257 ) );
#230 = FILL_AREA_STYLE( '', ( #258 ) );
#231 = FILL_AREA_STYLE_COLOUR( '', #259 );
#232 = VERTEX_POINT( '', #260 );
#233 = CIRCLE( '', #261, 4.08000000000000 );
#234 = FILL_AREA_STYLE_COLOUR( '', #262 );
#235 = VERTEX_POINT( '', #263 );
#236 = CIRCLE( '', #264, 6.00000000000000 );
#237 = VERTEX_POINT( '', #265 );
#238 = CIRCLE( '', #266, 6.00000000000000 );
#239 = FILL_AREA_STYLE_COLOUR( '', #267 );
#240 = VERTEX_POINT( '', #268 );
#241 = CIRCLE( '', #269, 10.4000000000000 );
#242 = FILL_AREA_STYLE_COLOUR( '', #270 );
#243 = VERTEX_POINT( '', #271 );
#244 = CIRCLE( '', #272, 15.0000000000000 );
#245 = FILL_AREA_STYLE_COLOUR( '', #273 );
#246 = VERTEX_POINT( '', #274 );
#247 = CIRCLE( '', #275, 5.00000000000000 );
#248 = VERTEX_POINT( '', #276 );
#249 = CIRCLE( '', #277, 5.00000000000000 );
#250 = FILL_AREA_STYLE_COLOUR( '', #278 );
#251 = VERTEX_POINT( '', #279 );
#252 = CIRCLE( '', #280, 10.2125841393000 );
#253 = FILL_AREA_STYLE_COLOUR( '', #281 );
#254 = VERTEX_POINT( '', #282 );
#255 = CIRCLE( '', #283, 8.22701259320000 );
#256 = FILL_AREA_STYLE_COLOUR( '', #284 );
#257 = FILL_AREA_STYLE_COLOUR( '', #285 );
#258 = FILL_AREA_STYLE_COLOUR( '', #286 );
#259 = COLOUR_RGB( '', 0.689999997600000, 0.689999997600000, 0.689999997600000 );
#260 = CARTESIAN_POINT( '', ( 161.000000000000, 0.000000000000000, -4.08000000000000 ) );
#261 = AXIS2_PLACEMENT_3D( '', #287, #288, #289 );
#262 = COLOUR_RGB( '', 0.689999997600000, 0.689999997600000, 0.689999997600000 );
#263 = CARTESIAN_POINT( '', ( 146.000000000000, 0.000000000000000, -6.00000000000000 ) );
#264 = AXIS2_PLACEMENT_3D( '', #290, #291, #292 );
#265 = CARTESIAN_POINT( '', ( 46.0000000000000, 0.000000000000000, -6.00000000000000 ) );
#266 = AXIS2_PLACEMENT_3D( '', #293, #294, #295 );
#267 = COLOUR_RGB( '', 0.689999997600000, 0.689999997600000, 0.689999997600000 );
#268 = CARTESIAN_POINT( '', ( 0.000000000000000, 0.000000000000000, -10.4000000000000 ) );
#269 = AXIS2_PLACEMENT_3D( '', #296, #297, #298 );
#270 = COLOUR_RGB( '', 0.689999997600000, 0.689999997600000, 0.689999997600000 );
#271 = CARTESIAN_POINT( '', ( 4.59999999999999, 0.000000000000000, -15.0000000000000 ) );
#272 = AXIS2_PLACEMENT_3D( '', #299, #300, #301 );
#273 = COLOUR_RGB( '', 0.689999997600000, 0.689999997600000, 0.689999997600000 );
#274 = CARTESIAN_POINT( '', ( 160.080000000000, 0.000000000000000, -5.00000000000000 ) );
#275 = AXIS2_PLACEMENT_3D( '', #302, #303, #304 );
#276 = CARTESIAN_POINT( '', ( 146.000000000000, 0.000000000000000, -5.00000000000000 ) );
#277 = AXIS2_PLACEMENT_3D( '', #305, #306, #307 );
#278 = COLOUR_RGB( '', 0.689999997600000, 0.689999997600000, 0.689999997600000 );
#279 = CARTESIAN_POINT( '', ( 44.2398033268165, 0.000000000000000, -10.2125841392734 ) );
#280 = AXIS2_PLACEMENT_3D( '', #308, #309, #310 );
#281 = COLOUR_RGB( '', 0.689999997600000, 0.689999997600000, 0.689999997600000 );
#282 = CARTESIAN_POINT( '', ( 46.0000000000000, 0.000000000000000, -8.22701259323235 ) );
#283 = AXIS2_PLACEMENT_3D( '', #311, #312, #313 );
#284 = COLOUR_RGB( '', 0.689999997600000, 0.689999997600000, 0.689999997600000 );
#285 = COLOUR_RGB( '', 0.689999997600000, 0.689999997600000, 0.689999997600000 );
#286 = COLOUR_RGB( '', 0.689999997600000, 0.689999997600000, 0.689999997600000 );
#287 = CARTESIAN_POINT( '', ( 161.000000000000, 0.000000000000000, 0.000000000000000 ) );
#288 = DIRECTION( '', ( 1.00000000000000, 0.000000000000000, -0.000000000000000 ) );
#289 = DIRECTION( '', ( -0.000000000000000, 0.000000000000000, -1.00000000000000 ) );
#290 = CARTESIAN_POINT( '', ( 146.000000000000, 0.000000000000000, 0.000000000000000 ) );
#291 = DIRECTION( '', ( 1.00000000000000, 0.000000000000000, -0.000000000000000 ) );
#292 = DIRECTION( '', ( -0.000000000000000, 0.000000000000000, -1.00000000000000 ) );
#293 = CARTESIAN_POINT( '', ( 46.0000000000000, 0.000000000000000, 0.000000000000000 ) );
#294 = DIRECTION( '', ( 1.00000000000000, 0.000000000000000, -0.000000000000000 ) );
#295 = DIRECTION( '', ( -0.000000000000000, 0.000000000000000, -1.00000000000000 ) );
#296 = CARTESIAN_POINT( '', ( 0.000000000000000, 0.000000000000000, 0.000000000000000 ) );
#297 = DIRECTION( '', ( 1.00000000000000, 0.000000000000000, -0.000000000000000 ) );
#298 = DIRECTION( '', ( -0.000000000000000, 0.000000000000000, -1.00000000000000 ) );
#299 = CARTESIAN_POINT( '', ( 4.59999999999999, 0.000000000000000, 0.000000000000000 ) );
#300 = DIRECTION( '', ( 1.00000000000000, 0.000000000000000, -0.000000000000000 ) );
#301 = DIRECTION( '', ( -0.000000000000000, 0.000000000000000, -1.00000000000000 ) );
#302 = CARTESIAN_POINT( '', ( 160.080000000000, 0.000000000000000, 0.000000000000000 ) );
#303 = DIRECTION( '', ( 1.00000000000000, 0.000000000000000, -0.000000000000000 ) );
#304 = DIRECTION( '', ( -0.000000000000000, 0.000000000000000, -1.00000000000000 ) );
#305 = CARTESIAN_POINT( '', ( 146.000000000000, 0.000000000000000, 0.000000000000000 ) );
#306 = DIRECTION( '', ( 1.00000000000000, 0.000000000000000, -0.000000000000000 ) );
#307 = DIRECTION( '', ( -0.000000000000000, 0.000000000000000, -1.00000000000000 ) );
#308 = CARTESIAN_POINT( '', ( 44.2398033268165, 0.000000000000000, 0.000000000000000 ) );
#309 = DIRECTION( '', ( 1.00000000000000, 0.000000000000000, -0.000000000000000 ) );
#310 = DIRECTION( '', ( -0.000000000000000, 0.000000000000000, -1.00000000000000 ) );
#311 = CARTESIAN_POINT( '', ( 46.0000000000000, 0.000000000000000, 0.000000000000000 ) );
#312 = DIRECTION( '', ( 1.00000000000000, 0.000000000000000, -0.000000000000000 ) );
#313 = DIRECTION( '', ( -0.000000000000000, 0.000000000000000, -1.00000000000000 ) );
ENDSEC;
END-ISO-10303-21;
