ISO-10303-21;
HEADER;
FILE_DESCRIPTION( ( 'STEP AP214' ), '1' );
FILE_NAME( '//goodhand-server/Shared Folders/GoodHand Data/Kipp CAD/K0127/27618-10081271.stp', '2020-11-25T11:43:04', ( '' ), ( '' ), ' ', 'PARTsolutions', ' ' );
FILE_SCHEMA( ( 'AUTOMOTIVE_DESIGN { 1 0 10303 214 1 1 1 1 }' ) );
ENDSEC;
DATA;
#1 = MECHANICAL_DESIGN_GEOMETRIC_PRESENTATION_REPRESENTATION( ' ', ( #10, #11, #12, #13, #14, #15, #16, #17, #18, #19, #20, #21, #22 ), #6 );
#2 = PRODUCT_DEFINITION_CONTEXT( '', #23, 'design' );
#3 = APPLICATION_PROTOCOL_DEFINITION( 'international standard', 'automotive_design', 2001, #23 );
#4 = PRODUCT_CATEGORY_RELATIONSHIP( 'NONE', 'NONE', #24, #25 );
#5 = SHAPE_DEFINITION_REPRESENTATION( #26, #27 );
#6 =  ( GEOMETRIC_REPRESENTATION_CONTEXT( 3 )GLOBAL_UNCERTAINTY_ASSIGNED_CONTEXT( ( #30 ) )GLOBAL_UNIT_ASSIGNED_CONTEXT( ( #32, #33, #34 ) )REPRESENTATION_CONTEXT( 'NONE', 'WORKSPACE' ) );
#10 = STYLED_ITEM( '', ( #36 ), #37 );
#11 = STYLED_ITEM( '', ( #38 ), #39 );
#12 = STYLED_ITEM( '', ( #40 ), #41 );
#13 = STYLED_ITEM( '', ( #42 ), #43 );
#14 = STYLED_ITEM( '', ( #44 ), #45 );
#15 = STYLED_ITEM( '', ( #46 ), #47 );
#16 = STYLED_ITEM( '', ( #48 ), #49 );
#17 = STYLED_ITEM( '', ( #50 ), #51 );
#18 = STYLED_ITEM( '', ( #52 ), #53 );
#19 = STYLED_ITEM( '', ( #54 ), #55 );
#20 = STYLED_ITEM( '', ( #56 ), #57 );
#21 = STYLED_ITEM( '', ( #58 ), #59 );
#22 = STYLED_ITEM( '', ( #60 ), #61 );
#23 = APPLICATION_CONTEXT( 'core data for automotive mechanical design processes' );
#24 = PRODUCT_CATEGORY( 'part', 'NONE' );
#25 = PRODUCT_RELATED_PRODUCT_CATEGORY( 'detail', ' ', ( #62 ) );
#26 = PRODUCT_DEFINITION_SHAPE( 'NONE', 'NONE', #63 );
#27 = ADVANCED_BREP_SHAPE_REPRESENTATION( '_27618-10081271', ( #64, #65 ), #6 );
#30 = UNCERTAINTY_MEASURE_WITH_UNIT( LENGTH_MEASURE( 0.00100000000000000 ), #32, '', '' );
#32 =  ( CONVERSION_BASED_UNIT( 'MILLIMETRE', #68 )LENGTH_UNIT(  )NAMED_UNIT( #71 ) );
#33 =  ( NAMED_UNIT( #73 )PLANE_ANGLE_UNIT(  )SI_UNIT( $, .RADIAN. ) );
#34 =  ( NAMED_UNIT( #73 )SI_UNIT( $, .STERADIAN. )SOLID_ANGLE_UNIT(  ) );
#36 = PRESENTATION_STYLE_ASSIGNMENT( ( #79 ) );
#37 = ADVANCED_FACE( '', ( #80, #81 ), #82, .T. );
#38 = PRESENTATION_STYLE_ASSIGNMENT( ( #83 ) );
#39 = ADVANCED_FACE( '', ( #84 ), #85, .F. );
#40 = PRESENTATION_STYLE_ASSIGNMENT( ( #86 ) );
#41 = ADVANCED_FACE( '', ( #87, #88 ), #89, .T. );
#42 = PRESENTATION_STYLE_ASSIGNMENT( ( #90 ) );
#43 = ADVANCED_FACE( '', ( #91 ), #92, .T. );
#44 = PRESENTATION_STYLE_ASSIGNMENT( ( #93 ) );
#45 = ADVANCED_FACE( '', ( #94, #95 ), #96, .F. );
#46 = PRESENTATION_STYLE_ASSIGNMENT( ( #97 ) );
#47 = ADVANCED_FACE( '', ( #98, #99 ), #100, .T. );
#48 = PRESENTATION_STYLE_ASSIGNMENT( ( #101 ) );
#49 = ADVANCED_FACE( '', ( #102 ), #103, .T. );
#50 = PRESENTATION_STYLE_ASSIGNMENT( ( #104 ) );
#51 = ADVANCED_FACE( '', ( #105, #106 ), #107, .F. );
#52 = PRESENTATION_STYLE_ASSIGNMENT( ( #108 ) );
#53 = ADVANCED_FACE( '', ( #109, #110 ), #111, .F. );
#54 = PRESENTATION_STYLE_ASSIGNMENT( ( #112 ) );
#55 = ADVANCED_FACE( '', ( #113, #114 ), #115, .T. );
#56 = PRESENTATION_STYLE_ASSIGNMENT( ( #116 ) );
#57 = ADVANCED_FACE( '', ( #117, #118 ), #119, .F. );
#58 = PRESENTATION_STYLE_ASSIGNMENT( ( #120 ) );
#59 = ADVANCED_FACE( '', ( #121, #122 ), #123, .F. );
#60 = PRESENTATION_STYLE_ASSIGNMENT( ( #124 ) );
#61 = ADVANCED_FACE( '', ( #125, #126 ), #127, .F. );
#62 = PRODUCT( '_27618-10081271', '_27618-10081271', 'PART-_27618-10081271-DESC', ( #128 ) );
#63 = PRODUCT_DEFINITION( 'NONE', 'NONE', #129, #2 );
#64 = MANIFOLD_SOLID_BREP( '_27618-10081271', #130 );
#65 = AXIS2_PLACEMENT_3D( '', #131, #132, #133 );
#68 = LENGTH_MEASURE_WITH_UNIT( LENGTH_MEASURE( 1.00000000000000 ), #134 );
#71 = DIMENSIONAL_EXPONENTS( 1.00000000000000, 0.000000000000000, 0.000000000000000, 0.000000000000000, 0.000000000000000, 0.000000000000000, 0.000000000000000 );
#73 = DIMENSIONAL_EXPONENTS( 0.000000000000000, 0.000000000000000, 0.000000000000000, 0.000000000000000, 0.000000000000000, 0.000000000000000, 0.000000000000000 );
#79 = SURFACE_STYLE_USAGE( .BOTH., #135 );
#80 = FACE_BOUND( '', #136, .T. );
#81 = FACE_OUTER_BOUND( '', #137, .T. );
#82 = PLANE( '', #138 );
#83 = SURFACE_STYLE_USAGE( .BOTH., #139 );
#84 = FACE_OUTER_BOUND( '', #140, .T. );
#85 = PLANE( '', #141 );
#86 = SURFACE_STYLE_USAGE( .BOTH., #142 );
#87 = FACE_BOUND( '', #143, .T. );
#88 = FACE_OUTER_BOUND( '', #144, .T. );
#89 = PLANE( '', #145 );
#90 = SURFACE_STYLE_USAGE( .BOTH., #146 );
#91 = FACE_OUTER_BOUND( '', #147, .T. );
#92 = PLANE( '', #148 );
#93 = SURFACE_STYLE_USAGE( .BOTH., #149 );
#94 = FACE_BOUND( '', #150, .T. );
#95 = FACE_OUTER_BOUND( '', #151, .T. );
#96 = PLANE( '', #152 );
#97 = SURFACE_STYLE_USAGE( .BOTH., #153 );
#98 = FACE_OUTER_BOUND( '', #154, .T. );
#99 = FACE_OUTER_BOUND( '', #155, .T. );
#100 = CYLINDRICAL_SURFACE( '', #156, 9.00000000000000 );
#101 = SURFACE_STYLE_USAGE( .BOTH., #157 );
#102 = FACE_OUTER_BOUND( '', #158, .T. );
#103 = PLANE( '', #159 );
#104 = SURFACE_STYLE_USAGE( .BOTH., #160 );
#105 = FACE_OUTER_BOUND( '', #161, .T. );
#106 = FACE_OUTER_BOUND( '', #162, .T. );
#107 = CYLINDRICAL_SURFACE( '', #163, 4.05000000000000 );
#108 = SURFACE_STYLE_USAGE( .BOTH., #164 );
#109 = FACE_OUTER_BOUND( '', #165, .T. );
#110 = FACE_OUTER_BOUND( '', #166, .T. );
#111 = CYLINDRICAL_SURFACE( '', #167, 4.18800000000000 );
#112 = SURFACE_STYLE_USAGE( .BOTH., #168 );
#113 = FACE_BOUND( '', #169, .T. );
#114 = FACE_OUTER_BOUND( '', #170, .T. );
#115 = SPHERICAL_SURFACE( '', #171, 9.00000000000000 );
#116 = SURFACE_STYLE_USAGE( .BOTH., #172 );
#117 = FACE_OUTER_BOUND( '', #173, .T. );
#118 = FACE_BOUND( '', #174, .T. );
#119 = CONICAL_SURFACE( '', #175, 4.05000000000000, 0.785398163400000 );
#120 = SURFACE_STYLE_USAGE( .BOTH., #176 );
#121 = FACE_BOUND( '', #177, .T. );
#122 = FACE_OUTER_BOUND( '', #178, .T. );
#123 = CONICAL_SURFACE( '', #179, 5.00000000000000, 0.785398163400000 );
#124 = SURFACE_STYLE_USAGE( .BOTH., #180 );
#125 = FACE_BOUND( '', #181, .T. );
#126 = FACE_OUTER_BOUND( '', #182, .T. );
#127 = CONICAL_SURFACE( '', #183, 4.55000000000000, 0.785398163400000 );
#128 = PRODUCT_CONTEXT( '', #23, 'mechanical' );
#129 = PRODUCT_DEFINITION_FORMATION_WITH_SPECIFIED_SOURCE( ' ', 'NONE', #62, .NOT_KNOWN. );
#130 = CLOSED_SHELL( '', ( #55, #47, #45, #59, #53, #39, #49, #37, #41, #43, #61, #51, #57 ) );
#131 = CARTESIAN_POINT( '', ( 0.000000000000000, 0.000000000000000, 0.000000000000000 ) );
#132 = DIRECTION( '', ( 0.000000000000000, 0.000000000000000, 1.00000000000000 ) );
#133 = DIRECTION( '', ( 1.00000000000000, 0.000000000000000, 0.000000000000000 ) );
#134 =  ( LENGTH_UNIT(  )NAMED_UNIT( #71 )SI_UNIT( .MILLI., .METRE. ) );
#135 = SURFACE_SIDE_STYLE( '', ( #185 ) );
#136 = EDGE_LOOP( '', ( #186 ) );
#137 = EDGE_LOOP( '', ( #187, #188, #189, #190 ) );
#138 = AXIS2_PLACEMENT_3D( '', #191, #192, #193 );
#139 = SURFACE_SIDE_STYLE( '', ( #194 ) );
#140 = EDGE_LOOP( '', ( #195 ) );
#141 = AXIS2_PLACEMENT_3D( '', #196, #197, #198 );
#142 = SURFACE_SIDE_STYLE( '', ( #199 ) );
#143 = EDGE_LOOP( '', ( #200 ) );
#144 = EDGE_LOOP( '', ( #201, #202, #203, #204 ) );
#145 = AXIS2_PLACEMENT_3D( '', #205, #206, #207 );
#146 = SURFACE_SIDE_STYLE( '', ( #208 ) );
#147 = EDGE_LOOP( '', ( #209, #210 ) );
#148 = AXIS2_PLACEMENT_3D( '', #211, #212, #213 );
#149 = SURFACE_SIDE_STYLE( '', ( #214 ) );
#150 = EDGE_LOOP( '', ( #215 ) );
#151 = EDGE_LOOP( '', ( #216 ) );
#152 = AXIS2_PLACEMENT_3D( '', #217, #218, #219 );
#153 = SURFACE_SIDE_STYLE( '', ( #220 ) );
#154 = EDGE_LOOP( '', ( #221 ) );
#155 = EDGE_LOOP( '', ( #222, #223, #224, #225, #226, #227, #228, #229 ) );
#156 = AXIS2_PLACEMENT_3D( '', #230, #231, #232 );
#157 = SURFACE_SIDE_STYLE( '', ( #233 ) );
#158 = EDGE_LOOP( '', ( #234, #235 ) );
#159 = AXIS2_PLACEMENT_3D( '', #236, #237, #238 );
#160 = SURFACE_SIDE_STYLE( '', ( #239 ) );
#161 = EDGE_LOOP( '', ( #240 ) );
#162 = EDGE_LOOP( '', ( #241 ) );
#163 = AXIS2_PLACEMENT_3D( '', #242, #243, #244 );
#164 = SURFACE_SIDE_STYLE( '', ( #245 ) );
#165 = EDGE_LOOP( '', ( #246 ) );
#166 = EDGE_LOOP( '', ( #247 ) );
#167 = AXIS2_PLACEMENT_3D( '', #248, #249, #250 );
#168 = SURFACE_SIDE_STYLE( '', ( #251 ) );
#169 = VERTEX_LOOP( '', #252 );
#170 = EDGE_LOOP( '', ( #253, #254, #255, #256 ) );
#171 = AXIS2_PLACEMENT_3D( '', #257, #258, #259 );
#172 = SURFACE_SIDE_STYLE( '', ( #260 ) );
#173 = EDGE_LOOP( '', ( #261 ) );
#174 = EDGE_LOOP( '', ( #262 ) );
#175 = AXIS2_PLACEMENT_3D( '', #263, #264, #265 );
#176 = SURFACE_SIDE_STYLE( '', ( #266 ) );
#177 = EDGE_LOOP( '', ( #267 ) );
#178 = EDGE_LOOP( '', ( #268 ) );
#179 = AXIS2_PLACEMENT_3D( '', #269, #270, #271 );
#180 = SURFACE_SIDE_STYLE( '', ( #272 ) );
#181 = EDGE_LOOP( '', ( #273 ) );
#182 = EDGE_LOOP( '', ( #274 ) );
#183 = AXIS2_PLACEMENT_3D( '', #275, #276, #277 );
#185 = SURFACE_STYLE_FILL_AREA( #278 );
#186 = ORIENTED_EDGE( '', *, *, #279, .T. );
#187 = ORIENTED_EDGE( '', *, *, #280, .T. );
#188 = ORIENTED_EDGE( '', *, *, #281, .F. );
#189 = ORIENTED_EDGE( '', *, *, #282, .T. );
#190 = ORIENTED_EDGE( '', *, *, #283, .F. );
#191 = CARTESIAN_POINT( '', ( -5.00000000000000, 12.0000000000000, 9.00000000000000 ) );
#192 = DIRECTION( '', ( -1.00000000000000, 0.000000000000000, 0.000000000000000 ) );
#193 = DIRECTION( '', ( 0.000000000000000, 0.000000000000000, 1.00000000000000 ) );
#194 = SURFACE_STYLE_FILL_AREA( #284 );
#195 = ORIENTED_EDGE( '', *, *, #285, .T. );
#196 = CARTESIAN_POINT( '', ( 4.18800000000000, 12.0000000000000, 0.000000000000000 ) );
#197 = DIRECTION( '', ( 0.000000000000000, 1.00000000000000, 0.000000000000000 ) );
#198 = DIRECTION( '', ( 0.000000000000000, -0.000000000000000, 1.00000000000000 ) );
#199 = SURFACE_STYLE_FILL_AREA( #286 );
#200 = ORIENTED_EDGE( '', *, *, #287, .F. );
#201 = ORIENTED_EDGE( '', *, *, #288, .T. );
#202 = ORIENTED_EDGE( '', *, *, #289, .T. );
#203 = ORIENTED_EDGE( '', *, *, #290, .T. );
#204 = ORIENTED_EDGE( '', *, *, #291, .F. );
#205 = CARTESIAN_POINT( '', ( 5.00000000000000, 36.0000000000000, 9.00000000000000 ) );
#206 = DIRECTION( '', ( 1.00000000000000, 0.000000000000000, -0.000000000000000 ) );
#207 = DIRECTION( '', ( -0.000000000000000, 0.000000000000000, -1.00000000000000 ) );
#208 = SURFACE_STYLE_FILL_AREA( #292 );
#209 = ORIENTED_EDGE( '', *, *, #289, .F. );
#210 = ORIENTED_EDGE( '', *, *, #293, .T. );
#211 = CARTESIAN_POINT( '', ( 5.00000000000000, 12.0000000000000, 9.00000000000000 ) );
#212 = DIRECTION( '', ( 0.000000000000000, 1.00000000000000, 0.000000000000000 ) );
#213 = DIRECTION( '', ( 0.000000000000000, -0.000000000000000, 1.00000000000000 ) );
#214 = SURFACE_STYLE_FILL_AREA( #294 );
#215 = ORIENTED_EDGE( '', *, *, #295, .F. );
#216 = ORIENTED_EDGE( '', *, *, #296, .T. );
#217 = CARTESIAN_POINT( '', ( 9.00000000000000, 0.000000000000000, 0.000000000000000 ) );
#218 = DIRECTION( '', ( 0.000000000000000, 1.00000000000000, 0.000000000000000 ) );
#219 = DIRECTION( '', ( 0.000000000000000, -0.000000000000000, 1.00000000000000 ) );
#220 = SURFACE_STYLE_FILL_AREA( #297 );
#221 = ORIENTED_EDGE( '', *, *, #296, .F. );
#222 = ORIENTED_EDGE( '', *, *, #298, .F. );
#223 = ORIENTED_EDGE( '', *, *, #280, .F. );
#224 = ORIENTED_EDGE( '', *, *, #299, .T. );
#225 = ORIENTED_EDGE( '', *, *, #290, .F. );
#226 = ORIENTED_EDGE( '', *, *, #293, .F. );
#227 = ORIENTED_EDGE( '', *, *, #288, .F. );
#228 = ORIENTED_EDGE( '', *, *, #300, .T. );
#229 = ORIENTED_EDGE( '', *, *, #282, .F. );
#230 = CARTESIAN_POINT( '', ( 0.000000000000000, 0.000000000000000, 0.000000000000000 ) );
#231 = DIRECTION( '', ( -0.000000000000000, 1.00000000000000, 0.000000000000000 ) );
#232 = DIRECTION( '', ( 0.000000000000000, 0.000000000000000, -1.00000000000000 ) );
#233 = SURFACE_STYLE_FILL_AREA( #301 );
#234 = ORIENTED_EDGE( '', *, *, #281, .T. );
#235 = ORIENTED_EDGE( '', *, *, #298, .T. );
#236 = CARTESIAN_POINT( '', ( -9.00000000000000, 12.0000000000000, 9.00000000000000 ) );
#237 = DIRECTION( '', ( 0.000000000000000, 1.00000000000000, 0.000000000000000 ) );
#238 = DIRECTION( '', ( 0.000000000000000, -0.000000000000000, 1.00000000000000 ) );
#239 = SURFACE_STYLE_FILL_AREA( #302 );
#240 = ORIENTED_EDGE( '', *, *, #303, .T. );
#241 = ORIENTED_EDGE( '', *, *, #304, .F. );
#242 = CARTESIAN_POINT( '', ( 5.00000000000000, 27.0000000000000, 0.000000000000000 ) );
#243 = DIRECTION( '', ( -1.00000000000000, -0.000000000000000, 0.000000000000000 ) );
#244 = DIRECTION( '', ( -0.000000000000000, 0.000000000000000, -1.00000000000000 ) );
#245 = SURFACE_STYLE_FILL_AREA( #305 );
#246 = ORIENTED_EDGE( '', *, *, #285, .F. );
#247 = ORIENTED_EDGE( '', *, *, #306, .T. );
#248 = CARTESIAN_POINT( '', ( 0.000000000000000, 0.000000000000000, 0.000000000000000 ) );
#249 = DIRECTION( '', ( -0.000000000000000, 1.00000000000000, 0.000000000000000 ) );
#250 = DIRECTION( '', ( 0.000000000000000, 0.000000000000000, -1.00000000000000 ) );
#251 = SURFACE_STYLE_FILL_AREA( #307 );
#252 = VERTEX_POINT( '', #308 );
#253 = ORIENTED_EDGE( '', *, *, #299, .F. );
#254 = ORIENTED_EDGE( '', *, *, #283, .T. );
#255 = ORIENTED_EDGE( '', *, *, #300, .F. );
#256 = ORIENTED_EDGE( '', *, *, #291, .T. );
#257 = CARTESIAN_POINT( '', ( -1.25767452008319E-14, 27.0000000000000, 0.000000000000000 ) );
#258 = DIRECTION( '', ( 0.000000000000000, -1.00000000000000, 0.000000000000000 ) );
#259 = DIRECTION( '', ( 1.00000000000000, 0.000000000000000, 0.000000000000000 ) );
#260 = SURFACE_STYLE_FILL_AREA( #309 );
#261 = ORIENTED_EDGE( '', *, *, #287, .T. );
#262 = ORIENTED_EDGE( '', *, *, #303, .F. );
#263 = CARTESIAN_POINT( '', ( 4.50000000000000, 27.0000000000000, 0.000000000000000 ) );
#264 = DIRECTION( '', ( 1.00000000000000, -0.000000000000000, -0.000000000000000 ) );
#265 = DIRECTION( '', ( -0.000000000000000, 0.000000000000000, -1.00000000000000 ) );
#266 = SURFACE_STYLE_FILL_AREA( #310 );
#267 = ORIENTED_EDGE( '', *, *, #306, .F. );
#268 = ORIENTED_EDGE( '', *, *, #295, .T. );
#269 = CARTESIAN_POINT( '', ( 0.000000000000000, 0.000000000000000, 0.000000000000000 ) );
#270 = DIRECTION( '', ( -0.000000000000000, -1.00000000000000, -0.000000000000000 ) );
#271 = DIRECTION( '', ( 0.000000000000000, 0.000000000000000, -1.00000000000000 ) );
#272 = SURFACE_STYLE_FILL_AREA( #311 );
#273 = ORIENTED_EDGE( '', *, *, #304, .T. );
#274 = ORIENTED_EDGE( '', *, *, #279, .F. );
#275 = CARTESIAN_POINT( '', ( -5.00000000000000, 27.0000000000000, 0.000000000000000 ) );
#276 = DIRECTION( '', ( -1.00000000000000, 0.000000000000000, -0.000000000000000 ) );
#277 = DIRECTION( '', ( 0.000000000000000, 0.000000000000000, 1.00000000000000 ) );
#278 = FILL_AREA_STYLE( '', ( #312 ) );
#279 = EDGE_CURVE( '', #313, #313, #314, .T. );
#280 = EDGE_CURVE( '', #315, #316, #317, .T. );
#281 = EDGE_CURVE( '', #318, #316, #319, .T. );
#282 = EDGE_CURVE( '', #318, #320, #321, .F. );
#283 = EDGE_CURVE( '', #315, #320, #322, .F. );
#284 = FILL_AREA_STYLE( '', ( #323 ) );
#285 = EDGE_CURVE( '', #324, #324, #325, .T. );
#286 = FILL_AREA_STYLE( '', ( #326 ) );
#287 = EDGE_CURVE( '', #327, #327, #328, .T. );
#288 = EDGE_CURVE( '', #329, #330, #331, .T. );
#289 = EDGE_CURVE( '', #330, #332, #333, .T. );
#290 = EDGE_CURVE( '', #332, #334, #335, .F. );
#291 = EDGE_CURVE( '', #329, #334, #336, .F. );
#292 = FILL_AREA_STYLE( '', ( #337 ) );
#293 = EDGE_CURVE( '', #330, #332, #338, .T. );
#294 = FILL_AREA_STYLE( '', ( #339 ) );
#295 = EDGE_CURVE( '', #340, #340, #341, .T. );
#296 = EDGE_CURVE( '', #342, #342, #343, .T. );
#297 = FILL_AREA_STYLE( '', ( #344 ) );
#298 = EDGE_CURVE( '', #316, #318, #345, .T. );
#299 = EDGE_CURVE( '', #315, #334, #346, .T. );
#300 = EDGE_CURVE( '', #329, #320, #347, .T. );
#301 = FILL_AREA_STYLE( '', ( #348 ) );
#302 = FILL_AREA_STYLE( '', ( #349 ) );
#303 = EDGE_CURVE( '', #350, #350, #351, .T. );
#304 = EDGE_CURVE( '', #352, #352, #353, .T. );
#305 = FILL_AREA_STYLE( '', ( #354 ) );
#306 = EDGE_CURVE( '', #355, #355, #356, .T. );
#307 = FILL_AREA_STYLE( '', ( #357 ) );
#308 = CARTESIAN_POINT( '', ( -1.20256541412155E-14, 36.0000000000000, 0.000000000000000 ) );
#309 = FILL_AREA_STYLE( '', ( #358 ) );
#310 = FILL_AREA_STYLE( '', ( #359 ) );
#311 = FILL_AREA_STYLE( '', ( #360 ) );
#312 = FILL_AREA_STYLE_COLOUR( '', #361 );
#313 = VERTEX_POINT( '', #362 );
#314 = CIRCLE( '', #363, 4.55000000000000 );
#315 = VERTEX_POINT( '', #364 );
#316 = VERTEX_POINT( '', #365 );
#317 = LINE( '', #366, #367 );
#318 = VERTEX_POINT( '', #368 );
#319 = LINE( '', #369, #370 );
#320 = VERTEX_POINT( '', #371 );
#321 = LINE( '', #372, #373 );
#322 = CIRCLE( '', #374, 7.48331477350000 );
#323 = FILL_AREA_STYLE_COLOUR( '', #375 );
#324 = VERTEX_POINT( '', #376 );
#325 = CIRCLE( '', #377, 4.18800000000000 );
#326 = FILL_AREA_STYLE_COLOUR( '', #378 );
#327 = VERTEX_POINT( '', #379 );
#328 = CIRCLE( '', #380, 4.55000000000000 );
#329 = VERTEX_POINT( '', #381 );
#330 = VERTEX_POINT( '', #382 );
#331 = LINE( '', #383, #384 );
#332 = VERTEX_POINT( '', #385 );
#333 = LINE( '', #386, #387 );
#334 = VERTEX_POINT( '', #388 );
#335 = LINE( '', #389, #390 );
#336 = CIRCLE( '', #391, 7.48331477350000 );
#337 = FILL_AREA_STYLE_COLOUR( '', #392 );
#338 = CIRCLE( '', #393, 9.00000000000000 );
#339 = FILL_AREA_STYLE_COLOUR( '', #394 );
#340 = VERTEX_POINT( '', #395 );
#341 = CIRCLE( '', #396, 5.00000000000000 );
#342 = VERTEX_POINT( '', #397 );
#343 = CIRCLE( '', #398, 9.00000000000000 );
#344 = FILL_AREA_STYLE_COLOUR( '', #399 );
#345 = CIRCLE( '', #400, 9.00000000000000 );
#346 = CIRCLE( '', #401, 9.00000000000000 );
#347 = CIRCLE( '', #402, 9.00000000000000 );
#348 = FILL_AREA_STYLE_COLOUR( '', #403 );
#349 = FILL_AREA_STYLE_COLOUR( '', #404 );
#350 = VERTEX_POINT( '', #405 );
#351 = CIRCLE( '', #406, 4.05000000000000 );
#352 = VERTEX_POINT( '', #407 );
#353 = CIRCLE( '', #408, 4.05000000000000 );
#354 = FILL_AREA_STYLE_COLOUR( '', #409 );
#355 = VERTEX_POINT( '', #410 );
#356 = CIRCLE( '', #411, 4.18800000000000 );
#357 = FILL_AREA_STYLE_COLOUR( '', #412 );
#358 = FILL_AREA_STYLE_COLOUR( '', #413 );
#359 = FILL_AREA_STYLE_COLOUR( '', #414 );
#360 = FILL_AREA_STYLE_COLOUR( '', #415 );
#361 = COLOUR_RGB( '', 0.689999997600000, 0.689999997600000, 0.689999997600000 );
#362 = CARTESIAN_POINT( '', ( -5.00000000000000, 27.0000000000000, -4.55000000000000 ) );
#363 = AXIS2_PLACEMENT_3D( '', #416, #417, #418 );
#364 = CARTESIAN_POINT( '', ( -5.00000000000000, 27.0000000000000, -7.48331477354789 ) );
#365 = CARTESIAN_POINT( '', ( -5.00000000000000, 12.0000000000000, -7.48331477354788 ) );
#366 = CARTESIAN_POINT( '', ( -5.00000000000000, 0.000000000000000, -7.48331477354788 ) );
#367 = VECTOR( '', #419, 1000.00000000000 );
#368 = CARTESIAN_POINT( '', ( -5.00000000000000, 12.0000000000000, 7.48331477354788 ) );
#369 = CARTESIAN_POINT( '', ( -5.00000000000000, 12.0000000000000, 9.00000000000000 ) );
#370 = VECTOR( '', #420, 1000.00000000000 );
#371 = CARTESIAN_POINT( '', ( -5.00000000000000, 27.0000000000000, 7.48331477354788 ) );
#372 = CARTESIAN_POINT( '', ( -5.00000000000000, 0.000000000000000, 7.48331477354788 ) );
#373 = VECTOR( '', #421, 1000.00000000000 );
#374 = AXIS2_PLACEMENT_3D( '', #422, #423, #424 );
#375 = COLOUR_RGB( '', 0.689999997600000, 0.689999997600000, 0.689999997600000 );
#376 = CARTESIAN_POINT( '', ( 0.000000000000000, 12.0000000000000, -4.18800000000000 ) );
#377 = AXIS2_PLACEMENT_3D( '', #425, #426, #427 );
#378 = COLOUR_RGB( '', 0.689999997600000, 0.689999997600000, 0.689999997600000 );
#379 = CARTESIAN_POINT( '', ( 5.00000000000000, 27.0000000000000, -4.55000000000000 ) );
#380 = AXIS2_PLACEMENT_3D( '', #428, #429, #430 );
#381 = CARTESIAN_POINT( '', ( 5.00000000000000, 27.0000000000000, 7.48331477354789 ) );
#382 = CARTESIAN_POINT( '', ( 5.00000000000000, 12.0000000000000, 7.48331477354788 ) );
#383 = CARTESIAN_POINT( '', ( 5.00000000000000, 0.000000000000000, 7.48331477354788 ) );
#384 = VECTOR( '', #431, 1000.00000000000 );
#385 = CARTESIAN_POINT( '', ( 5.00000000000000, 12.0000000000000, -7.48331477354788 ) );
#386 = CARTESIAN_POINT( '', ( 5.00000000000000, 12.0000000000000, 9.00000000000000 ) );
#387 = VECTOR( '', #432, 1000.00000000000 );
#388 = CARTESIAN_POINT( '', ( 5.00000000000000, 27.0000000000000, -7.48331477354788 ) );
#389 = CARTESIAN_POINT( '', ( 5.00000000000000, 0.000000000000000, -7.48331477354788 ) );
#390 = VECTOR( '', #433, 1000.00000000000 );
#391 = AXIS2_PLACEMENT_3D( '', #434, #435, #436 );
#392 = COLOUR_RGB( '', 0.689999997600000, 0.689999997600000, 0.689999997600000 );
#393 = AXIS2_PLACEMENT_3D( '', #437, #438, #439 );
#394 = COLOUR_RGB( '', 0.689999997600000, 0.689999997600000, 0.689999997600000 );
#395 = CARTESIAN_POINT( '', ( 0.000000000000000, 0.000000000000000, -5.00000000000000 ) );
#396 = AXIS2_PLACEMENT_3D( '', #440, #441, #442 );
#397 = CARTESIAN_POINT( '', ( 0.000000000000000, 0.000000000000000, -9.00000000000000 ) );
#398 = AXIS2_PLACEMENT_3D( '', #443, #444, #445 );
#399 = COLOUR_RGB( '', 0.689999997600000, 0.689999997600000, 0.689999997600000 );
#400 = AXIS2_PLACEMENT_3D( '', #446, #447, #448 );
#401 = AXIS2_PLACEMENT_3D( '', #449, #450, #451 );
#402 = AXIS2_PLACEMENT_3D( '', #452, #453, #454 );
#403 = COLOUR_RGB( '', 0.689999997600000, 0.689999997600000, 0.689999997600000 );
#404 = COLOUR_RGB( '', 0.689999997600000, 0.689999997600000, 0.689999997600000 );
#405 = CARTESIAN_POINT( '', ( 4.50000000000000, 27.0000000000000, -4.05000000000000 ) );
#406 = AXIS2_PLACEMENT_3D( '', #455, #456, #457 );
#407 = CARTESIAN_POINT( '', ( -4.50000000000000, 27.0000000000000, -4.05000000000000 ) );
#408 = AXIS2_PLACEMENT_3D( '', #458, #459, #460 );
#409 = COLOUR_RGB( '', 0.689999997600000, 0.689999997600000, 0.689999997600000 );
#410 = CARTESIAN_POINT( '', ( 0.000000000000000, 0.812000000000000, -4.18800000000000 ) );
#411 = AXIS2_PLACEMENT_3D( '', #461, #462, #463 );
#412 = COLOUR_RGB( '', 0.689999997600000, 0.689999997600000, 0.689999997600000 );
#413 = COLOUR_RGB( '', 0.689999997600000, 0.689999997600000, 0.689999997600000 );
#414 = COLOUR_RGB( '', 0.689999997600000, 0.689999997600000, 0.689999997600000 );
#415 = COLOUR_RGB( '', 0.689999997600000, 0.689999997600000, 0.689999997600000 );
#416 = CARTESIAN_POINT( '', ( -5.00000000000000, 27.0000000000000, 0.000000000000000 ) );
#417 = DIRECTION( '', ( 1.00000000000000, 0.000000000000000, -0.000000000000000 ) );
#418 = DIRECTION( '', ( -0.000000000000000, 0.000000000000000, -1.00000000000000 ) );
#419 = DIRECTION( '', ( -0.000000000000000, -1.00000000000000, -0.000000000000000 ) );
#420 = DIRECTION( '', ( -0.000000000000000, -0.000000000000000, -1.00000000000000 ) );
#421 = DIRECTION( '', ( -0.000000000000000, -1.00000000000000, -0.000000000000000 ) );
#422 = CARTESIAN_POINT( '', ( -5.00000000000000, 27.0000000000000, 0.000000000000000 ) );
#423 = DIRECTION( '', ( -1.00000000000000, 0.000000000000000, 0.000000000000000 ) );
#424 = DIRECTION( '', ( 0.000000000000000, 0.000000000000000, 1.00000000000000 ) );
#425 = CARTESIAN_POINT( '', ( 0.000000000000000, 12.0000000000000, 0.000000000000000 ) );
#426 = DIRECTION( '', ( 0.000000000000000, -1.00000000000000, -0.000000000000000 ) );
#427 = DIRECTION( '', ( 0.000000000000000, 0.000000000000000, -1.00000000000000 ) );
#428 = CARTESIAN_POINT( '', ( 5.00000000000000, 27.0000000000000, 0.000000000000000 ) );
#429 = DIRECTION( '', ( 1.00000000000000, 0.000000000000000, -0.000000000000000 ) );
#430 = DIRECTION( '', ( -0.000000000000000, 0.000000000000000, -1.00000000000000 ) );
#431 = DIRECTION( '', ( -0.000000000000000, -1.00000000000000, -0.000000000000000 ) );
#432 = DIRECTION( '', ( -0.000000000000000, -0.000000000000000, -1.00000000000000 ) );
#433 = DIRECTION( '', ( -0.000000000000000, -1.00000000000000, -0.000000000000000 ) );
#434 = CARTESIAN_POINT( '', ( 5.00000000000000, 27.0000000000000, 0.000000000000000 ) );
#435 = DIRECTION( '', ( 1.00000000000000, 0.000000000000000, -0.000000000000000 ) );
#436 = DIRECTION( '', ( -0.000000000000000, 0.000000000000000, -1.00000000000000 ) );
#437 = CARTESIAN_POINT( '', ( 0.000000000000000, 12.0000000000000, 0.000000000000000 ) );
#438 = DIRECTION( '', ( 0.000000000000000, 1.00000000000000, 0.000000000000000 ) );
#439 = DIRECTION( '', ( 0.000000000000000, -0.000000000000000, 1.00000000000000 ) );
#440 = CARTESIAN_POINT( '', ( 0.000000000000000, 0.000000000000000, 0.000000000000000 ) );
#441 = DIRECTION( '', ( 0.000000000000000, -1.00000000000000, -0.000000000000000 ) );
#442 = DIRECTION( '', ( 0.000000000000000, 0.000000000000000, -1.00000000000000 ) );
#443 = CARTESIAN_POINT( '', ( 0.000000000000000, 0.000000000000000, 0.000000000000000 ) );
#444 = DIRECTION( '', ( 0.000000000000000, -1.00000000000000, -0.000000000000000 ) );
#445 = DIRECTION( '', ( 0.000000000000000, 0.000000000000000, -1.00000000000000 ) );
#446 = CARTESIAN_POINT( '', ( 0.000000000000000, 12.0000000000000, 0.000000000000000 ) );
#447 = DIRECTION( '', ( 0.000000000000000, 1.00000000000000, 0.000000000000000 ) );
#448 = DIRECTION( '', ( 0.000000000000000, -0.000000000000000, 1.00000000000000 ) );
#449 = CARTESIAN_POINT( '', ( 0.000000000000000, 27.0000000000000, 0.000000000000000 ) );
#450 = DIRECTION( '', ( 0.000000000000000, -1.00000000000000, -0.000000000000000 ) );
#451 = DIRECTION( '', ( 0.000000000000000, 0.000000000000000, -1.00000000000000 ) );
#452 = CARTESIAN_POINT( '', ( 0.000000000000000, 27.0000000000000, 0.000000000000000 ) );
#453 = DIRECTION( '', ( 0.000000000000000, -1.00000000000000, -0.000000000000000 ) );
#454 = DIRECTION( '', ( 0.000000000000000, 0.000000000000000, -1.00000000000000 ) );
#455 = CARTESIAN_POINT( '', ( 4.50000000000000, 27.0000000000000, 0.000000000000000 ) );
#456 = DIRECTION( '', ( 1.00000000000000, 0.000000000000000, -0.000000000000000 ) );
#457 = DIRECTION( '', ( -0.000000000000000, 0.000000000000000, -1.00000000000000 ) );
#458 = CARTESIAN_POINT( '', ( -4.50000000000000, 27.0000000000000, 0.000000000000000 ) );
#459 = DIRECTION( '', ( 1.00000000000000, 0.000000000000000, -0.000000000000000 ) );
#460 = DIRECTION( '', ( -0.000000000000000, 0.000000000000000, -1.00000000000000 ) );
#461 = CARTESIAN_POINT( '', ( 0.000000000000000, 0.812000000000000, 0.000000000000000 ) );
#462 = DIRECTION( '', ( 0.000000000000000, -1.00000000000000, -0.000000000000000 ) );
#463 = DIRECTION( '', ( 0.000000000000000, 0.000000000000000, -1.00000000000000 ) );
ENDSEC;
END-ISO-10303-21;
