ISO-10303-21;
HEADER;
FILE_DESCRIPTION( ( 'STEP AP214' ), '1' );
FILE_NAME( '//goodhand-server/Shared Folders/GoodHand Data/Kipp CAD/K0712/K0712.1612.stp', '2020-12-09T12:34:41', ( '' ), ( '' ), ' ', 'PARTsolutions', ' ' );
FILE_SCHEMA( ( 'AUTOMOTIVE_DESIGN { 1 0 10303 214 1 1 1 1 }' ) );
ENDSEC;
DATA;
#1 = MECHANICAL_DESIGN_GEOMETRIC_PRESENTATION_REPRESENTATION( ' ', ( #10, #11, #12, #13, #14, #15, #16, #17, #18, #19, #20, #21, #22 ), #6 );
#2 = PRODUCT_DEFINITION_CONTEXT( '', #23, 'design' );
#3 = APPLICATION_PROTOCOL_DEFINITION( 'international standard', 'automotive_design', 2001, #23 );
#4 = PRODUCT_CATEGORY_RELATIONSHIP( 'NONE', 'NONE', #24, #25 );
#5 = SHAPE_DEFINITION_REPRESENTATION( #26, #27 );
#6 =  ( GEOMETRIC_REPRESENTATION_CONTEXT( 3 )GLOBAL_UNCERTAINTY_ASSIGNED_CONTEXT( ( #30 ) )GLOBAL_UNIT_ASSIGNED_CONTEXT( ( #32, #33, #34 ) )REPRESENTATION_CONTEXT( 'NONE', 'WORKSPACE' ) );
#10 = STYLED_ITEM( '', ( #36 ), #37 );
#11 = STYLED_ITEM( '', ( #38 ), #39 );
#12 = STYLED_ITEM( '', ( #40 ), #41 );
#13 = STYLED_ITEM( '', ( #42 ), #43 );
#14 = STYLED_ITEM( '', ( #44 ), #45 );
#15 = STYLED_ITEM( '', ( #46 ), #47 );
#16 = STYLED_ITEM( '', ( #48 ), #49 );
#17 = STYLED_ITEM( '', ( #50 ), #51 );
#18 = STYLED_ITEM( '', ( #52 ), #53 );
#19 = STYLED_ITEM( '', ( #54 ), #55 );
#20 = STYLED_ITEM( '', ( #56 ), #57 );
#21 = STYLED_ITEM( '', ( #58 ), #59 );
#22 = STYLED_ITEM( '', ( #60 ), #61 );
#23 = APPLICATION_CONTEXT( 'core data for automotive mechanical design processes' );
#24 = PRODUCT_CATEGORY( 'part', 'NONE' );
#25 = PRODUCT_RELATED_PRODUCT_CATEGORY( 'detail', ' ', ( #62 ) );
#26 = PRODUCT_DEFINITION_SHAPE( 'NONE', 'NONE', #63 );
#27 = ADVANCED_BREP_SHAPE_REPRESENTATION( '_K0712.1612', ( #64, #65 ), #6 );
#30 = UNCERTAINTY_MEASURE_WITH_UNIT( LENGTH_MEASURE( 0.00100000000000000 ), #32, '', '' );
#32 =  ( CONVERSION_BASED_UNIT( 'MILLIMETRE', #68 )LENGTH_UNIT(  )NAMED_UNIT( #71 ) );
#33 =  ( NAMED_UNIT( #73 )PLANE_ANGLE_UNIT(  )SI_UNIT( $, .RADIAN. ) );
#34 =  ( NAMED_UNIT( #73 )SI_UNIT( $, .STERADIAN. )SOLID_ANGLE_UNIT(  ) );
#36 = PRESENTATION_STYLE_ASSIGNMENT( ( #79 ) );
#37 = ADVANCED_FACE( '', ( #80, #81 ), #82, .F. );
#38 = PRESENTATION_STYLE_ASSIGNMENT( ( #83 ) );
#39 = ADVANCED_FACE( '', ( #84, #85 ), #86, .F. );
#40 = PRESENTATION_STYLE_ASSIGNMENT( ( #87 ) );
#41 = ADVANCED_FACE( '', ( #88, #89 ), #90, .T. );
#42 = PRESENTATION_STYLE_ASSIGNMENT( ( #91 ) );
#43 = ADVANCED_FACE( '', ( #92, #93, #94 ), #95, .F. );
#44 = PRESENTATION_STYLE_ASSIGNMENT( ( #96 ) );
#45 = ADVANCED_FACE( '', ( #97, #98 ), #99, .F. );
#46 = PRESENTATION_STYLE_ASSIGNMENT( ( #100 ) );
#47 = ADVANCED_FACE( '', ( #101, #102 ), #103, .F. );
#48 = PRESENTATION_STYLE_ASSIGNMENT( ( #104 ) );
#49 = ADVANCED_FACE( '', ( #105, #106 ), #107, .F. );
#50 = PRESENTATION_STYLE_ASSIGNMENT( ( #108 ) );
#51 = ADVANCED_FACE( '', ( #109, #110 ), #111, .F. );
#52 = PRESENTATION_STYLE_ASSIGNMENT( ( #112 ) );
#53 = ADVANCED_FACE( '', ( #113, #114 ), #115, .T. );
#54 = PRESENTATION_STYLE_ASSIGNMENT( ( #116 ) );
#55 = ADVANCED_FACE( '', ( #117, #118 ), #119, .F. );
#56 = PRESENTATION_STYLE_ASSIGNMENT( ( #120 ) );
#57 = ADVANCED_FACE( '', ( #121, #122 ), #123, .F. );
#58 = PRESENTATION_STYLE_ASSIGNMENT( ( #124 ) );
#59 = ADVANCED_FACE( '', ( #125, #126 ), #127, .T. );
#60 = PRESENTATION_STYLE_ASSIGNMENT( ( #128 ) );
#61 = ADVANCED_FACE( '', ( #129, #130 ), #131, .T. );
#62 = PRODUCT( '_K0712.1612', '_K0712.1612', 'PART-_K0712.1612-DESC', ( #132 ) );
#63 = PRODUCT_DEFINITION( 'NONE', 'NONE', #133, #2 );
#64 = MANIFOLD_SOLID_BREP( '_K0712.1612', #134 );
#65 = AXIS2_PLACEMENT_3D( '', #135, #136, #137 );
#68 = LENGTH_MEASURE_WITH_UNIT( LENGTH_MEASURE( 1.00000000000000 ), #138 );
#71 = DIMENSIONAL_EXPONENTS( 1.00000000000000, 0.000000000000000, 0.000000000000000, 0.000000000000000, 0.000000000000000, 0.000000000000000, 0.000000000000000 );
#73 = DIMENSIONAL_EXPONENTS( 0.000000000000000, 0.000000000000000, 0.000000000000000, 0.000000000000000, 0.000000000000000, 0.000000000000000, 0.000000000000000 );
#79 = SURFACE_STYLE_USAGE( .BOTH., #139 );
#80 = FACE_BOUND( '', #140, .T. );
#81 = FACE_OUTER_BOUND( '', #141, .T. );
#82 = PLANE( '', #142 );
#83 = SURFACE_STYLE_USAGE( .BOTH., #143 );
#84 = FACE_OUTER_BOUND( '', #144, .T. );
#85 = FACE_BOUND( '', #145, .T. );
#86 = CONICAL_SURFACE( '', #146, 857.167300702100, 1.02974425870000 );
#87 = SURFACE_STYLE_USAGE( .BOTH., #147 );
#88 = FACE_OUTER_BOUND( '', #148, .T. );
#89 = FACE_OUTER_BOUND( '', #149, .T. );
#90 = TOROIDAL_SURFACE( '', #150, 7.20000000000000, 0.800000000000000 );
#91 = SURFACE_STYLE_USAGE( .BOTH., #151 );
#92 = FACE_BOUND( '', #152, .T. );
#93 = FACE_OUTER_BOUND( '', #153, .T. );
#94 = FACE_OUTER_BOUND( '', #154, .T. );
#95 = TOROIDAL_SURFACE( '', #155, 8.00000000000000, 1.06666666670000 );
#96 = SURFACE_STYLE_USAGE( .BOTH., #156 );
#97 = FACE_OUTER_BOUND( '', #157, .T. );
#98 = FACE_OUTER_BOUND( '', #158, .T. );
#99 = TOROIDAL_SURFACE( '', #159, 9.60000000000000, 1.60000000000000 );
#100 = SURFACE_STYLE_USAGE( .BOTH., #160 );
#101 = FACE_OUTER_BOUND( '', #161, .T. );
#102 = FACE_OUTER_BOUND( '', #162, .T. );
#103 = CYLINDRICAL_SURFACE( '', #163, 8.00000000000000 );
#104 = SURFACE_STYLE_USAGE( .BOTH., #164 );
#105 = FACE_BOUND( '', #165, .T. );
#106 = FACE_OUTER_BOUND( '', #166, .T. );
#107 = SPHERICAL_SURFACE( '', #167, 8.00000000000000 );
#108 = SURFACE_STYLE_USAGE( .BOTH., #168 );
#109 = FACE_OUTER_BOUND( '', #169, .T. );
#110 = FACE_OUTER_BOUND( '', #170, .T. );
#111 = CYLINDRICAL_SURFACE( '', #171, 5.05300000000000 );
#112 = SURFACE_STYLE_USAGE( .BOTH., #172 );
#113 = FACE_OUTER_BOUND( '', #173, .T. );
#114 = FACE_OUTER_BOUND( '', #174, .T. );
#115 = CYLINDRICAL_SURFACE( '', #175, 8.00000000000000 );
#116 = SURFACE_STYLE_USAGE( .BOTH., #176 );
#117 = FACE_OUTER_BOUND( '', #177, .T. );
#118 = FACE_BOUND( '', #178, .T. );
#119 = CONICAL_SURFACE( '', #179, 5.05300000000000, 0.785398163400000 );
#120 = SURFACE_STYLE_USAGE( .BOTH., #180 );
#121 = FACE_OUTER_BOUND( '', #181, .T. );
#122 = FACE_OUTER_BOUND( '', #182, .T. );
#123 = CYLINDRICAL_SURFACE( '', #183, 8.00000000000000 );
#124 = SURFACE_STYLE_USAGE( .BOTH., #184 );
#125 = FACE_BOUND( '', #185, .T. );
#126 = FACE_OUTER_BOUND( '', #186, .T. );
#127 = PLANE( '', #187 );
#128 = SURFACE_STYLE_USAGE( .BOTH., #188 );
#129 = FACE_BOUND( '', #189, .T. );
#130 = FACE_OUTER_BOUND( '', #190, .T. );
#131 = SPHERICAL_SURFACE( '', #191, 13.6000000000000 );
#132 = PRODUCT_CONTEXT( '', #23, 'mechanical' );
#133 = PRODUCT_DEFINITION_FORMATION_WITH_SPECIFIED_SOURCE( ' ', 'NONE', #62, .NOT_KNOWN. );
#134 = CLOSED_SHELL( '', ( #39, #51, #47, #61, #45, #53, #59, #37, #41, #55, #43, #57, #49 ) );
#135 = CARTESIAN_POINT( '', ( 0.000000000000000, 0.000000000000000, 0.000000000000000 ) );
#136 = DIRECTION( '', ( 0.000000000000000, 0.000000000000000, 1.00000000000000 ) );
#137 = DIRECTION( '', ( 1.00000000000000, 0.000000000000000, 0.000000000000000 ) );
#138 =  ( LENGTH_UNIT(  )NAMED_UNIT( #71 )SI_UNIT( .MILLI., .METRE. ) );
#139 = SURFACE_SIDE_STYLE( '', ( #193 ) );
#140 = EDGE_LOOP( '', ( #194 ) );
#141 = EDGE_LOOP( '', ( #195 ) );
#142 = AXIS2_PLACEMENT_3D( '', #196, #197, #198 );
#143 = SURFACE_SIDE_STYLE( '', ( #199 ) );
#144 = EDGE_LOOP( '', ( #200 ) );
#145 = VERTEX_LOOP( '', #201 );
#146 = AXIS2_PLACEMENT_3D( '', #202, #203, #204 );
#147 = SURFACE_SIDE_STYLE( '', ( #205 ) );
#148 = EDGE_LOOP( '', ( #206 ) );
#149 = EDGE_LOOP( '', ( #207 ) );
#150 = AXIS2_PLACEMENT_3D( '', #208, #209, #210 );
#151 = SURFACE_SIDE_STYLE( '', ( #211 ) );
#152 = VERTEX_LOOP( '', #212 );
#153 = EDGE_LOOP( '', ( #213 ) );
#154 = EDGE_LOOP( '', ( #214 ) );
#155 = AXIS2_PLACEMENT_3D( '', #215, #216, #217 );
#156 = SURFACE_SIDE_STYLE( '', ( #218 ) );
#157 = EDGE_LOOP( '', ( #219 ) );
#158 = EDGE_LOOP( '', ( #220, #221 ) );
#159 = AXIS2_PLACEMENT_3D( '', #222, #223, #224 );
#160 = SURFACE_SIDE_STYLE( '', ( #225 ) );
#161 = EDGE_LOOP( '', ( #226 ) );
#162 = EDGE_LOOP( '', ( #227 ) );
#163 = AXIS2_PLACEMENT_3D( '', #228, #229, #230 );
#164 = SURFACE_SIDE_STYLE( '', ( #231 ) );
#165 = VERTEX_LOOP( '', #232 );
#166 = EDGE_LOOP( '', ( #233 ) );
#167 = AXIS2_PLACEMENT_3D( '', #234, #235, #236 );
#168 = SURFACE_SIDE_STYLE( '', ( #237 ) );
#169 = EDGE_LOOP( '', ( #238 ) );
#170 = EDGE_LOOP( '', ( #239 ) );
#171 = AXIS2_PLACEMENT_3D( '', #240, #241, #242 );
#172 = SURFACE_SIDE_STYLE( '', ( #243 ) );
#173 = EDGE_LOOP( '', ( #244 ) );
#174 = EDGE_LOOP( '', ( #245 ) );
#175 = AXIS2_PLACEMENT_3D( '', #246, #247, #248 );
#176 = SURFACE_SIDE_STYLE( '', ( #249 ) );
#177 = EDGE_LOOP( '', ( #250 ) );
#178 = EDGE_LOOP( '', ( #251 ) );
#179 = AXIS2_PLACEMENT_3D( '', #252, #253, #254 );
#180 = SURFACE_SIDE_STYLE( '', ( #255 ) );
#181 = EDGE_LOOP( '', ( #256 ) );
#182 = EDGE_LOOP( '', ( #257 ) );
#183 = AXIS2_PLACEMENT_3D( '', #258, #259, #260 );
#184 = SURFACE_SIDE_STYLE( '', ( #261 ) );
#185 = EDGE_LOOP( '', ( #262 ) );
#186 = EDGE_LOOP( '', ( #263, #264 ) );
#187 = AXIS2_PLACEMENT_3D( '', #265, #266, #267 );
#188 = SURFACE_SIDE_STYLE( '', ( #268 ) );
#189 = VERTEX_LOOP( '', #269 );
#190 = EDGE_LOOP( '', ( #270, #271 ) );
#191 = AXIS2_PLACEMENT_3D( '', #272, #273, #274 );
#193 = SURFACE_STYLE_FILL_AREA( #275 );
#194 = ORIENTED_EDGE( '', *, *, #276, .F. );
#195 = ORIENTED_EDGE( '', *, *, #277, .T. );
#196 = CARTESIAN_POINT( '', ( 35.0000000000000, 7.20000000000000, 0.000000000000000 ) );
#197 = DIRECTION( '', ( -1.00000000000000, 0.000000000000000, 0.000000000000000 ) );
#198 = DIRECTION( '', ( 0.000000000000000, 0.000000000000000, 1.00000000000000 ) );
#199 = SURFACE_STYLE_FILL_AREA( #278 );
#200 = ORIENTED_EDGE( '', *, *, #279, .T. );
#201 = VERTEX_POINT( '', #280 );
#202 = CARTESIAN_POINT( '', ( 529.501926202108, 0.000000000000000, 0.000000000000000 ) );
#203 = DIRECTION( '', ( 1.00000000000000, -0.000000000000000, -0.000000000000000 ) );
#204 = DIRECTION( '', ( -0.000000000000000, 0.000000000000000, -1.00000000000000 ) );
#205 = SURFACE_STYLE_FILL_AREA( #281 );
#206 = ORIENTED_EDGE( '', *, *, #282, .T. );
#207 = ORIENTED_EDGE( '', *, *, #277, .F. );
#208 = CARTESIAN_POINT( '', ( 34.2000000000000, 0.000000000000000, 0.000000000000000 ) );
#209 = DIRECTION( '', ( 1.00000000000000, 0.000000000000000, -0.000000000000000 ) );
#210 = DIRECTION( '', ( -0.000000000000000, 0.000000000000000, -1.00000000000000 ) );
#211 = SURFACE_STYLE_FILL_AREA( #283 );
#212 = VERTEX_POINT( '', #284 );
#213 = ORIENTED_EDGE( '', *, *, #285, .F. );
#214 = ORIENTED_EDGE( '', *, *, #286, .T. );
#215 = CARTESIAN_POINT( '', ( 5.20417042793042E-15, -3.20000000000000, 0.000000000000000 ) );
#216 = DIRECTION( '', ( 1.07657990266682E-16, -1.00000000000000, -0.000000000000000 ) );
#217 = DIRECTION( '', ( 1.00000000000000, 1.07657990266682E-16, 0.000000000000000 ) );
#218 = SURFACE_STYLE_FILL_AREA( #287 );
#219 = ORIENTED_EDGE( '', *, *, #288, .F. );
#220 = ORIENTED_EDGE( '', *, *, #289, .F. );
#221 = ORIENTED_EDGE( '', *, *, #290, .T. );
#222 = CARTESIAN_POINT( '', ( 11.7847358901250, 0.000000000000000, 0.000000000000000 ) );
#223 = DIRECTION( '', ( 1.00000000000000, 0.000000000000000, -0.000000000000000 ) );
#224 = DIRECTION( '', ( -0.000000000000000, 0.000000000000000, -1.00000000000000 ) );
#225 = SURFACE_STYLE_FILL_AREA( #291 );
#226 = ORIENTED_EDGE( '', *, *, #292, .F. );
#227 = ORIENTED_EDGE( '', *, *, #286, .F. );
#228 = CARTESIAN_POINT( '', ( 7.10542735760100E-15, -16.0000000000000, 0.000000000000000 ) );
#229 = DIRECTION( '', ( -1.07657990266682E-16, 1.00000000000000, 0.000000000000000 ) );
#230 = DIRECTION( '', ( 1.00000000000000, 1.07657990266682E-16, 0.000000000000000 ) );
#231 = SURFACE_STYLE_FILL_AREA( #293 );
#232 = VERTEX_POINT( '', #294 );
#233 = ORIENTED_EDGE( '', *, *, #295, .T. );
#234 = CARTESIAN_POINT( '', ( -3.90312782094782E-15, 2.60208521396521E-15, 0.000000000000000 ) );
#235 = DIRECTION( '', ( 0.000000000000000, -1.00000000000000, 0.000000000000000 ) );
#236 = DIRECTION( '', ( 1.00000000000000, 0.000000000000000, 0.000000000000000 ) );
#237 = SURFACE_STYLE_FILL_AREA( #296 );
#238 = ORIENTED_EDGE( '', *, *, #297, .T. );
#239 = ORIENTED_EDGE( '', *, *, #279, .F. );
#240 = CARTESIAN_POINT( '', ( 35.0000000000000, 0.000000000000000, 0.000000000000000 ) );
#241 = DIRECTION( '', ( -1.00000000000000, -0.000000000000000, 0.000000000000000 ) );
#242 = DIRECTION( '', ( -0.000000000000000, 0.000000000000000, -1.00000000000000 ) );
#243 = SURFACE_STYLE_FILL_AREA( #298 );
#244 = ORIENTED_EDGE( '', *, *, #282, .F. );
#245 = ORIENTED_EDGE( '', *, *, #288, .T. );
#246 = CARTESIAN_POINT( '', ( 35.0000000000000, 0.000000000000000, 0.000000000000000 ) );
#247 = DIRECTION( '', ( -1.00000000000000, -0.000000000000000, 0.000000000000000 ) );
#248 = DIRECTION( '', ( -0.000000000000000, 0.000000000000000, -1.00000000000000 ) );
#249 = SURFACE_STYLE_FILL_AREA( #299 );
#250 = ORIENTED_EDGE( '', *, *, #276, .T. );
#251 = ORIENTED_EDGE( '', *, *, #297, .F. );
#252 = CARTESIAN_POINT( '', ( 34.0530000000000, 0.000000000000000, 0.000000000000000 ) );
#253 = DIRECTION( '', ( 1.00000000000000, -0.000000000000000, -0.000000000000000 ) );
#254 = DIRECTION( '', ( -0.000000000000000, 0.000000000000000, -1.00000000000000 ) );
#255 = SURFACE_STYLE_FILL_AREA( #300 );
#256 = ORIENTED_EDGE( '', *, *, #285, .T. );
#257 = ORIENTED_EDGE( '', *, *, #295, .F. );
#258 = CARTESIAN_POINT( '', ( 7.10542735760100E-15, -16.0000000000000, 0.000000000000000 ) );
#259 = DIRECTION( '', ( -1.07657990266682E-16, 1.00000000000000, 0.000000000000000 ) );
#260 = DIRECTION( '', ( 1.00000000000000, 1.07657990266682E-16, 0.000000000000000 ) );
#261 = SURFACE_STYLE_FILL_AREA( #301 );
#262 = ORIENTED_EDGE( '', *, *, #292, .T. );
#263 = ORIENTED_EDGE( '', *, *, #289, .T. );
#264 = ORIENTED_EDGE( '', *, *, #302, .F. );
#265 = CARTESIAN_POINT( '', ( 16.3686221541247, -8.09371415207498, 16.0000000000000 ) );
#266 = DIRECTION( '', ( 0.0436193873653360, -0.999048221581858, 0.000000000000000 ) );
#267 = DIRECTION( '', ( 0.999048221581858, 0.0436193873653360, 0.000000000000000 ) );
#268 = SURFACE_STYLE_FILL_AREA( #303 );
#269 = VERTEX_POINT( '', #304 );
#270 = ORIENTED_EDGE( '', *, *, #290, .F. );
#271 = ORIENTED_EDGE( '', *, *, #302, .T. );
#272 = CARTESIAN_POINT( '', ( 1.73472347597681E-15, 0.000000000000000, 0.000000000000000 ) );
#273 = DIRECTION( '', ( 1.00000000000000, 0.000000000000000, 0.000000000000000 ) );
#274 = DIRECTION( '', ( 0.000000000000000, 1.00000000000000, 0.000000000000000 ) );
#275 = FILL_AREA_STYLE( '', ( #305 ) );
#276 = EDGE_CURVE( '', #306, #306, #307, .T. );
#277 = EDGE_CURVE( '', #308, #308, #309, .T. );
#278 = FILL_AREA_STYLE( '', ( #310 ) );
#279 = EDGE_CURVE( '', #311, #311, #312, .T. );
#280 = CARTESIAN_POINT( '', ( 14.4638512920537, 0.000000000000000, 0.000000000000000 ) );
#281 = FILL_AREA_STYLE( '', ( #313 ) );
#282 = EDGE_CURVE( '', #314, #314, #315, .T. );
#283 = FILL_AREA_STYLE( '', ( #316 ) );
#284 = CARTESIAN_POINT( '', ( 9.06666666666666, -3.20000000000000, 0.000000000000000 ) );
#285 = EDGE_CURVE( '', #317, #317, #318, .T. );
#286 = EDGE_CURVE( '', #319, #319, #320, .T. );
#287 = FILL_AREA_STYLE( '', ( #321 ) );
#288 = EDGE_CURVE( '', #322, #322, #323, .T. );
#289 = EDGE_CURVE( '', #324, #325, #326, .T. );
#290 = EDGE_CURVE( '', #324, #325, #327, .T. );
#291 = FILL_AREA_STYLE( '', ( #328 ) );
#292 = EDGE_CURVE( '', #329, #329, #330, .F. );
#293 = FILL_AREA_STYLE( '', ( #331 ) );
#294 = CARTESIAN_POINT( '', ( -4.27453302342233E-15, 8.00000000000000, 0.000000000000000 ) );
#295 = EDGE_CURVE( '', #332, #332, #333, .T. );
#296 = FILL_AREA_STYLE( '', ( #334 ) );
#297 = EDGE_CURVE( '', #335, #335, #336, .T. );
#298 = FILL_AREA_STYLE( '', ( #337 ) );
#299 = FILL_AREA_STYLE( '', ( #338 ) );
#300 = FILL_AREA_STYLE( '', ( #339 ) );
#301 = FILL_AREA_STYLE( '', ( #340 ) );
#302 = EDGE_CURVE( '', #324, #325, #341, .F. );
#303 = FILL_AREA_STYLE( '', ( #342 ) );
#304 = CARTESIAN_POINT( '', ( -13.6000000000000, 8.32759823420200E-16, 0.000000000000000 ) );
#305 = FILL_AREA_STYLE_COLOUR( '', #343 );
#306 = VERTEX_POINT( '', #344 );
#307 = CIRCLE( '', #345, 6.00000000000000 );
#308 = VERTEX_POINT( '', #346 );
#309 = CIRCLE( '', #347, 7.20000000000000 );
#310 = FILL_AREA_STYLE_COLOUR( '', #348 );
#311 = VERTEX_POINT( '', #349 );
#312 = CIRCLE( '', #350, 5.05300000000000 );
#313 = FILL_AREA_STYLE_COLOUR( '', #351 );
#314 = VERTEX_POINT( '', #352 );
#315 = CIRCLE( '', #353, 8.00000000000000 );
#316 = FILL_AREA_STYLE_COLOUR( '', #354 );
#317 = VERTEX_POINT( '', #355 );
#318 = CIRCLE( '', #356, 8.00000000000000 );
#319 = VERTEX_POINT( '', #357 );
#320 = CIRCLE( '', #358, 8.00000000000000 );
#321 = FILL_AREA_STYLE_COLOUR( '', #359 );
#322 = VERTEX_POINT( '', #360 );
#323 = CIRCLE( '', #361, 8.00000000000000 );
#324 = VERTEX_POINT( '', #362 );
#325 = VERTEX_POINT( '', #363 );
#326 = B_SPLINE_CURVE_WITH_KNOTS( '', 3, ( #364, #365, #366, #367, #368, #369, #370, #371, #372, #373 ), .UNSPECIFIED., .F., .F., ( 4, 2, 2, 2, 4 ), ( 1.01495968400682E-06, 0.00101214765443064, 0.00202328034917727, 0.00303441304392390, 0.00404554573867052 ), .UNSPECIFIED. );
#327 = CIRCLE( '', #374, 8.58947368420000 );
#328 = FILL_AREA_STYLE_COLOUR( '', #375 );
#329 = VERTEX_POINT( '', #376 );
#330 = ELLIPSE( '', #377, 8.00762148130000, 8.00000000000000 );
#331 = FILL_AREA_STYLE_COLOUR( '', #378 );
#332 = VERTEX_POINT( '', #379 );
#333 = CIRCLE( '', #380, 8.00000000000000 );
#334 = FILL_AREA_STYLE_COLOUR( '', #381 );
#335 = VERTEX_POINT( '', #382 );
#336 = CIRCLE( '', #383, 5.05300000000000 );
#337 = FILL_AREA_STYLE_COLOUR( '', #384 );
#338 = FILL_AREA_STYLE_COLOUR( '', #385 );
#339 = FILL_AREA_STYLE_COLOUR( '', #386 );
#340 = FILL_AREA_STYLE_COLOUR( '', #387 );
#341 = CIRCLE( '', #388, 10.3691851175000 );
#342 = FILL_AREA_STYLE_COLOUR( '', #389 );
#343 = COLOUR_RGB( '', 0.689999997600000, 0.689999997600000, 0.689999997600000 );
#344 = CARTESIAN_POINT( '', ( 35.0000000000000, 0.000000000000000, -6.00000000000000 ) );
#345 = AXIS2_PLACEMENT_3D( '', #390, #391, #392 );
#346 = CARTESIAN_POINT( '', ( 35.0000000000000, 0.000000000000000, -7.20000000000000 ) );
#347 = AXIS2_PLACEMENT_3D( '', #393, #394, #395 );
#348 = COLOUR_RGB( '', 0.689999997600000, 0.689999997600000, 0.689999997600000 );
#349 = CARTESIAN_POINT( '', ( 17.5000000000000, 0.000000000000000, -5.05300000000000 ) );
#350 = AXIS2_PLACEMENT_3D( '', #396, #397, #398 );
#351 = COLOUR_RGB( '', 0.689999997600000, 0.689999997600000, 0.689999997600000 );
#352 = CARTESIAN_POINT( '', ( 34.2000000000000, 0.000000000000000, -8.00000000000000 ) );
#353 = AXIS2_PLACEMENT_3D( '', #399, #400, #401 );
#354 = COLOUR_RGB( '', 0.689999997600000, 0.689999997600000, 0.689999997600000 );
#355 = CARTESIAN_POINT( '', ( 7.99999999999999, -2.13333333333333, 0.000000000000000 ) );
#356 = AXIS2_PLACEMENT_3D( '', #402, #403, #404 );
#357 = CARTESIAN_POINT( '', ( 7.99999999999999, -4.26666666666667, 0.000000000000000 ) );
#358 = AXIS2_PLACEMENT_3D( '', #405, #406, #407 );
#359 = COLOUR_RGB( '', 0.689999997600000, 0.689999997600000, 0.689999997600000 );
#360 = CARTESIAN_POINT( '', ( 11.7847358901250, 0.000000000000000, -8.00000000000000 ) );
#361 = AXIS2_PLACEMENT_3D( '', #408, #409, #410 );
#362 = CARTESIAN_POINT( '', ( 10.5442373753750, -8.34801228337717, -2.02231280674604 ) );
#363 = CARTESIAN_POINT( '', ( 10.5442373753750, -8.34801228337717, 2.02231280674604 ) );
#364 = CARTESIAN_POINT( '', ( 10.5442373753750, -8.34801228337717, -2.02231280674604 ) );
#365 = CARTESIAN_POINT( '', ( 10.6106510426782, -8.34511260004070, -1.68800503860622 ) );
#366 = CARTESIAN_POINT( '', ( 10.6757950042376, -8.34226835325422, -1.35363793578440 ) );
#367 = CARTESIAN_POINT( '', ( 10.7722795770227, -8.33805574583030, -0.683324064102160 ) );
#368 = CARTESIAN_POINT( '', ( 10.8022800224424, -8.33674589809560, -0.347314667887096 ) );
#369 = CARTESIAN_POINT( '', ( 10.8033754812282, -8.33669806933209, 0.327456837205694 ) );
#370 = CARTESIAN_POINT( '', ( 10.7742922733090, -8.33796786961265, 0.666227274551124 ) );
#371 = CARTESIAN_POINT( '', ( 10.6773870222720, -8.34219884424571, 1.34557845566823 ) );
#372 = CARTESIAN_POINT( '', ( 10.6113312740256, -8.34508290049868, 1.68458094484985 ) );
#373 = CARTESIAN_POINT( '', ( 10.5442373753750, -8.34801228337717, 2.02231280674605 ) );
#374 = AXIS2_PLACEMENT_3D( '', #411, #412, #413 );
#375 = COLOUR_RGB( '', 0.689999997600000, 0.689999997600000, 0.689999997600000 );
#376 = CARTESIAN_POINT( '', ( -7.99999999999998, -9.15767117270531, 0.000000000000000 ) );
#377 = AXIS2_PLACEMENT_3D( '', #414, #415, #416 );
#378 = COLOUR_RGB( '', 0.689999997600000, 0.689999997600000, 0.689999997600000 );
#379 = CARTESIAN_POINT( '', ( 7.99999999999999, 4.33071087408707E-15, 0.000000000000000 ) );
#380 = AXIS2_PLACEMENT_3D( '', #417, #418, #419 );
#381 = COLOUR_RGB( '', 0.689999997600000, 0.689999997600000, 0.689999997600000 );
#382 = CARTESIAN_POINT( '', ( 34.0530000000000, 0.000000000000000, -5.05300000000000 ) );
#383 = AXIS2_PLACEMENT_3D( '', #420, #421, #422 );
#384 = COLOUR_RGB( '', 0.689999997600000, 0.689999997600000, 0.689999997600000 );
#385 = COLOUR_RGB( '', 0.689999997600000, 0.689999997600000, 0.689999997600000 );
#386 = COLOUR_RGB( '', 0.689999997600000, 0.689999997600000, 0.689999997600000 );
#387 = COLOUR_RGB( '', 0.689999997600000, 0.689999997600000, 0.689999997600000 );
#388 = AXIS2_PLACEMENT_3D( '', #423, #424, #425 );
#389 = COLOUR_RGB( '', 0.689999997600000, 0.689999997600000, 0.689999997600000 );
#390 = CARTESIAN_POINT( '', ( 35.0000000000000, 0.000000000000000, 0.000000000000000 ) );
#391 = DIRECTION( '', ( 1.00000000000000, 0.000000000000000, -0.000000000000000 ) );
#392 = DIRECTION( '', ( -0.000000000000000, 0.000000000000000, -1.00000000000000 ) );
#393 = CARTESIAN_POINT( '', ( 35.0000000000000, 0.000000000000000, 0.000000000000000 ) );
#394 = DIRECTION( '', ( 1.00000000000000, 0.000000000000000, -0.000000000000000 ) );
#395 = DIRECTION( '', ( -0.000000000000000, 0.000000000000000, -1.00000000000000 ) );
#396 = CARTESIAN_POINT( '', ( 17.5000000000000, 0.000000000000000, 0.000000000000000 ) );
#397 = DIRECTION( '', ( 1.00000000000000, 0.000000000000000, -0.000000000000000 ) );
#398 = DIRECTION( '', ( -0.000000000000000, 0.000000000000000, -1.00000000000000 ) );
#399 = CARTESIAN_POINT( '', ( 34.2000000000000, 0.000000000000000, 0.000000000000000 ) );
#400 = DIRECTION( '', ( 1.00000000000000, 0.000000000000000, -0.000000000000000 ) );
#401 = DIRECTION( '', ( -0.000000000000000, 0.000000000000000, -1.00000000000000 ) );
#402 = CARTESIAN_POINT( '', ( 5.61256989256968E-15, -2.13333333333333, 0.000000000000000 ) );
#403 = DIRECTION( '', ( 1.07657990266682E-16, -1.00000000000000, -0.000000000000000 ) );
#404 = DIRECTION( '', ( 1.00000000000000, 1.07657990266682E-16, 0.000000000000000 ) );
#405 = CARTESIAN_POINT( '', ( 5.84224027180527E-15, -4.26666666666667, 0.000000000000000 ) );
#406 = DIRECTION( '', ( 1.07657990266682E-16, -1.00000000000000, -0.000000000000000 ) );
#407 = DIRECTION( '', ( 1.00000000000000, 1.07657990266682E-16, 0.000000000000000 ) );
#408 = CARTESIAN_POINT( '', ( 11.7847358901250, 0.000000000000000, 0.000000000000000 ) );
#409 = DIRECTION( '', ( 1.00000000000000, 0.000000000000000, -0.000000000000000 ) );
#410 = DIRECTION( '', ( -0.000000000000000, 0.000000000000000, -1.00000000000000 ) );
#411 = CARTESIAN_POINT( '', ( 10.5442373753750, 0.000000000000000, 0.000000000000000 ) );
#412 = DIRECTION( '', ( 1.00000000000000, 0.000000000000000, -0.000000000000000 ) );
#413 = DIRECTION( '', ( -0.000000000000000, 0.000000000000000, -1.00000000000000 ) );
#414 = CARTESIAN_POINT( '', ( 6.33119239237724E-15, -8.80838362943722, 0.000000000000000 ) );
#415 = DIRECTION( '', ( 0.0436193873653360, -0.999048221581858, 0.000000000000000 ) );
#416 = DIRECTION( '', ( -0.999048221581858, -0.0436193873653360, -0.000000000000000 ) );
#417 = CARTESIAN_POINT( '', ( 5.38289951333409E-15, 3.46944695195361E-15, 0.000000000000000 ) );
#418 = DIRECTION( '', ( 1.07657990266682E-16, -1.00000000000000, -0.000000000000000 ) );
#419 = DIRECTION( '', ( 1.00000000000000, 1.07657990266682E-16, 0.000000000000000 ) );
#420 = CARTESIAN_POINT( '', ( 34.0530000000000, 0.000000000000000, 0.000000000000000 ) );
#421 = DIRECTION( '', ( 1.00000000000000, 0.000000000000000, -0.000000000000000 ) );
#422 = DIRECTION( '', ( -0.000000000000000, 0.000000000000000, -1.00000000000000 ) );
#423 = CARTESIAN_POINT( '', ( 0.383850608814959, -8.79162434992035, 0.000000000000000 ) );
#424 = DIRECTION( '', ( 0.0436193873653360, -0.999048221581858, 0.000000000000000 ) );
#425 = DIRECTION( '', ( 0.999048221581858, 0.0436193873653360, 0.000000000000000 ) );
ENDSEC;
END-ISO-10303-21;
