ISO-10303-21;
HEADER;
FILE_DESCRIPTION( ( 'STEP AP214' ), '1' );
FILE_NAME( '//goodhand-server/Shared Folders/GoodHand Data/Kipp CAD/K0314/K0314.206__0_.stp', '2020-12-02T10:42:32', ( '' ), ( '' ), ' ', 'PARTsolutions', ' ' );
FILE_SCHEMA( ( 'AUTOMOTIVE_DESIGN { 1 0 10303 214 1 1 1 1 }' ) );
ENDSEC;
DATA;
#1 = MECHANICAL_DESIGN_GEOMETRIC_PRESENTATION_REPRESENTATION( ' ', ( #10, #11, #12, #13, #14, #15, #16, #17, #18, #19, #20, #21 ), #6 );
#2 = PRODUCT_DEFINITION_CONTEXT( '', #22, 'design' );
#3 = APPLICATION_PROTOCOL_DEFINITION( 'international standard', 'automotive_design', 2001, #22 );
#4 = PRODUCT_CATEGORY_RELATIONSHIP( 'NONE', 'NONE', #23, #24 );
#5 = SHAPE_DEFINITION_REPRESENTATION( #25, #26 );
#6 =  ( GEOMETRIC_REPRESENTATION_CONTEXT( 3 )GLOBAL_UNCERTAINTY_ASSIGNED_CONTEXT( ( #29 ) )GLOBAL_UNIT_ASSIGNED_CONTEXT( ( #31, #32, #33 ) )REPRESENTATION_CONTEXT( 'NONE', 'WORKSPACE' ) );
#10 = STYLED_ITEM( '', ( #35 ), #36 );
#11 = STYLED_ITEM( '', ( #37 ), #38 );
#12 = STYLED_ITEM( '', ( #39 ), #40 );
#13 = STYLED_ITEM( '', ( #41 ), #42 );
#14 = STYLED_ITEM( '', ( #43 ), #44 );
#15 = STYLED_ITEM( '', ( #45 ), #46 );
#16 = STYLED_ITEM( '', ( #47 ), #48 );
#17 = STYLED_ITEM( '', ( #49 ), #50 );
#18 = STYLED_ITEM( '', ( #51 ), #52 );
#19 = STYLED_ITEM( '', ( #53 ), #54 );
#20 = STYLED_ITEM( '', ( #55 ), #56 );
#21 = STYLED_ITEM( '', ( #57 ), #58 );
#22 = APPLICATION_CONTEXT( 'core data for automotive mechanical design processes' );
#23 = PRODUCT_CATEGORY( 'part', 'NONE' );
#24 = PRODUCT_RELATED_PRODUCT_CATEGORY( 'detail', ' ', ( #59 ) );
#25 = PRODUCT_DEFINITION_SHAPE( 'NONE', 'NONE', #60 );
#26 = ADVANCED_BREP_SHAPE_REPRESENTATION( '_K0314.206_(0)', ( #61, #62 ), #6 );
#29 = UNCERTAINTY_MEASURE_WITH_UNIT( LENGTH_MEASURE( 0.00100000000000000 ), #31, '', '' );
#31 =  ( CONVERSION_BASED_UNIT( 'MILLIMETRE', #65 )LENGTH_UNIT(  )NAMED_UNIT( #68 ) );
#32 =  ( NAMED_UNIT( #70 )PLANE_ANGLE_UNIT(  )SI_UNIT( $, .RADIAN. ) );
#33 =  ( NAMED_UNIT( #70 )SI_UNIT( $, .STERADIAN. )SOLID_ANGLE_UNIT(  ) );
#35 = PRESENTATION_STYLE_ASSIGNMENT( ( #76 ) );
#36 = ADVANCED_FACE( '', ( #77, #78 ), #79, .T. );
#37 = PRESENTATION_STYLE_ASSIGNMENT( ( #80 ) );
#38 = ADVANCED_FACE( '', ( #81 ), #82, .T. );
#39 = PRESENTATION_STYLE_ASSIGNMENT( ( #83 ) );
#40 = ADVANCED_FACE( '', ( #84, #85 ), #86, .T. );
#41 = PRESENTATION_STYLE_ASSIGNMENT( ( #87 ) );
#42 = ADVANCED_FACE( '', ( #88 ), #89, .F. );
#43 = PRESENTATION_STYLE_ASSIGNMENT( ( #90 ) );
#44 = ADVANCED_FACE( '', ( #91 ), #92, .T. );
#45 = PRESENTATION_STYLE_ASSIGNMENT( ( #93 ) );
#46 = ADVANCED_FACE( '', ( #94, #95 ), #96, .T. );
#47 = PRESENTATION_STYLE_ASSIGNMENT( ( #97 ) );
#48 = ADVANCED_FACE( '', ( #98, #99 ), #100, .T. );
#49 = PRESENTATION_STYLE_ASSIGNMENT( ( #101 ) );
#50 = ADVANCED_FACE( '', ( #102 ), #103, .T. );
#51 = PRESENTATION_STYLE_ASSIGNMENT( ( #104 ) );
#52 = ADVANCED_FACE( '', ( #105 ), #106, .F. );
#53 = PRESENTATION_STYLE_ASSIGNMENT( ( #107 ) );
#54 = ADVANCED_FACE( '', ( #108, #109 ), #110, .F. );
#55 = PRESENTATION_STYLE_ASSIGNMENT( ( #111 ) );
#56 = ADVANCED_FACE( '', ( #112 ), #113, .T. );
#57 = PRESENTATION_STYLE_ASSIGNMENT( ( #114 ) );
#58 = ADVANCED_FACE( '', ( #115 ), #116, .T. );
#59 = PRODUCT( '_K0314.206_(0)', '_K0314.206_(0)', 'PART-_K0314.206_(0)-DESC', ( #117 ) );
#60 = PRODUCT_DEFINITION( 'NONE', 'NONE', #118, #2 );
#61 = MANIFOLD_SOLID_BREP( '_K0314.206_(0)', #119 );
#62 = AXIS2_PLACEMENT_3D( '', #120, #121, #122 );
#65 = LENGTH_MEASURE_WITH_UNIT( LENGTH_MEASURE( 1.00000000000000 ), #123 );
#68 = DIMENSIONAL_EXPONENTS( 1.00000000000000, 0.000000000000000, 0.000000000000000, 0.000000000000000, 0.000000000000000, 0.000000000000000, 0.000000000000000 );
#70 = DIMENSIONAL_EXPONENTS( 0.000000000000000, 0.000000000000000, 0.000000000000000, 0.000000000000000, 0.000000000000000, 0.000000000000000, 0.000000000000000 );
#76 = SURFACE_STYLE_USAGE( .BOTH., #124 );
#77 = FACE_OUTER_BOUND( '', #125, .T. );
#78 = FACE_BOUND( '', #126, .T. );
#79 = CONICAL_SURFACE( '', #127, 2.38650000000000, 0.785398163400000 );
#80 = SURFACE_STYLE_USAGE( .BOTH., #128 );
#81 = FACE_OUTER_BOUND( '', #129, .T. );
#82 = PLANE( '', #130 );
#83 = SURFACE_STYLE_USAGE( .BOTH., #131 );
#84 = FACE_OUTER_BOUND( '', #132, .T. );
#85 = FACE_OUTER_BOUND( '', #133, .T. );
#86 = CYLINDRICAL_SURFACE( '', #134, 1.35000000000000 );
#87 = SURFACE_STYLE_USAGE( .BOTH., #135 );
#88 = FACE_OUTER_BOUND( '', #136, .T. );
#89 = PLANE( '', #137 );
#90 = SURFACE_STYLE_USAGE( .BOTH., #138 );
#91 = FACE_OUTER_BOUND( '', #139, .T. );
#92 = CONICAL_SURFACE( '', #140, 3.00000000000000, 0.785398163400000 );
#93 = SURFACE_STYLE_USAGE( .BOTH., #141 );
#94 = FACE_BOUND( '', #142, .T. );
#95 = FACE_OUTER_BOUND( '', #143, .T. );
#96 = SPHERICAL_SURFACE( '', #144, 1.35000000000000 );
#97 = SURFACE_STYLE_USAGE( .BOTH., #145 );
#98 = FACE_OUTER_BOUND( '', #146, .T. );
#99 = FACE_OUTER_BOUND( '', #147, .T. );
#100 = CYLINDRICAL_SURFACE( '', #148, 3.00000000000000 );
#101 = SURFACE_STYLE_USAGE( .BOTH., #149 );
#102 = FACE_OUTER_BOUND( '', #150, .T. );
#103 = PLANE( '', #151 );
#104 = SURFACE_STYLE_USAGE( .BOTH., #152 );
#105 = FACE_OUTER_BOUND( '', #153, .T. );
#106 = PLANE( '', #154 );
#107 = SURFACE_STYLE_USAGE( .BOTH., #155 );
#108 = FACE_OUTER_BOUND( '', #156, .T. );
#109 = FACE_BOUND( '', #157, .T. );
#110 = PLANE( '', #158 );
#111 = SURFACE_STYLE_USAGE( .BOTH., #159 );
#112 = FACE_OUTER_BOUND( '', #160, .T. );
#113 = PLANE( '', #161 );
#114 = SURFACE_STYLE_USAGE( .BOTH., #162 );
#115 = FACE_OUTER_BOUND( '', #163, .T. );
#116 = CONICAL_SURFACE( '', #164, 3.00000000000000, 0.785398163400000 );
#117 = PRODUCT_CONTEXT( '', #22, 'mechanical' );
#118 = PRODUCT_DEFINITION_FORMATION_WITH_SPECIFIED_SOURCE( ' ', 'NONE', #59, .NOT_KNOWN. );
#119 = CLOSED_SHELL( '', ( #56, #38, #40, #46, #52, #42, #44, #48, #58, #36, #54, #50 ) );
#120 = CARTESIAN_POINT( '', ( 0.000000000000000, 0.000000000000000, 0.000000000000000 ) );
#121 = DIRECTION( '', ( 0.000000000000000, 0.000000000000000, 1.00000000000000 ) );
#122 = DIRECTION( '', ( 1.00000000000000, 0.000000000000000, 0.000000000000000 ) );
#123 =  ( LENGTH_UNIT(  )NAMED_UNIT( #68 )SI_UNIT( .MILLI., .METRE. ) );
#124 = SURFACE_SIDE_STYLE( '', ( #166 ) );
#125 = EDGE_LOOP( '', ( #167 ) );
#126 = EDGE_LOOP( '', ( #168 ) );
#127 = AXIS2_PLACEMENT_3D( '', #169, #170, #171 );
#128 = SURFACE_SIDE_STYLE( '', ( #172 ) );
#129 = EDGE_LOOP( '', ( #173, #174, #175, #176 ) );
#130 = AXIS2_PLACEMENT_3D( '', #177, #178, #179 );
#131 = SURFACE_SIDE_STYLE( '', ( #180 ) );
#132 = EDGE_LOOP( '', ( #181 ) );
#133 = EDGE_LOOP( '', ( #182 ) );
#134 = AXIS2_PLACEMENT_3D( '', #183, #184, #185 );
#135 = SURFACE_SIDE_STYLE( '', ( #186 ) );
#136 = EDGE_LOOP( '', ( #187, #188 ) );
#137 = AXIS2_PLACEMENT_3D( '', #189, #190, #191 );
#138 = SURFACE_SIDE_STYLE( '', ( #192 ) );
#139 = EDGE_LOOP( '', ( #193, #194, #195, #196 ) );
#140 = AXIS2_PLACEMENT_3D( '', #197, #198, #199 );
#141 = SURFACE_SIDE_STYLE( '', ( #200 ) );
#142 = VERTEX_LOOP( '', #201 );
#143 = EDGE_LOOP( '', ( #202 ) );
#144 = AXIS2_PLACEMENT_3D( '', #203, #204, #205 );
#145 = SURFACE_SIDE_STYLE( '', ( #206 ) );
#146 = EDGE_LOOP( '', ( #207, #208, #209, #210, #211, #212, #213, #214 ) );
#147 = EDGE_LOOP( '', ( #215 ) );
#148 = AXIS2_PLACEMENT_3D( '', #216, #217, #218 );
#149 = SURFACE_SIDE_STYLE( '', ( #219 ) );
#150 = EDGE_LOOP( '', ( #220, #221, #222, #223, #224, #225 ) );
#151 = AXIS2_PLACEMENT_3D( '', #226, #227, #228 );
#152 = SURFACE_SIDE_STYLE( '', ( #229 ) );
#153 = EDGE_LOOP( '', ( #230, #231 ) );
#154 = AXIS2_PLACEMENT_3D( '', #232, #233, #234 );
#155 = SURFACE_SIDE_STYLE( '', ( #235 ) );
#156 = EDGE_LOOP( '', ( #236 ) );
#157 = EDGE_LOOP( '', ( #237 ) );
#158 = AXIS2_PLACEMENT_3D( '', #238, #239, #240 );
#159 = SURFACE_SIDE_STYLE( '', ( #241 ) );
#160 = EDGE_LOOP( '', ( #242, #243, #244, #245, #246, #247 ) );
#161 = AXIS2_PLACEMENT_3D( '', #248, #249, #250 );
#162 = SURFACE_SIDE_STYLE( '', ( #251 ) );
#163 = EDGE_LOOP( '', ( #252, #253, #254, #255 ) );
#164 = AXIS2_PLACEMENT_3D( '', #256, #257, #258 );
#166 = SURFACE_STYLE_FILL_AREA( #259 );
#167 = ORIENTED_EDGE( '', *, *, #260, .F. );
#168 = ORIENTED_EDGE( '', *, *, #261, .T. );
#169 = CARTESIAN_POINT( '', ( 0.000000000000000, 14.0000000000000, 0.000000000000000 ) );
#170 = DIRECTION( '', ( -0.000000000000000, -1.00000000000000, -0.000000000000000 ) );
#171 = DIRECTION( '', ( 0.000000000000000, 0.000000000000000, -1.00000000000000 ) );
#172 = SURFACE_STYLE_FILL_AREA( #262 );
#173 = ORIENTED_EDGE( '', *, *, #263, .T. );
#174 = ORIENTED_EDGE( '', *, *, #264, .T. );
#175 = ORIENTED_EDGE( '', *, *, #265, .T. );
#176 = ORIENTED_EDGE( '', *, *, #266, .F. );
#177 = CARTESIAN_POINT( '', ( 0.500000000000000, 1.01000000000000, 7.00000000000000 ) );
#178 = DIRECTION( '', ( 0.000000000000000, -1.00000000000000, 0.000000000000000 ) );
#179 = DIRECTION( '', ( 0.000000000000000, 0.000000000000000, -1.00000000000000 ) );
#180 = SURFACE_STYLE_FILL_AREA( #267 );
#181 = ORIENTED_EDGE( '', *, *, #268, .F. );
#182 = ORIENTED_EDGE( '', *, *, #269, .T. );
#183 = CARTESIAN_POINT( '', ( 0.000000000000000, 8.65000000000001, 0.000000000000000 ) );
#184 = DIRECTION( '', ( -0.000000000000000, 1.00000000000000, 0.000000000000000 ) );
#185 = DIRECTION( '', ( 0.000000000000000, 0.000000000000000, -1.00000000000000 ) );
#186 = SURFACE_STYLE_FILL_AREA( #270 );
#187 = ORIENTED_EDGE( '', *, *, #271, .F. );
#188 = ORIENTED_EDGE( '', *, *, #272, .T. );
#189 = CARTESIAN_POINT( '', ( 2.38650000000000, -5.42101086242752E-17, 0.000000000000000 ) );
#190 = DIRECTION( '', ( 0.000000000000000, 1.00000000000000, 0.000000000000000 ) );
#191 = DIRECTION( '', ( 0.000000000000000, -0.000000000000000, 1.00000000000000 ) );
#192 = SURFACE_STYLE_FILL_AREA( #273 );
#193 = ORIENTED_EDGE( '', *, *, #274, .F. );
#194 = ORIENTED_EDGE( '', *, *, #272, .F. );
#195 = ORIENTED_EDGE( '', *, *, #275, .F. );
#196 = ORIENTED_EDGE( '', *, *, #276, .T. );
#197 = CARTESIAN_POINT( '', ( 0.000000000000000, 0.613499999999999, 0.000000000000000 ) );
#198 = DIRECTION( '', ( -0.000000000000000, 1.00000000000000, 0.000000000000000 ) );
#199 = DIRECTION( '', ( 0.000000000000000, -0.000000000000000, 1.00000000000000 ) );
#200 = SURFACE_STYLE_FILL_AREA( #277 );
#201 = VERTEX_POINT( '', #278 );
#202 = ORIENTED_EDGE( '', *, *, #269, .F. );
#203 = CARTESIAN_POINT( '', ( -2.05998412772246E-15, 14.6500000000000, 0.000000000000000 ) );
#204 = DIRECTION( '', ( 0.000000000000000, -1.00000000000000, 0.000000000000000 ) );
#205 = DIRECTION( '', ( 1.00000000000000, 0.000000000000000, 0.000000000000000 ) );
#206 = SURFACE_STYLE_FILL_AREA( #279 );
#207 = ORIENTED_EDGE( '', *, *, #276, .F. );
#208 = ORIENTED_EDGE( '', *, *, #280, .F. );
#209 = ORIENTED_EDGE( '', *, *, #265, .F. );
#210 = ORIENTED_EDGE( '', *, *, #281, .F. );
#211 = ORIENTED_EDGE( '', *, *, #282, .F. );
#212 = ORIENTED_EDGE( '', *, *, #283, .F. );
#213 = ORIENTED_EDGE( '', *, *, #263, .F. );
#214 = ORIENTED_EDGE( '', *, *, #284, .F. );
#215 = ORIENTED_EDGE( '', *, *, #260, .T. );
#216 = CARTESIAN_POINT( '', ( 0.000000000000000, 0.000000000000000, 0.000000000000000 ) );
#217 = DIRECTION( '', ( -0.000000000000000, 1.00000000000000, 0.000000000000000 ) );
#218 = DIRECTION( '', ( 0.000000000000000, 0.000000000000000, -1.00000000000000 ) );
#219 = SURFACE_STYLE_FILL_AREA( #285 );
#220 = ORIENTED_EDGE( '', *, *, #280, .T. );
#221 = ORIENTED_EDGE( '', *, *, #275, .T. );
#222 = ORIENTED_EDGE( '', *, *, #271, .T. );
#223 = ORIENTED_EDGE( '', *, *, #274, .T. );
#224 = ORIENTED_EDGE( '', *, *, #284, .T. );
#225 = ORIENTED_EDGE( '', *, *, #266, .T. );
#226 = CARTESIAN_POINT( '', ( 0.500000000000000, 0.000000000000000, 7.00000000000000 ) );
#227 = DIRECTION( '', ( -1.00000000000000, 0.000000000000000, 0.000000000000000 ) );
#228 = DIRECTION( '', ( 0.000000000000000, 0.000000000000000, 1.00000000000000 ) );
#229 = SURFACE_STYLE_FILL_AREA( #286 );
#230 = ORIENTED_EDGE( '', *, *, #287, .F. );
#231 = ORIENTED_EDGE( '', *, *, #288, .T. );
#232 = CARTESIAN_POINT( '', ( 2.38650000000000, -5.42101086242752E-17, 0.000000000000000 ) );
#233 = DIRECTION( '', ( 0.000000000000000, 1.00000000000000, 0.000000000000000 ) );
#234 = DIRECTION( '', ( 0.000000000000000, -0.000000000000000, 1.00000000000000 ) );
#235 = SURFACE_STYLE_FILL_AREA( #289 );
#236 = ORIENTED_EDGE( '', *, *, #261, .F. );
#237 = ORIENTED_EDGE( '', *, *, #268, .T. );
#238 = CARTESIAN_POINT( '', ( 0.000000000000000, 14.0000000000000, 0.000000000000000 ) );
#239 = DIRECTION( '', ( 0.000000000000000, -1.00000000000000, -0.000000000000000 ) );
#240 = DIRECTION( '', ( 0.000000000000000, 0.000000000000000, -1.00000000000000 ) );
#241 = SURFACE_STYLE_FILL_AREA( #290 );
#242 = ORIENTED_EDGE( '', *, *, #283, .T. );
#243 = ORIENTED_EDGE( '', *, *, #291, .T. );
#244 = ORIENTED_EDGE( '', *, *, #287, .T. );
#245 = ORIENTED_EDGE( '', *, *, #292, .T. );
#246 = ORIENTED_EDGE( '', *, *, #281, .T. );
#247 = ORIENTED_EDGE( '', *, *, #264, .F. );
#248 = CARTESIAN_POINT( '', ( -0.500000000000000, 1.01000000000000, 7.00000000000000 ) );
#249 = DIRECTION( '', ( 1.00000000000000, 0.000000000000000, -0.000000000000000 ) );
#250 = DIRECTION( '', ( -0.000000000000000, 0.000000000000000, -1.00000000000000 ) );
#251 = SURFACE_STYLE_FILL_AREA( #293 );
#252 = ORIENTED_EDGE( '', *, *, #291, .F. );
#253 = ORIENTED_EDGE( '', *, *, #282, .T. );
#254 = ORIENTED_EDGE( '', *, *, #292, .F. );
#255 = ORIENTED_EDGE( '', *, *, #288, .F. );
#256 = CARTESIAN_POINT( '', ( 0.000000000000000, 0.613499999999999, 0.000000000000000 ) );
#257 = DIRECTION( '', ( -0.000000000000000, 1.00000000000000, 0.000000000000000 ) );
#258 = DIRECTION( '', ( 0.000000000000000, -0.000000000000000, 1.00000000000000 ) );
#259 = FILL_AREA_STYLE( '', ( #294 ) );
#260 = EDGE_CURVE( '', #295, #295, #296, .T. );
#261 = EDGE_CURVE( '', #297, #297, #298, .T. );
#262 = FILL_AREA_STYLE( '', ( #299 ) );
#263 = EDGE_CURVE( '', #300, #301, #302, .T. );
#264 = EDGE_CURVE( '', #301, #303, #304, .T. );
#265 = EDGE_CURVE( '', #303, #305, #306, .T. );
#266 = EDGE_CURVE( '', #300, #305, #307, .T. );
#267 = FILL_AREA_STYLE( '', ( #308 ) );
#268 = EDGE_CURVE( '', #309, #309, #310, .T. );
#269 = EDGE_CURVE( '', #311, #311, #312, .T. );
#270 = FILL_AREA_STYLE( '', ( #313 ) );
#271 = EDGE_CURVE( '', #314, #315, #316, .T. );
#272 = EDGE_CURVE( '', #314, #315, #317, .T. );
#273 = FILL_AREA_STYLE( '', ( #318 ) );
#274 = EDGE_CURVE( '', #315, #319, #320, .T. );
#275 = EDGE_CURVE( '', #321, #314, #322, .T. );
#276 = EDGE_CURVE( '', #321, #319, #323, .T. );
#277 = FILL_AREA_STYLE( '', ( #324 ) );
#278 = CARTESIAN_POINT( '', ( -1.97732046878001E-15, 16.0000000000000, 0.000000000000000 ) );
#279 = FILL_AREA_STYLE( '', ( #325 ) );
#280 = EDGE_CURVE( '', #305, #321, #326, .T. );
#281 = EDGE_CURVE( '', #327, #303, #328, .F. );
#282 = EDGE_CURVE( '', #329, #327, #330, .T. );
#283 = EDGE_CURVE( '', #301, #329, #331, .T. );
#284 = EDGE_CURVE( '', #319, #300, #332, .F. );
#285 = FILL_AREA_STYLE( '', ( #333 ) );
#286 = FILL_AREA_STYLE( '', ( #334 ) );
#287 = EDGE_CURVE( '', #335, #336, #337, .T. );
#288 = EDGE_CURVE( '', #335, #336, #338, .T. );
#289 = FILL_AREA_STYLE( '', ( #339 ) );
#290 = FILL_AREA_STYLE( '', ( #340 ) );
#291 = EDGE_CURVE( '', #329, #335, #341, .T. );
#292 = EDGE_CURVE( '', #336, #327, #342, .T. );
#293 = FILL_AREA_STYLE( '', ( #343 ) );
#294 = FILL_AREA_STYLE_COLOUR( '', #344 );
#295 = VERTEX_POINT( '', #345 );
#296 = CIRCLE( '', #346, 3.00000000000000 );
#297 = VERTEX_POINT( '', #347 );
#298 = CIRCLE( '', #348, 2.38650000000000 );
#299 = FILL_AREA_STYLE_COLOUR( '', #349 );
#300 = VERTEX_POINT( '', #350 );
#301 = VERTEX_POINT( '', #351 );
#302 = CIRCLE( '', #352, 3.00000000000000 );
#303 = VERTEX_POINT( '', #353 );
#304 = LINE( '', #354, #355 );
#305 = VERTEX_POINT( '', #356 );
#306 = CIRCLE( '', #357, 3.00000000000000 );
#307 = LINE( '', #358, #359 );
#308 = FILL_AREA_STYLE_COLOUR( '', #360 );
#309 = VERTEX_POINT( '', #361 );
#310 = CIRCLE( '', #362, 1.35000000000000 );
#311 = VERTEX_POINT( '', #363 );
#312 = CIRCLE( '', #364, 1.35000000000000 );
#313 = FILL_AREA_STYLE_COLOUR( '', #365 );
#314 = VERTEX_POINT( '', #366 );
#315 = VERTEX_POINT( '', #367 );
#316 = LINE( '', #368, #369 );
#317 = CIRCLE( '', #370, 2.38650000000000 );
#318 = FILL_AREA_STYLE_COLOUR( '', #371 );
#319 = VERTEX_POINT( '', #372 );
#320 = B_SPLINE_CURVE_WITH_KNOTS( '', 3, ( #373, #374, #375, #376 ), .UNSPECIFIED., .F., .F., ( 4, 4 ), ( 0.0120834347572858, 0.0129594350981577 ), .UNSPECIFIED. );
#321 = VERTEX_POINT( '', #377 );
#322 = B_SPLINE_CURVE_WITH_KNOTS( '', 3, ( #378, #379, #380, #381 ), .UNSPECIFIED., .F., .F., ( 4, 4 ), ( 0.00513424995850903, 0.00600968660290915 ), .UNSPECIFIED. );
#323 = CIRCLE( '', #382, 3.00000000000000 );
#324 = FILL_AREA_STYLE_COLOUR( '', #383 );
#325 = FILL_AREA_STYLE_COLOUR( '', #384 );
#326 = LINE( '', #385, #386 );
#327 = VERTEX_POINT( '', #387 );
#328 = LINE( '', #388, #389 );
#329 = VERTEX_POINT( '', #390 );
#330 = CIRCLE( '', #391, 3.00000000000000 );
#331 = LINE( '', #392, #393 );
#332 = LINE( '', #394, #395 );
#333 = FILL_AREA_STYLE_COLOUR( '', #396 );
#334 = FILL_AREA_STYLE_COLOUR( '', #397 );
#335 = VERTEX_POINT( '', #398 );
#336 = VERTEX_POINT( '', #399 );
#337 = LINE( '', #400, #401 );
#338 = CIRCLE( '', #402, 2.38650000000000 );
#339 = FILL_AREA_STYLE_COLOUR( '', #403 );
#340 = FILL_AREA_STYLE_COLOUR( '', #404 );
#341 = B_SPLINE_CURVE_WITH_KNOTS( '', 3, ( #405, #406, #407, #408 ), .UNSPECIFIED., .F., .F., ( 4, 4 ), ( 0.00513424995850903, 0.00600968660290915 ), .UNSPECIFIED. );
#342 = B_SPLINE_CURVE_WITH_KNOTS( '', 3, ( #409, #410, #411, #412 ), .UNSPECIFIED., .F., .F., ( 4, 4 ), ( 0.0120834347572858, 0.0129594350981577 ), .UNSPECIFIED. );
#343 = FILL_AREA_STYLE_COLOUR( '', #413 );
#344 = COLOUR_RGB( '', 0.689999997600000, 0.689999997600000, 0.689999997600000 );
#345 = CARTESIAN_POINT( '', ( 0.000000000000000, 13.3865000000000, -3.00000000000000 ) );
#346 = AXIS2_PLACEMENT_3D( '', #414, #415, #416 );
#347 = CARTESIAN_POINT( '', ( 0.000000000000000, 14.0000000000000, -2.38650000000000 ) );
#348 = AXIS2_PLACEMENT_3D( '', #417, #418, #419 );
#349 = COLOUR_RGB( '', 0.689999997600000, 0.689999997600000, 0.689999997600000 );
#350 = CARTESIAN_POINT( '', ( 0.500000000000000, 1.01000000000000, 2.95803989154981 ) );
#351 = CARTESIAN_POINT( '', ( -0.500000000000000, 1.01000000000000, 2.95803989154981 ) );
#352 = AXIS2_PLACEMENT_3D( '', #420, #421, #422 );
#353 = CARTESIAN_POINT( '', ( -0.500000000000000, 1.01000000000000, -2.95803989154981 ) );
#354 = CARTESIAN_POINT( '', ( -0.500000000000000, 1.01000000000000, 7.00000000000000 ) );
#355 = VECTOR( '', #423, 1000.00000000000 );
#356 = CARTESIAN_POINT( '', ( 0.500000000000000, 1.01000000000000, -2.95803989154981 ) );
#357 = AXIS2_PLACEMENT_3D( '', #424, #425, #426 );
#358 = CARTESIAN_POINT( '', ( 0.500000000000000, 1.01000000000000, 7.00000000000000 ) );
#359 = VECTOR( '', #427, 1000.00000000000 );
#360 = COLOUR_RGB( '', 0.689999997600000, 0.689999997600000, 0.689999997600000 );
#361 = CARTESIAN_POINT( '', ( 0.000000000000000, 14.0000000000000, -1.35000000000000 ) );
#362 = AXIS2_PLACEMENT_3D( '', #428, #429, #430 );
#363 = CARTESIAN_POINT( '', ( 0.000000000000000, 14.6500000000000, -1.35000000000000 ) );
#364 = AXIS2_PLACEMENT_3D( '', #431, #432, #433 );
#365 = COLOUR_RGB( '', 0.689999997600000, 0.689999997600000, 0.689999997600000 );
#366 = CARTESIAN_POINT( '', ( 0.500000000000000, 0.000000000000000, -2.33353428301364 ) );
#367 = CARTESIAN_POINT( '', ( 0.500000000000000, 0.000000000000000, 2.33353428301364 ) );
#368 = CARTESIAN_POINT( '', ( 0.500000000000000, -5.42101086242752E-17, 0.000000000000000 ) );
#369 = VECTOR( '', #434, 1000.00000000000 );
#370 = AXIS2_PLACEMENT_3D( '', #435, #436, #437 );
#371 = COLOUR_RGB( '', 0.689999997600000, 0.689999997600000, 0.689999997600000 );
#372 = CARTESIAN_POINT( '', ( 0.500000000000000, 0.613500000000005, 2.95803989154982 ) );
#373 = CARTESIAN_POINT( '', ( 0.500000000000000, -4.74036477840038E-16, 2.33353428301364 ) );
#374 = CARTESIAN_POINT( '', ( 0.500000000000000, 0.204015520908208, 2.54218047441163 ) );
#375 = CARTESIAN_POINT( '', ( 0.500000000000000, 0.408616178183334, 2.75024977106974 ) );
#376 = CARTESIAN_POINT( '', ( 0.500000000000000, 0.613500000000005, 2.95803989154982 ) );
#377 = CARTESIAN_POINT( '', ( 0.500000000000000, 0.613500000000000, -2.95803989154981 ) );
#378 = CARTESIAN_POINT( '', ( 0.500000000000000, 0.613500000000000, -2.95803989154981 ) );
#379 = CARTESIAN_POINT( '', ( 0.500000000000000, 0.408615684845117, -2.75024927073346 ) );
#380 = CARTESIAN_POINT( '', ( 0.500000000000000, 0.204014900834499, -2.54217984026372 ) );
#381 = CARTESIAN_POINT( '', ( 0.500000000000000, -1.14541736256787E-15, -2.33353428301364 ) );
#382 = AXIS2_PLACEMENT_3D( '', #438, #439, #440 );
#383 = COLOUR_RGB( '', 0.689999997600000, 0.689999997600000, 0.689999997600000 );
#384 = COLOUR_RGB( '', 0.689999997600000, 0.689999997600000, 0.689999997600000 );
#385 = CARTESIAN_POINT( '', ( 0.500000000000000, 0.000000000000000, -2.95803989154981 ) );
#386 = VECTOR( '', #441, 1000.00000000000 );
#387 = CARTESIAN_POINT( '', ( -0.500000000000000, 0.613500000000005, -2.95803989154982 ) );
#388 = CARTESIAN_POINT( '', ( -0.500000000000000, 0.000000000000000, -2.95803989154981 ) );
#389 = VECTOR( '', #442, 1000.00000000000 );
#390 = CARTESIAN_POINT( '', ( -0.500000000000000, 0.613500000000000, 2.95803989154981 ) );
#391 = AXIS2_PLACEMENT_3D( '', #443, #444, #445 );
#392 = CARTESIAN_POINT( '', ( -0.500000000000000, 0.000000000000000, 2.95803989154981 ) );
#393 = VECTOR( '', #446, 1000.00000000000 );
#394 = CARTESIAN_POINT( '', ( 0.500000000000000, 0.000000000000000, 2.95803989154981 ) );
#395 = VECTOR( '', #447, 1000.00000000000 );
#396 = COLOUR_RGB( '', 0.689999997600000, 0.689999997600000, 0.689999997600000 );
#397 = COLOUR_RGB( '', 0.689999997600000, 0.689999997600000, 0.689999997600000 );
#398 = CARTESIAN_POINT( '', ( -0.500000000000000, 0.000000000000000, 2.33353428301364 ) );
#399 = CARTESIAN_POINT( '', ( -0.500000000000000, 0.000000000000000, -2.33353428301364 ) );
#400 = CARTESIAN_POINT( '', ( -0.500000000000000, -5.42101086242752E-17, 0.000000000000000 ) );
#401 = VECTOR( '', #448, 1000.00000000000 );
#402 = AXIS2_PLACEMENT_3D( '', #449, #450, #451 );
#403 = COLOUR_RGB( '', 0.689999997600000, 0.689999997600000, 0.689999997600000 );
#404 = COLOUR_RGB( '', 0.689999997600000, 0.689999997600000, 0.689999997600000 );
#405 = CARTESIAN_POINT( '', ( -0.500000000000000, 0.613499999999999, 2.95803989154981 ) );
#406 = CARTESIAN_POINT( '', ( -0.500000000000000, 0.408615684845117, 2.75024927073346 ) );
#407 = CARTESIAN_POINT( '', ( -0.500000000000000, 0.204014900834499, 2.54217984026372 ) );
#408 = CARTESIAN_POINT( '', ( -0.500000000000000, -2.13905496322212E-16, 2.33353428301364 ) );
#409 = CARTESIAN_POINT( '', ( -0.500000000000000, -6.21057931403382E-16, -2.33353428301364 ) );
#410 = CARTESIAN_POINT( '', ( -0.500000000000000, 0.204015520908208, -2.54218047441163 ) );
#411 = CARTESIAN_POINT( '', ( -0.500000000000000, 0.408616178183334, -2.75024977106974 ) );
#412 = CARTESIAN_POINT( '', ( -0.500000000000000, 0.613500000000005, -2.95803989154982 ) );
#413 = COLOUR_RGB( '', 0.689999997600000, 0.689999997600000, 0.689999997600000 );
#414 = CARTESIAN_POINT( '', ( 0.000000000000000, 13.3865000000000, 0.000000000000000 ) );
#415 = DIRECTION( '', ( 0.000000000000000, -1.00000000000000, -0.000000000000000 ) );
#416 = DIRECTION( '', ( 0.000000000000000, 0.000000000000000, -1.00000000000000 ) );
#417 = CARTESIAN_POINT( '', ( 0.000000000000000, 14.0000000000000, 0.000000000000000 ) );
#418 = DIRECTION( '', ( 0.000000000000000, -1.00000000000000, -0.000000000000000 ) );
#419 = DIRECTION( '', ( 0.000000000000000, 0.000000000000000, -1.00000000000000 ) );
#420 = CARTESIAN_POINT( '', ( 0.000000000000000, 1.01000000000000, 0.000000000000000 ) );
#421 = DIRECTION( '', ( 0.000000000000000, -1.00000000000000, 0.000000000000000 ) );
#422 = DIRECTION( '', ( 0.000000000000000, 0.000000000000000, -1.00000000000000 ) );
#423 = DIRECTION( '', ( -0.000000000000000, -0.000000000000000, -1.00000000000000 ) );
#424 = CARTESIAN_POINT( '', ( 0.000000000000000, 1.01000000000000, 0.000000000000000 ) );
#425 = DIRECTION( '', ( 0.000000000000000, -1.00000000000000, 0.000000000000000 ) );
#426 = DIRECTION( '', ( 0.000000000000000, 0.000000000000000, -1.00000000000000 ) );
#427 = DIRECTION( '', ( -0.000000000000000, -0.000000000000000, -1.00000000000000 ) );
#428 = CARTESIAN_POINT( '', ( 0.000000000000000, 14.0000000000000, 0.000000000000000 ) );
#429 = DIRECTION( '', ( 0.000000000000000, -1.00000000000000, -0.000000000000000 ) );
#430 = DIRECTION( '', ( 0.000000000000000, 0.000000000000000, -1.00000000000000 ) );
#431 = CARTESIAN_POINT( '', ( 0.000000000000000, 14.6500000000000, 0.000000000000000 ) );
#432 = DIRECTION( '', ( 0.000000000000000, -1.00000000000000, -0.000000000000000 ) );
#433 = DIRECTION( '', ( 0.000000000000000, 0.000000000000000, -1.00000000000000 ) );
#434 = DIRECTION( '', ( 0.000000000000000, -0.000000000000000, 1.00000000000000 ) );
#435 = CARTESIAN_POINT( '', ( 0.000000000000000, -1.08420217248550E-16, 0.000000000000000 ) );
#436 = DIRECTION( '', ( 0.000000000000000, -1.00000000000000, -0.000000000000000 ) );
#437 = DIRECTION( '', ( 0.000000000000000, 0.000000000000000, -1.00000000000000 ) );
#438 = CARTESIAN_POINT( '', ( 0.000000000000000, 0.613499999999999, 0.000000000000000 ) );
#439 = DIRECTION( '', ( 0.000000000000000, -1.00000000000000, -0.000000000000000 ) );
#440 = DIRECTION( '', ( 0.000000000000000, 0.000000000000000, -1.00000000000000 ) );
#441 = DIRECTION( '', ( -0.000000000000000, -1.00000000000000, -0.000000000000000 ) );
#442 = DIRECTION( '', ( -0.000000000000000, -1.00000000000000, -0.000000000000000 ) );
#443 = CARTESIAN_POINT( '', ( 0.000000000000000, 0.613499999999999, 0.000000000000000 ) );
#444 = DIRECTION( '', ( 0.000000000000000, -1.00000000000000, -0.000000000000000 ) );
#445 = DIRECTION( '', ( 0.000000000000000, 0.000000000000000, -1.00000000000000 ) );
#446 = DIRECTION( '', ( -0.000000000000000, -1.00000000000000, -0.000000000000000 ) );
#447 = DIRECTION( '', ( -0.000000000000000, -1.00000000000000, -0.000000000000000 ) );
#448 = DIRECTION( '', ( -0.000000000000000, 0.000000000000000, -1.00000000000000 ) );
#449 = CARTESIAN_POINT( '', ( 0.000000000000000, -1.08420217248550E-16, 0.000000000000000 ) );
#450 = DIRECTION( '', ( 0.000000000000000, -1.00000000000000, -0.000000000000000 ) );
#451 = DIRECTION( '', ( 0.000000000000000, 0.000000000000000, -1.00000000000000 ) );
ENDSEC;
END-ISO-10303-21;
