ISO-10303-21;
HEADER;
FILE_DESCRIPTION( ( 'STEP AP214' ), '1' );
FILE_NAME( '//goodhand-server/Shared Folders/GoodHand Data/Kipp CAD/K0762/K0762.222.stp', '2020-12-10T08:54:33', ( '' ), ( '' ), ' ', 'PARTsolutions', ' ' );
FILE_SCHEMA( ( 'AUTOMOTIVE_DESIGN { 1 0 10303 214 1 1 1 1 }' ) );
ENDSEC;
DATA;
#1 = MECHANICAL_DESIGN_GEOMETRIC_PRESENTATION_REPRESENTATION( ' ', ( #10, #11, #12, #13, #14, #15, #16, #17, #18, #19, #20, #21, #22, #23, #24 ), #6 );
#2 = PRODUCT_DEFINITION_CONTEXT( '', #25, 'design' );
#3 = APPLICATION_PROTOCOL_DEFINITION( 'international standard', 'automotive_design', 2001, #25 );
#4 = PRODUCT_CATEGORY_RELATIONSHIP( 'NONE', 'NONE', #26, #27 );
#5 = SHAPE_DEFINITION_REPRESENTATION( #28, #29 );
#6 =  ( GEOMETRIC_REPRESENTATION_CONTEXT( 3 )GLOBAL_UNCERTAINTY_ASSIGNED_CONTEXT( ( #32 ) )GLOBAL_UNIT_ASSIGNED_CONTEXT( ( #34, #35, #36 ) )REPRESENTATION_CONTEXT( 'NONE', 'WORKSPACE' ) );
#10 = STYLED_ITEM( '', ( #38 ), #39 );
#11 = STYLED_ITEM( '', ( #40 ), #41 );
#12 = STYLED_ITEM( '', ( #42 ), #43 );
#13 = STYLED_ITEM( '', ( #44 ), #45 );
#14 = STYLED_ITEM( '', ( #46 ), #47 );
#15 = STYLED_ITEM( '', ( #48 ), #49 );
#16 = STYLED_ITEM( '', ( #50 ), #51 );
#17 = STYLED_ITEM( '', ( #52 ), #53 );
#18 = STYLED_ITEM( '', ( #54 ), #55 );
#19 = STYLED_ITEM( '', ( #56 ), #57 );
#20 = STYLED_ITEM( '', ( #58 ), #59 );
#21 = STYLED_ITEM( '', ( #60 ), #61 );
#22 = STYLED_ITEM( '', ( #62 ), #63 );
#23 = STYLED_ITEM( '', ( #64 ), #65 );
#24 = STYLED_ITEM( '', ( #66 ), #67 );
#25 = APPLICATION_CONTEXT( 'core data for automotive mechanical design processes' );
#26 = PRODUCT_CATEGORY( 'part', 'NONE' );
#27 = PRODUCT_RELATED_PRODUCT_CATEGORY( 'detail', ' ', ( #68 ) );
#28 = PRODUCT_DEFINITION_SHAPE( 'NONE', 'NONE', #69 );
#29 = ADVANCED_BREP_SHAPE_REPRESENTATION( '_K0762.222', ( #70, #71 ), #6 );
#32 = UNCERTAINTY_MEASURE_WITH_UNIT( LENGTH_MEASURE( 0.00100000000000000 ), #34, '', '' );
#34 =  ( CONVERSION_BASED_UNIT( 'MILLIMETRE', #74 )LENGTH_UNIT(  )NAMED_UNIT( #77 ) );
#35 =  ( NAMED_UNIT( #79 )PLANE_ANGLE_UNIT(  )SI_UNIT( $, .RADIAN. ) );
#36 =  ( NAMED_UNIT( #79 )SI_UNIT( $, .STERADIAN. )SOLID_ANGLE_UNIT(  ) );
#38 = PRESENTATION_STYLE_ASSIGNMENT( ( #85 ) );
#39 = ADVANCED_FACE( '', ( #86, #87 ), #88, .T. );
#40 = PRESENTATION_STYLE_ASSIGNMENT( ( #89 ) );
#41 = ADVANCED_FACE( '', ( #90, #91 ), #92, .T. );
#42 = PRESENTATION_STYLE_ASSIGNMENT( ( #93 ) );
#43 = ADVANCED_FACE( '', ( #94, #95 ), #96, .F. );
#44 = PRESENTATION_STYLE_ASSIGNMENT( ( #97 ) );
#45 = ADVANCED_FACE( '', ( #98, #99, #100 ), #101, .F. );
#46 = PRESENTATION_STYLE_ASSIGNMENT( ( #102 ) );
#47 = ADVANCED_FACE( '', ( #103, #104 ), #105, .F. );
#48 = PRESENTATION_STYLE_ASSIGNMENT( ( #106 ) );
#49 = ADVANCED_FACE( '', ( #107, #108 ), #109, .T. );
#50 = PRESENTATION_STYLE_ASSIGNMENT( ( #110 ) );
#51 = ADVANCED_FACE( '', ( #111, #112 ), #113, .T. );
#52 = PRESENTATION_STYLE_ASSIGNMENT( ( #114 ) );
#53 = ADVANCED_FACE( '', ( #115 ), #116, .F. );
#54 = PRESENTATION_STYLE_ASSIGNMENT( ( #117 ) );
#55 = ADVANCED_FACE( '', ( #118, #119 ), #120, .T. );
#56 = PRESENTATION_STYLE_ASSIGNMENT( ( #121 ) );
#57 = ADVANCED_FACE( '', ( #122, #123 ), #124, .F. );
#58 = PRESENTATION_STYLE_ASSIGNMENT( ( #125 ) );
#59 = ADVANCED_FACE( '', ( #126, #127 ), #128, .F. );
#60 = PRESENTATION_STYLE_ASSIGNMENT( ( #129 ) );
#61 = ADVANCED_FACE( '', ( #130, #131 ), #132, .F. );
#62 = PRESENTATION_STYLE_ASSIGNMENT( ( #133 ) );
#63 = ADVANCED_FACE( '', ( #134, #135 ), #136, .T. );
#64 = PRESENTATION_STYLE_ASSIGNMENT( ( #137 ) );
#65 = ADVANCED_FACE( '', ( #138, #139 ), #140, .T. );
#66 = PRESENTATION_STYLE_ASSIGNMENT( ( #141 ) );
#67 = ADVANCED_FACE( '', ( #142, #143 ), #144, .F. );
#68 = PRODUCT( '_K0762.222', '_K0762.222', 'PART-_K0762.222-DESC', ( #145 ) );
#69 = PRODUCT_DEFINITION( 'NONE', 'NONE', #146, #2 );
#70 = MANIFOLD_SOLID_BREP( '_K0762.222', #147 );
#71 = AXIS2_PLACEMENT_3D( '', #148, #149, #150 );
#74 = LENGTH_MEASURE_WITH_UNIT( LENGTH_MEASURE( 1.00000000000000 ), #151 );
#77 = DIMENSIONAL_EXPONENTS( 1.00000000000000, 0.000000000000000, 0.000000000000000, 0.000000000000000, 0.000000000000000, 0.000000000000000, 0.000000000000000 );
#79 = DIMENSIONAL_EXPONENTS( 0.000000000000000, 0.000000000000000, 0.000000000000000, 0.000000000000000, 0.000000000000000, 0.000000000000000, 0.000000000000000 );
#85 = SURFACE_STYLE_USAGE( .BOTH., #152 );
#86 = FACE_OUTER_BOUND( '', #153, .T. );
#87 = FACE_OUTER_BOUND( '', #154, .T. );
#88 = CYLINDRICAL_SURFACE( '', #155, 19.5000000000000 );
#89 = SURFACE_STYLE_USAGE( .BOTH., #156 );
#90 = FACE_OUTER_BOUND( '', #157, .T. );
#91 = FACE_OUTER_BOUND( '', #158, .T. );
#92 = TOROIDAL_SURFACE( '', #159, 24.5000000000000, 0.500000000000000 );
#93 = SURFACE_STYLE_USAGE( .BOTH., #160 );
#94 = FACE_OUTER_BOUND( '', #161, .T. );
#95 = FACE_OUTER_BOUND( '', #162, .T. );
#96 = TOROIDAL_SURFACE( '', #163, 20.0000000000000, 0.500000000000000 );
#97 = SURFACE_STYLE_USAGE( .BOTH., #164 );
#98 = FACE_BOUND( '', #165, .T. );
#99 = FACE_OUTER_BOUND( '', #166, .T. );
#100 = FACE_OUTER_BOUND( '', #167, .T. );
#101 = TOROIDAL_SURFACE( '', #168, 7.02907330060000, 2.97466855790000 );
#102 = SURFACE_STYLE_USAGE( .BOTH., #169 );
#103 = FACE_OUTER_BOUND( '', #170, .T. );
#104 = FACE_BOUND( '', #171, .T. );
#105 = PLANE( '', #172 );
#106 = SURFACE_STYLE_USAGE( .BOTH., #173 );
#107 = FACE_OUTER_BOUND( '', #174, .T. );
#108 = FACE_OUTER_BOUND( '', #175, .T. );
#109 = CYLINDRICAL_SURFACE( '', #176, 25.0000000000000 );
#110 = SURFACE_STYLE_USAGE( .BOTH., #177 );
#111 = FACE_OUTER_BOUND( '', #178, .T. );
#112 = FACE_OUTER_BOUND( '', #179, .T. );
#113 = TOROIDAL_SURFACE( '', #180, 24.5000000000000, 0.500000000000000 );
#114 = SURFACE_STYLE_USAGE( .BOTH., #181 );
#115 = FACE_OUTER_BOUND( '', #182, .T. );
#116 = PLANE( '', #183 );
#117 = SURFACE_STYLE_USAGE( .BOTH., #184 );
#118 = FACE_OUTER_BOUND( '', #185, .T. );
#119 = FACE_OUTER_BOUND( '', #186, .T. );
#120 = TOROIDAL_SURFACE( '', #187, 6.12120427180000, 6.00000000000000 );
#121 = SURFACE_STYLE_USAGE( .BOTH., #188 );
#122 = FACE_OUTER_BOUND( '', #189, .T. );
#123 = FACE_OUTER_BOUND( '', #190, .T. );
#124 = CYLINDRICAL_SURFACE( '', #191, 20.2500000000000 );
#125 = SURFACE_STYLE_USAGE( .BOTH., #192 );
#126 = FACE_BOUND( '', #193, .T. );
#127 = FACE_OUTER_BOUND( '', #194, .T. );
#128 = PLANE( '', #195 );
#129 = SURFACE_STYLE_USAGE( .BOTH., #196 );
#130 = FACE_OUTER_BOUND( '', #197, .T. );
#131 = FACE_BOUND( '', #198, .T. );
#132 = PLANE( '', #199 );
#133 = SURFACE_STYLE_USAGE( .BOTH., #200 );
#134 = FACE_OUTER_BOUND( '', #201, .T. );
#135 = FACE_OUTER_BOUND( '', #202, .T. );
#136 = TOROIDAL_SURFACE( '', #203, 19.0000000000000, 0.500000000000000 );
#137 = SURFACE_STYLE_USAGE( .BOTH., #204 );
#138 = FACE_BOUND( '', #205, .T. );
#139 = FACE_OUTER_BOUND( '', #206, .T. );
#140 = SPHERICAL_SURFACE( '', #207, 11.1000000000000 );
#141 = SURFACE_STYLE_USAGE( .BOTH., #208 );
#142 = FACE_OUTER_BOUND( '', #209, .T. );
#143 = FACE_BOUND( '', #210, .T. );
#144 = PLANE( '', #211 );
#145 = PRODUCT_CONTEXT( '', #25, 'mechanical' );
#146 = PRODUCT_DEFINITION_FORMATION_WITH_SPECIFIED_SOURCE( ' ', 'NONE', #68, .NOT_KNOWN. );
#147 = CLOSED_SHELL( '', ( #63, #53, #39, #45, #61, #55, #47, #57, #67, #41, #49, #51, #59, #43, #65 ) );
#148 = CARTESIAN_POINT( '', ( 0.000000000000000, 0.000000000000000, 0.000000000000000 ) );
#149 = DIRECTION( '', ( 0.000000000000000, 0.000000000000000, 1.00000000000000 ) );
#150 = DIRECTION( '', ( 1.00000000000000, 0.000000000000000, 0.000000000000000 ) );
#151 =  ( LENGTH_UNIT(  )NAMED_UNIT( #77 )SI_UNIT( .MILLI., .METRE. ) );
#152 = SURFACE_SIDE_STYLE( '', ( #213 ) );
#153 = EDGE_LOOP( '', ( #214 ) );
#154 = EDGE_LOOP( '', ( #215 ) );
#155 = AXIS2_PLACEMENT_3D( '', #216, #217, #218 );
#156 = SURFACE_SIDE_STYLE( '', ( #219 ) );
#157 = EDGE_LOOP( '', ( #220 ) );
#158 = EDGE_LOOP( '', ( #221 ) );
#159 = AXIS2_PLACEMENT_3D( '', #222, #223, #224 );
#160 = SURFACE_SIDE_STYLE( '', ( #225 ) );
#161 = EDGE_LOOP( '', ( #226 ) );
#162 = EDGE_LOOP( '', ( #227 ) );
#163 = AXIS2_PLACEMENT_3D( '', #228, #229, #230 );
#164 = SURFACE_SIDE_STYLE( '', ( #231 ) );
#165 = VERTEX_LOOP( '', #232 );
#166 = EDGE_LOOP( '', ( #233 ) );
#167 = EDGE_LOOP( '', ( #234 ) );
#168 = AXIS2_PLACEMENT_3D( '', #235, #236, #237 );
#169 = SURFACE_SIDE_STYLE( '', ( #238 ) );
#170 = EDGE_LOOP( '', ( #239 ) );
#171 = EDGE_LOOP( '', ( #240 ) );
#172 = AXIS2_PLACEMENT_3D( '', #241, #242, #243 );
#173 = SURFACE_SIDE_STYLE( '', ( #244 ) );
#174 = EDGE_LOOP( '', ( #245 ) );
#175 = EDGE_LOOP( '', ( #246 ) );
#176 = AXIS2_PLACEMENT_3D( '', #247, #248, #249 );
#177 = SURFACE_SIDE_STYLE( '', ( #250 ) );
#178 = EDGE_LOOP( '', ( #251 ) );
#179 = EDGE_LOOP( '', ( #252 ) );
#180 = AXIS2_PLACEMENT_3D( '', #253, #254, #255 );
#181 = SURFACE_SIDE_STYLE( '', ( #256 ) );
#182 = EDGE_LOOP( '', ( #257 ) );
#183 = AXIS2_PLACEMENT_3D( '', #258, #259, #260 );
#184 = SURFACE_SIDE_STYLE( '', ( #261 ) );
#185 = EDGE_LOOP( '', ( #262 ) );
#186 = EDGE_LOOP( '', ( #263 ) );
#187 = AXIS2_PLACEMENT_3D( '', #264, #265, #266 );
#188 = SURFACE_SIDE_STYLE( '', ( #267 ) );
#189 = EDGE_LOOP( '', ( #268 ) );
#190 = EDGE_LOOP( '', ( #269 ) );
#191 = AXIS2_PLACEMENT_3D( '', #270, #271, #272 );
#192 = SURFACE_SIDE_STYLE( '', ( #273 ) );
#193 = EDGE_LOOP( '', ( #274 ) );
#194 = EDGE_LOOP( '', ( #275 ) );
#195 = AXIS2_PLACEMENT_3D( '', #276, #277, #278 );
#196 = SURFACE_SIDE_STYLE( '', ( #279 ) );
#197 = EDGE_LOOP( '', ( #280 ) );
#198 = EDGE_LOOP( '', ( #281 ) );
#199 = AXIS2_PLACEMENT_3D( '', #282, #283, #284 );
#200 = SURFACE_SIDE_STYLE( '', ( #285 ) );
#201 = EDGE_LOOP( '', ( #286 ) );
#202 = EDGE_LOOP( '', ( #287 ) );
#203 = AXIS2_PLACEMENT_3D( '', #288, #289, #290 );
#204 = SURFACE_SIDE_STYLE( '', ( #291 ) );
#205 = VERTEX_LOOP( '', #292 );
#206 = EDGE_LOOP( '', ( #293 ) );
#207 = AXIS2_PLACEMENT_3D( '', #294, #295, #296 );
#208 = SURFACE_SIDE_STYLE( '', ( #297 ) );
#209 = EDGE_LOOP( '', ( #298 ) );
#210 = EDGE_LOOP( '', ( #299 ) );
#211 = AXIS2_PLACEMENT_3D( '', #300, #301, #302 );
#213 = SURFACE_STYLE_FILL_AREA( #303 );
#214 = ORIENTED_EDGE( '', *, *, #304, .F. );
#215 = ORIENTED_EDGE( '', *, *, #305, .T. );
#216 = CARTESIAN_POINT( '', ( 0.000000000000000, 0.000000000000000, 0.000000000000000 ) );
#217 = DIRECTION( '', ( -0.000000000000000, 1.00000000000000, 0.000000000000000 ) );
#218 = DIRECTION( '', ( 0.000000000000000, 0.000000000000000, -1.00000000000000 ) );
#219 = SURFACE_STYLE_FILL_AREA( #306 );
#220 = ORIENTED_EDGE( '', *, *, #307, .T. );
#221 = ORIENTED_EDGE( '', *, *, #308, .F. );
#222 = CARTESIAN_POINT( '', ( 0.000000000000000, 46.5000000000000, 0.000000000000000 ) );
#223 = DIRECTION( '', ( 0.000000000000000, -1.00000000000000, -0.000000000000000 ) );
#224 = DIRECTION( '', ( 0.000000000000000, 0.000000000000000, -1.00000000000000 ) );
#225 = SURFACE_STYLE_FILL_AREA( #309 );
#226 = ORIENTED_EDGE( '', *, *, #305, .F. );
#227 = ORIENTED_EDGE( '', *, *, #310, .T. );
#228 = CARTESIAN_POINT( '', ( 0.000000000000000, 32.5000000000000, 0.000000000000000 ) );
#229 = DIRECTION( '', ( 0.000000000000000, -1.00000000000000, -0.000000000000000 ) );
#230 = DIRECTION( '', ( 0.000000000000000, 0.000000000000000, -1.00000000000000 ) );
#231 = SURFACE_STYLE_FILL_AREA( #311 );
#232 = VERTEX_POINT( '', #312 );
#233 = ORIENTED_EDGE( '', *, *, #313, .F. );
#234 = ORIENTED_EDGE( '', *, *, #314, .T. );
#235 = CARTESIAN_POINT( '', ( 0.000000000000000, 45.3437469167505, 0.000000000000000 ) );
#236 = DIRECTION( '', ( 0.000000000000000, -1.00000000000000, -0.000000000000000 ) );
#237 = DIRECTION( '', ( 0.000000000000000, 0.000000000000000, -1.00000000000000 ) );
#238 = SURFACE_STYLE_FILL_AREA( #315 );
#239 = ORIENTED_EDGE( '', *, *, #316, .F. );
#240 = ORIENTED_EDGE( '', *, *, #317, .T. );
#241 = CARTESIAN_POINT( '', ( 11.7500000000000, 44.5000000000000, 0.000000000000000 ) );
#242 = DIRECTION( '', ( 0.000000000000000, -1.00000000000000, -0.000000000000000 ) );
#243 = DIRECTION( '', ( 0.000000000000000, 0.000000000000000, -1.00000000000000 ) );
#244 = SURFACE_STYLE_FILL_AREA( #318 );
#245 = ORIENTED_EDGE( '', *, *, #319, .F. );
#246 = ORIENTED_EDGE( '', *, *, #308, .T. );
#247 = CARTESIAN_POINT( '', ( 0.000000000000000, 0.000000000000000, 0.000000000000000 ) );
#248 = DIRECTION( '', ( -0.000000000000000, 1.00000000000000, 0.000000000000000 ) );
#249 = DIRECTION( '', ( 0.000000000000000, 0.000000000000000, -1.00000000000000 ) );
#250 = SURFACE_STYLE_FILL_AREA( #320 );
#251 = ORIENTED_EDGE( '', *, *, #319, .T. );
#252 = ORIENTED_EDGE( '', *, *, #321, .F. );
#253 = CARTESIAN_POINT( '', ( 0.000000000000000, 33.5000000000000, 0.000000000000000 ) );
#254 = DIRECTION( '', ( 0.000000000000000, -1.00000000000000, -0.000000000000000 ) );
#255 = DIRECTION( '', ( 0.000000000000000, 0.000000000000000, -1.00000000000000 ) );
#256 = SURFACE_STYLE_FILL_AREA( #322 );
#257 = ORIENTED_EDGE( '', *, *, #323, .T. );
#258 = CARTESIAN_POINT( '', ( 19.0000000000000, 9.75781955236954E-16, 0.000000000000000 ) );
#259 = DIRECTION( '', ( 0.000000000000000, 1.00000000000000, 0.000000000000000 ) );
#260 = DIRECTION( '', ( 0.000000000000000, -0.000000000000000, 1.00000000000000 ) );
#261 = SURFACE_STYLE_FILL_AREA( #324 );
#262 = ORIENTED_EDGE( '', *, *, #325, .T. );
#263 = ORIENTED_EDGE( '', *, *, #317, .F. );
#264 = CARTESIAN_POINT( '', ( 0.000000000000000, 42.4223429902563, 0.000000000000000 ) );
#265 = DIRECTION( '', ( 0.000000000000000, -1.00000000000000, -0.000000000000000 ) );
#266 = DIRECTION( '', ( 0.000000000000000, 0.000000000000000, -1.00000000000000 ) );
#267 = SURFACE_STYLE_FILL_AREA( #326 );
#268 = ORIENTED_EDGE( '', *, *, #327, .F. );
#269 = ORIENTED_EDGE( '', *, *, #316, .T. );
#270 = CARTESIAN_POINT( '', ( 0.000000000000000, 0.000000000000000, 0.000000000000000 ) );
#271 = DIRECTION( '', ( -0.000000000000000, 1.00000000000000, 0.000000000000000 ) );
#272 = DIRECTION( '', ( 0.000000000000000, 0.000000000000000, -1.00000000000000 ) );
#273 = SURFACE_STYLE_FILL_AREA( #328 );
#274 = ORIENTED_EDGE( '', *, *, #310, .F. );
#275 = ORIENTED_EDGE( '', *, *, #321, .T. );
#276 = CARTESIAN_POINT( '', ( 24.5000000000000, 33.0000000000000, 0.000000000000000 ) );
#277 = DIRECTION( '', ( 0.000000000000000, 1.00000000000000, 0.000000000000000 ) );
#278 = DIRECTION( '', ( 0.000000000000000, -0.000000000000000, 1.00000000000000 ) );
#279 = SURFACE_STYLE_FILL_AREA( #329 );
#280 = ORIENTED_EDGE( '', *, *, #325, .F. );
#281 = ORIENTED_EDGE( '', *, *, #313, .T. );
#282 = CARTESIAN_POINT( '', ( 9.50000000000000, 47.0000000000000, 0.000000000000000 ) );
#283 = DIRECTION( '', ( 0.000000000000000, -1.00000000000000, -0.000000000000000 ) );
#284 = DIRECTION( '', ( 0.000000000000000, 0.000000000000000, -1.00000000000000 ) );
#285 = SURFACE_STYLE_FILL_AREA( #330 );
#286 = ORIENTED_EDGE( '', *, *, #304, .T. );
#287 = ORIENTED_EDGE( '', *, *, #323, .F. );
#288 = CARTESIAN_POINT( '', ( 0.000000000000000, 0.500000000000002, 0.000000000000000 ) );
#289 = DIRECTION( '', ( 0.000000000000000, -1.00000000000000, -0.000000000000000 ) );
#290 = DIRECTION( '', ( 0.000000000000000, 0.000000000000000, -1.00000000000000 ) );
#291 = SURFACE_STYLE_FILL_AREA( #331 );
#292 = VERTEX_POINT( '', #332 );
#293 = ORIENTED_EDGE( '', *, *, #314, .F. );
#294 = CARTESIAN_POINT( '', ( -5.20417042793042E-15, 40.4000000000000, 0.000000000000000 ) );
#295 = DIRECTION( '', ( 0.000000000000000, -1.00000000000000, 0.000000000000000 ) );
#296 = DIRECTION( '', ( -1.00000000000000, 0.000000000000000, 0.000000000000000 ) );
#297 = SURFACE_STYLE_FILL_AREA( #333 );
#298 = ORIENTED_EDGE( '', *, *, #307, .F. );
#299 = ORIENTED_EDGE( '', *, *, #327, .T. );
#300 = CARTESIAN_POINT( '', ( 20.2500000000000, 47.0000000000000, 0.000000000000000 ) );
#301 = DIRECTION( '', ( 0.000000000000000, -1.00000000000000, -0.000000000000000 ) );
#302 = DIRECTION( '', ( 0.000000000000000, 0.000000000000000, -1.00000000000000 ) );
#303 = FILL_AREA_STYLE( '', ( #334 ) );
#304 = EDGE_CURVE( '', #335, #335, #336, .T. );
#305 = EDGE_CURVE( '', #337, #337, #338, .T. );
#306 = FILL_AREA_STYLE( '', ( #339 ) );
#307 = EDGE_CURVE( '', #340, #340, #341, .T. );
#308 = EDGE_CURVE( '', #342, #342, #343, .T. );
#309 = FILL_AREA_STYLE( '', ( #344 ) );
#310 = EDGE_CURVE( '', #345, #345, #346, .T. );
#311 = FILL_AREA_STYLE( '', ( #347 ) );
#312 = CARTESIAN_POINT( '', ( 0.000000000000000, 45.3437469167505, -10.0037418585401 ) );
#313 = EDGE_CURVE( '', #348, #348, #349, .T. );
#314 = EDGE_CURVE( '', #350, #350, #351, .T. );
#315 = FILL_AREA_STYLE( '', ( #352 ) );
#316 = EDGE_CURVE( '', #353, #353, #354, .T. );
#317 = EDGE_CURVE( '', #355, #355, #356, .T. );
#318 = FILL_AREA_STYLE( '', ( #357 ) );
#319 = EDGE_CURVE( '', #358, #358, #359, .T. );
#320 = FILL_AREA_STYLE( '', ( #360 ) );
#321 = EDGE_CURVE( '', #361, #361, #362, .T. );
#322 = FILL_AREA_STYLE( '', ( #363 ) );
#323 = EDGE_CURVE( '', #364, #364, #365, .T. );
#324 = FILL_AREA_STYLE( '', ( #366 ) );
#325 = EDGE_CURVE( '', #367, #367, #368, .T. );
#326 = FILL_AREA_STYLE( '', ( #369 ) );
#327 = EDGE_CURVE( '', #370, #370, #371, .T. );
#328 = FILL_AREA_STYLE( '', ( #372 ) );
#329 = FILL_AREA_STYLE( '', ( #373 ) );
#330 = FILL_AREA_STYLE( '', ( #374 ) );
#331 = FILL_AREA_STYLE( '', ( #375 ) );
#332 = CARTESIAN_POINT( '', ( -5.88384940145720E-15, 51.5000000000000, 0.000000000000000 ) );
#333 = FILL_AREA_STYLE( '', ( #376 ) );
#334 = FILL_AREA_STYLE_COLOUR( '', #377 );
#335 = VERTEX_POINT( '', #378 );
#336 = CIRCLE( '', #379, 19.5000000000000 );
#337 = VERTEX_POINT( '', #380 );
#338 = CIRCLE( '', #381, 19.5000000000000 );
#339 = FILL_AREA_STYLE_COLOUR( '', #382 );
#340 = VERTEX_POINT( '', #383 );
#341 = CIRCLE( '', #384, 24.5000000000000 );
#342 = VERTEX_POINT( '', #385 );
#343 = CIRCLE( '', #386, 25.0000000000000 );
#344 = FILL_AREA_STYLE_COLOUR( '', #387 );
#345 = VERTEX_POINT( '', #388 );
#346 = CIRCLE( '', #389, 20.0000000000000 );
#347 = FILL_AREA_STYLE_COLOUR( '', #390 );
#348 = VERTEX_POINT( '', #391 );
#349 = CIRCLE( '', #392, 9.50000000000000 );
#350 = VERTEX_POINT( '', #393 );
#351 = CIRCLE( '', #394, 10.0009819295000 );
#352 = FILL_AREA_STYLE_COLOUR( '', #395 );
#353 = VERTEX_POINT( '', #396 );
#354 = CIRCLE( '', #397, 20.2500000000000 );
#355 = VERTEX_POINT( '', #398 );
#356 = CIRCLE( '', #399, 11.7500000000000 );
#357 = FILL_AREA_STYLE_COLOUR( '', #400 );
#358 = VERTEX_POINT( '', #401 );
#359 = CIRCLE( '', #402, 25.0000000000000 );
#360 = FILL_AREA_STYLE_COLOUR( '', #403 );
#361 = VERTEX_POINT( '', #404 );
#362 = CIRCLE( '', #405, 24.5000000000000 );
#363 = FILL_AREA_STYLE_COLOUR( '', #406 );
#364 = VERTEX_POINT( '', #407 );
#365 = CIRCLE( '', #408, 19.0000000000000 );
#366 = FILL_AREA_STYLE_COLOUR( '', #409 );
#367 = VERTEX_POINT( '', #410 );
#368 = CIRCLE( '', #411, 10.0000000000000 );
#369 = FILL_AREA_STYLE_COLOUR( '', #412 );
#370 = VERTEX_POINT( '', #413 );
#371 = CIRCLE( '', #414, 20.2500000000000 );
#372 = FILL_AREA_STYLE_COLOUR( '', #415 );
#373 = FILL_AREA_STYLE_COLOUR( '', #416 );
#374 = FILL_AREA_STYLE_COLOUR( '', #417 );
#375 = FILL_AREA_STYLE_COLOUR( '', #418 );
#376 = FILL_AREA_STYLE_COLOUR( '', #419 );
#377 = COLOUR_RGB( '', 0.689999997600000, 0.689999997600000, 0.689999997600000 );
#378 = CARTESIAN_POINT( '', ( 0.000000000000000, 0.500000000000000, -19.5000000000000 ) );
#379 = AXIS2_PLACEMENT_3D( '', #420, #421, #422 );
#380 = CARTESIAN_POINT( '', ( 0.000000000000000, 32.5000000000000, -19.5000000000000 ) );
#381 = AXIS2_PLACEMENT_3D( '', #423, #424, #425 );
#382 = COLOUR_RGB( '', 0.689999997600000, 0.689999997600000, 0.689999997600000 );
#383 = CARTESIAN_POINT( '', ( 0.000000000000000, 47.0000000000000, -24.5000000000000 ) );
#384 = AXIS2_PLACEMENT_3D( '', #426, #427, #428 );
#385 = CARTESIAN_POINT( '', ( 0.000000000000000, 46.5000000000000, -25.0000000000000 ) );
#386 = AXIS2_PLACEMENT_3D( '', #429, #430, #431 );
#387 = COLOUR_RGB( '', 0.689999997600000, 0.689999997600000, 0.689999997600000 );
#388 = CARTESIAN_POINT( '', ( 0.000000000000000, 33.0000000000000, -20.0000000000000 ) );
#389 = AXIS2_PLACEMENT_3D( '', #432, #433, #434 );
#390 = COLOUR_RGB( '', 0.689999997600000, 0.689999997600000, 0.689999997600000 );
#391 = CARTESIAN_POINT( '', ( 0.000000000000000, 47.0000000000000, -9.50000000000000 ) );
#392 = AXIS2_PLACEMENT_3D( '', #435, #436, #437 );
#393 = CARTESIAN_POINT( '', ( 10.0009819294565, 45.2156370758897, 0.000000000000000 ) );
#394 = AXIS2_PLACEMENT_3D( '', #438, #439, #440 );
#395 = COLOUR_RGB( '', 0.689999997600000, 0.689999997600000, 0.689999997600000 );
#396 = CARTESIAN_POINT( '', ( 0.000000000000000, 44.5000000000000, -20.2500000000000 ) );
#397 = AXIS2_PLACEMENT_3D( '', #441, #442, #443 );
#398 = CARTESIAN_POINT( '', ( 0.000000000000000, 44.5000000000000, -11.7500000000000 ) );
#399 = AXIS2_PLACEMENT_3D( '', #444, #445, #446 );
#400 = COLOUR_RGB( '', 0.689999997600000, 0.689999997600000, 0.689999997600000 );
#401 = CARTESIAN_POINT( '', ( 0.000000000000000, 33.5000000000000, -25.0000000000000 ) );
#402 = AXIS2_PLACEMENT_3D( '', #447, #448, #449 );
#403 = COLOUR_RGB( '', 0.689999997600000, 0.689999997600000, 0.689999997600000 );
#404 = CARTESIAN_POINT( '', ( 0.000000000000000, 33.0000000000000, -24.5000000000000 ) );
#405 = AXIS2_PLACEMENT_3D( '', #450, #451, #452 );
#406 = COLOUR_RGB( '', 0.689999997600000, 0.689999997600000, 0.689999997600000 );
#407 = CARTESIAN_POINT( '', ( 0.000000000000000, 1.95156391047391E-15, -19.0000000000000 ) );
#408 = AXIS2_PLACEMENT_3D( '', #453, #454, #455 );
#409 = COLOUR_RGB( '', 0.689999997600000, 0.689999997600000, 0.689999997600000 );
#410 = CARTESIAN_POINT( '', ( 0.000000000000000, 47.0000000000000, -10.0000000000000 ) );
#411 = AXIS2_PLACEMENT_3D( '', #456, #457, #458 );
#412 = COLOUR_RGB( '', 0.689999997600000, 0.689999997600000, 0.689999997600000 );
#413 = CARTESIAN_POINT( '', ( 0.000000000000000, 47.0000000000000, -20.2500000000000 ) );
#414 = AXIS2_PLACEMENT_3D( '', #459, #460, #461 );
#415 = COLOUR_RGB( '', 0.689999997600000, 0.689999997600000, 0.689999997600000 );
#416 = COLOUR_RGB( '', 0.689999997600000, 0.689999997600000, 0.689999997600000 );
#417 = COLOUR_RGB( '', 0.689999997600000, 0.689999997600000, 0.689999997600000 );
#418 = COLOUR_RGB( '', 0.689999997600000, 0.689999997600000, 0.689999997600000 );
#419 = COLOUR_RGB( '', 0.689999997600000, 0.689999997600000, 0.689999997600000 );
#420 = CARTESIAN_POINT( '', ( 0.000000000000000, 0.500000000000000, 0.000000000000000 ) );
#421 = DIRECTION( '', ( 0.000000000000000, -1.00000000000000, -0.000000000000000 ) );
#422 = DIRECTION( '', ( 0.000000000000000, 0.000000000000000, -1.00000000000000 ) );
#423 = CARTESIAN_POINT( '', ( 0.000000000000000, 32.5000000000000, 0.000000000000000 ) );
#424 = DIRECTION( '', ( 0.000000000000000, -1.00000000000000, -0.000000000000000 ) );
#425 = DIRECTION( '', ( 0.000000000000000, 0.000000000000000, -1.00000000000000 ) );
#426 = CARTESIAN_POINT( '', ( 0.000000000000000, 47.0000000000000, 0.000000000000000 ) );
#427 = DIRECTION( '', ( 0.000000000000000, -1.00000000000000, -0.000000000000000 ) );
#428 = DIRECTION( '', ( 0.000000000000000, 0.000000000000000, -1.00000000000000 ) );
#429 = CARTESIAN_POINT( '', ( 0.000000000000000, 46.5000000000000, 0.000000000000000 ) );
#430 = DIRECTION( '', ( 0.000000000000000, -1.00000000000000, -0.000000000000000 ) );
#431 = DIRECTION( '', ( 0.000000000000000, 0.000000000000000, -1.00000000000000 ) );
#432 = CARTESIAN_POINT( '', ( 0.000000000000000, 33.0000000000000, 0.000000000000000 ) );
#433 = DIRECTION( '', ( 0.000000000000000, -1.00000000000000, -0.000000000000000 ) );
#434 = DIRECTION( '', ( 0.000000000000000, 0.000000000000000, -1.00000000000000 ) );
#435 = CARTESIAN_POINT( '', ( 0.000000000000000, 47.0000000000000, 0.000000000000000 ) );
#436 = DIRECTION( '', ( 0.000000000000000, -1.00000000000000, -0.000000000000000 ) );
#437 = DIRECTION( '', ( 0.000000000000000, 0.000000000000000, -1.00000000000000 ) );
#438 = CARTESIAN_POINT( '', ( -6.74291642110331E-17, 45.2156370758897, 0.000000000000000 ) );
#439 = DIRECTION( '', ( -5.26338677481398E-16, -1.00000000000000, 0.000000000000000 ) );
#440 = DIRECTION( '', ( 1.00000000000000, -5.26338677481398E-16, 0.000000000000000 ) );
#441 = CARTESIAN_POINT( '', ( 0.000000000000000, 44.5000000000000, 0.000000000000000 ) );
#442 = DIRECTION( '', ( 0.000000000000000, -1.00000000000000, -0.000000000000000 ) );
#443 = DIRECTION( '', ( 0.000000000000000, 0.000000000000000, -1.00000000000000 ) );
#444 = CARTESIAN_POINT( '', ( 0.000000000000000, 44.5000000000000, 0.000000000000000 ) );
#445 = DIRECTION( '', ( 0.000000000000000, -1.00000000000000, -0.000000000000000 ) );
#446 = DIRECTION( '', ( 0.000000000000000, 0.000000000000000, -1.00000000000000 ) );
#447 = CARTESIAN_POINT( '', ( 0.000000000000000, 33.5000000000000, 0.000000000000000 ) );
#448 = DIRECTION( '', ( 0.000000000000000, -1.00000000000000, -0.000000000000000 ) );
#449 = DIRECTION( '', ( 0.000000000000000, 0.000000000000000, -1.00000000000000 ) );
#450 = CARTESIAN_POINT( '', ( 0.000000000000000, 33.0000000000000, 0.000000000000000 ) );
#451 = DIRECTION( '', ( 0.000000000000000, -1.00000000000000, -0.000000000000000 ) );
#452 = DIRECTION( '', ( 0.000000000000000, 0.000000000000000, -1.00000000000000 ) );
#453 = CARTESIAN_POINT( '', ( 0.000000000000000, 1.95156391047391E-15, 0.000000000000000 ) );
#454 = DIRECTION( '', ( 0.000000000000000, -1.00000000000000, -0.000000000000000 ) );
#455 = DIRECTION( '', ( 0.000000000000000, 0.000000000000000, -1.00000000000000 ) );
#456 = CARTESIAN_POINT( '', ( 0.000000000000000, 47.0000000000000, 0.000000000000000 ) );
#457 = DIRECTION( '', ( 0.000000000000000, -1.00000000000000, -0.000000000000000 ) );
#458 = DIRECTION( '', ( 0.000000000000000, 0.000000000000000, -1.00000000000000 ) );
#459 = CARTESIAN_POINT( '', ( 0.000000000000000, 47.0000000000000, 0.000000000000000 ) );
#460 = DIRECTION( '', ( 0.000000000000000, -1.00000000000000, -0.000000000000000 ) );
#461 = DIRECTION( '', ( 0.000000000000000, 0.000000000000000, -1.00000000000000 ) );
ENDSEC;
END-ISO-10303-21;
