ISO-10303-21;
HEADER;
FILE_DESCRIPTION( ( 'STEP AP214' ), '1' );
FILE_NAME( '//goodhand-server/Shared Folders/GoodHand Data/Kipp CAD/K0391/K0391.06X40.stp', '2020-12-07T10:16:38', ( '' ), ( '' ), ' ', 'PARTsolutions', ' ' );
FILE_SCHEMA( ( 'AUTOMOTIVE_DESIGN { 1 0 10303 214 1 1 1 1 }' ) );
ENDSEC;
DATA;
#1 = MECHANICAL_DESIGN_GEOMETRIC_PRESENTATION_REPRESENTATION( ' ', ( #10, #11, #12, #13, #14, #15, #16, #17, #18, #19, #20, #21, #22 ), #6 );
#2 = PRODUCT_DEFINITION_CONTEXT( '', #23, 'design' );
#3 = APPLICATION_PROTOCOL_DEFINITION( 'international standard', 'automotive_design', 2001, #23 );
#4 = PRODUCT_CATEGORY_RELATIONSHIP( 'NONE', 'NONE', #24, #25 );
#5 = SHAPE_DEFINITION_REPRESENTATION( #26, #27 );
#6 =  ( GEOMETRIC_REPRESENTATION_CONTEXT( 3 )GLOBAL_UNCERTAINTY_ASSIGNED_CONTEXT( ( #30 ) )GLOBAL_UNIT_ASSIGNED_CONTEXT( ( #32, #33, #34 ) )REPRESENTATION_CONTEXT( 'NONE', 'WORKSPACE' ) );
#10 = STYLED_ITEM( '', ( #36 ), #37 );
#11 = STYLED_ITEM( '', ( #38 ), #39 );
#12 = STYLED_ITEM( '', ( #40 ), #41 );
#13 = STYLED_ITEM( '', ( #42 ), #43 );
#14 = STYLED_ITEM( '', ( #44 ), #45 );
#15 = STYLED_ITEM( '', ( #46 ), #47 );
#16 = STYLED_ITEM( '', ( #48 ), #49 );
#17 = STYLED_ITEM( '', ( #50 ), #51 );
#18 = STYLED_ITEM( '', ( #52 ), #53 );
#19 = STYLED_ITEM( '', ( #54 ), #55 );
#20 = STYLED_ITEM( '', ( #56 ), #57 );
#21 = STYLED_ITEM( '', ( #58 ), #59 );
#22 = STYLED_ITEM( '', ( #60 ), #61 );
#23 = APPLICATION_CONTEXT( 'core data for automotive mechanical design processes' );
#24 = PRODUCT_CATEGORY( 'part', 'NONE' );
#25 = PRODUCT_RELATED_PRODUCT_CATEGORY( 'detail', ' ', ( #62 ) );
#26 = PRODUCT_DEFINITION_SHAPE( 'NONE', 'NONE', #63 );
#27 = ADVANCED_BREP_SHAPE_REPRESENTATION( '_K0391.06X40', ( #64, #65 ), #6 );
#30 = UNCERTAINTY_MEASURE_WITH_UNIT( LENGTH_MEASURE( 0.00100000000000000 ), #32, '', '' );
#32 =  ( CONVERSION_BASED_UNIT( 'MILLIMETRE', #68 )LENGTH_UNIT(  )NAMED_UNIT( #71 ) );
#33 =  ( NAMED_UNIT( #73 )PLANE_ANGLE_UNIT(  )SI_UNIT( $, .RADIAN. ) );
#34 =  ( NAMED_UNIT( #73 )SI_UNIT( $, .STERADIAN. )SOLID_ANGLE_UNIT(  ) );
#36 = PRESENTATION_STYLE_ASSIGNMENT( ( #79 ) );
#37 = ADVANCED_FACE( '', ( #80, #81 ), #82, .F. );
#38 = PRESENTATION_STYLE_ASSIGNMENT( ( #83 ) );
#39 = ADVANCED_FACE( '', ( #84 ), #85, .T. );
#40 = PRESENTATION_STYLE_ASSIGNMENT( ( #86 ) );
#41 = ADVANCED_FACE( '', ( #87, #88 ), #89, .T. );
#42 = PRESENTATION_STYLE_ASSIGNMENT( ( #90 ) );
#43 = ADVANCED_FACE( '', ( #91, #92 ), #93, .T. );
#44 = PRESENTATION_STYLE_ASSIGNMENT( ( #94 ) );
#45 = ADVANCED_FACE( '', ( #95 ), #96, .T. );
#46 = PRESENTATION_STYLE_ASSIGNMENT( ( #97 ) );
#47 = ADVANCED_FACE( '', ( #98, #99 ), #100, .T. );
#48 = PRESENTATION_STYLE_ASSIGNMENT( ( #101 ) );
#49 = ADVANCED_FACE( '', ( #102, #103 ), #104, .T. );
#50 = PRESENTATION_STYLE_ASSIGNMENT( ( #105 ) );
#51 = ADVANCED_FACE( '', ( #106 ), #107, .F. );
#52 = PRESENTATION_STYLE_ASSIGNMENT( ( #108 ) );
#53 = ADVANCED_FACE( '', ( #109 ), #110, .T. );
#54 = PRESENTATION_STYLE_ASSIGNMENT( ( #111 ) );
#55 = ADVANCED_FACE( '', ( #112, #113 ), #114, .T. );
#56 = PRESENTATION_STYLE_ASSIGNMENT( ( #115 ) );
#57 = ADVANCED_FACE( '', ( #116 ), #117, .T. );
#58 = PRESENTATION_STYLE_ASSIGNMENT( ( #118 ) );
#59 = ADVANCED_FACE( '', ( #119 ), #120, .T. );
#60 = PRESENTATION_STYLE_ASSIGNMENT( ( #121 ) );
#61 = ADVANCED_FACE( '', ( #122 ), #123, .T. );
#62 = PRODUCT( '_K0391.06X40', '_K0391.06X40', 'PART-_K0391.06X40-DESC', ( #124 ) );
#63 = PRODUCT_DEFINITION( 'NONE', 'NONE', #125, #2 );
#64 = MANIFOLD_SOLID_BREP( '_K0391.06X40', #126 );
#65 = AXIS2_PLACEMENT_3D( '', #127, #128, #129 );
#68 = LENGTH_MEASURE_WITH_UNIT( LENGTH_MEASURE( 1.00000000000000 ), #130 );
#71 = DIMENSIONAL_EXPONENTS( 1.00000000000000, 0.000000000000000, 0.000000000000000, 0.000000000000000, 0.000000000000000, 0.000000000000000, 0.000000000000000 );
#73 = DIMENSIONAL_EXPONENTS( 0.000000000000000, 0.000000000000000, 0.000000000000000, 0.000000000000000, 0.000000000000000, 0.000000000000000, 0.000000000000000 );
#79 = SURFACE_STYLE_USAGE( .BOTH., #131 );
#80 = FACE_OUTER_BOUND( '', #132, .T. );
#81 = FACE_BOUND( '', #133, .T. );
#82 = PLANE( '', #134 );
#83 = SURFACE_STYLE_USAGE( .BOTH., #135 );
#84 = FACE_OUTER_BOUND( '', #136, .T. );
#85 = PLANE( '', #137 );
#86 = SURFACE_STYLE_USAGE( .BOTH., #138 );
#87 = FACE_OUTER_BOUND( '', #139, .T. );
#88 = FACE_OUTER_BOUND( '', #140, .T. );
#89 = CYLINDRICAL_SURFACE( '', #141, 1.75000000000000 );
#90 = SURFACE_STYLE_USAGE( .BOTH., #142 );
#91 = FACE_BOUND( '', #143, .T. );
#92 = FACE_OUTER_BOUND( '', #144, .T. );
#93 = SPHERICAL_SURFACE( '', #145, 2.25000000000000 );
#94 = SURFACE_STYLE_USAGE( .BOTH., #146 );
#95 = FACE_OUTER_BOUND( '', #147, .T. );
#96 = PLANE( '', #148 );
#97 = SURFACE_STYLE_USAGE( .BOTH., #149 );
#98 = FACE_BOUND( '', #150, .T. );
#99 = FACE_OUTER_BOUND( '', #151, .T. );
#100 = CONICAL_SURFACE( '', #152, 3.00000000000000, 0.805803494100000 );
#101 = SURFACE_STYLE_USAGE( .BOTH., #153 );
#102 = FACE_OUTER_BOUND( '', #154, .T. );
#103 = FACE_OUTER_BOUND( '', #155, .T. );
#104 = CYLINDRICAL_SURFACE( '', #156, 3.00000000000000 );
#105 = SURFACE_STYLE_USAGE( .BOTH., #157 );
#106 = FACE_OUTER_BOUND( '', #158, .T. );
#107 = PLANE( '', #159 );
#108 = SURFACE_STYLE_USAGE( .BOTH., #160 );
#109 = FACE_OUTER_BOUND( '', #161, .T. );
#110 = PLANE( '', #162 );
#111 = SURFACE_STYLE_USAGE( .BOTH., #163 );
#112 = FACE_OUTER_BOUND( '', #164, .T. );
#113 = FACE_BOUND( '', #165, .T. );
#114 = CONICAL_SURFACE( '', #166, 2.38650000000000, 0.785398163400000 );
#115 = SURFACE_STYLE_USAGE( .BOTH., #167 );
#116 = FACE_OUTER_BOUND( '', #168, .T. );
#117 = PLANE( '', #169 );
#118 = SURFACE_STYLE_USAGE( .BOTH., #170 );
#119 = FACE_OUTER_BOUND( '', #171, .T. );
#120 = PLANE( '', #172 );
#121 = SURFACE_STYLE_USAGE( .BOTH., #173 );
#122 = FACE_OUTER_BOUND( '', #174, .T. );
#123 = PLANE( '', #175 );
#124 = PRODUCT_CONTEXT( '', #23, 'mechanical' );
#125 = PRODUCT_DEFINITION_FORMATION_WITH_SPECIFIED_SOURCE( ' ', 'NONE', #62, .NOT_KNOWN. );
#126 = CLOSED_SHELL( '', ( #55, #37, #57, #59, #53, #43, #41, #47, #49, #61, #39, #45, #51 ) );
#127 = CARTESIAN_POINT( '', ( 0.000000000000000, 0.000000000000000, 0.000000000000000 ) );
#128 = DIRECTION( '', ( 0.000000000000000, 0.000000000000000, 1.00000000000000 ) );
#129 = DIRECTION( '', ( 1.00000000000000, 0.000000000000000, 0.000000000000000 ) );
#130 =  ( LENGTH_UNIT(  )NAMED_UNIT( #71 )SI_UNIT( .MILLI., .METRE. ) );
#131 = SURFACE_SIDE_STYLE( '', ( #177 ) );
#132 = EDGE_LOOP( '', ( #178 ) );
#133 = EDGE_LOOP( '', ( #179, #180, #181, #182, #183, #184 ) );
#134 = AXIS2_PLACEMENT_3D( '', #185, #186, #187 );
#135 = SURFACE_SIDE_STYLE( '', ( #188 ) );
#136 = EDGE_LOOP( '', ( #189, #190, #191, #192 ) );
#137 = AXIS2_PLACEMENT_3D( '', #193, #194, #195 );
#138 = SURFACE_SIDE_STYLE( '', ( #196 ) );
#139 = EDGE_LOOP( '', ( #197 ) );
#140 = EDGE_LOOP( '', ( #198 ) );
#141 = AXIS2_PLACEMENT_3D( '', #199, #200, #201 );
#142 = SURFACE_SIDE_STYLE( '', ( #202 ) );
#143 = VERTEX_LOOP( '', #203 );
#144 = EDGE_LOOP( '', ( #204 ) );
#145 = AXIS2_PLACEMENT_3D( '', #205, #206, #207 );
#146 = SURFACE_SIDE_STYLE( '', ( #208 ) );
#147 = EDGE_LOOP( '', ( #209, #210, #211, #212 ) );
#148 = AXIS2_PLACEMENT_3D( '', #213, #214, #215 );
#149 = SURFACE_SIDE_STYLE( '', ( #216 ) );
#150 = EDGE_LOOP( '', ( #217 ) );
#151 = EDGE_LOOP( '', ( #218 ) );
#152 = AXIS2_PLACEMENT_3D( '', #219, #220, #221 );
#153 = SURFACE_SIDE_STYLE( '', ( #222 ) );
#154 = EDGE_LOOP( '', ( #223 ) );
#155 = EDGE_LOOP( '', ( #224 ) );
#156 = AXIS2_PLACEMENT_3D( '', #225, #226, #227 );
#157 = SURFACE_SIDE_STYLE( '', ( #228 ) );
#158 = EDGE_LOOP( '', ( #229, #230, #231, #232, #233, #234 ) );
#159 = AXIS2_PLACEMENT_3D( '', #235, #236, #237 );
#160 = SURFACE_SIDE_STYLE( '', ( #238 ) );
#161 = EDGE_LOOP( '', ( #239, #240, #241, #242 ) );
#162 = AXIS2_PLACEMENT_3D( '', #243, #244, #245 );
#163 = SURFACE_SIDE_STYLE( '', ( #246 ) );
#164 = EDGE_LOOP( '', ( #247 ) );
#165 = EDGE_LOOP( '', ( #248 ) );
#166 = AXIS2_PLACEMENT_3D( '', #249, #250, #251 );
#167 = SURFACE_SIDE_STYLE( '', ( #252 ) );
#168 = EDGE_LOOP( '', ( #253, #254, #255, #256 ) );
#169 = AXIS2_PLACEMENT_3D( '', #257, #258, #259 );
#170 = SURFACE_SIDE_STYLE( '', ( #260 ) );
#171 = EDGE_LOOP( '', ( #261, #262, #263, #264 ) );
#172 = AXIS2_PLACEMENT_3D( '', #265, #266, #267 );
#173 = SURFACE_SIDE_STYLE( '', ( #268 ) );
#174 = EDGE_LOOP( '', ( #269, #270, #271, #272 ) );
#175 = AXIS2_PLACEMENT_3D( '', #273, #274, #275 );
#177 = SURFACE_STYLE_FILL_AREA( #276 );
#178 = ORIENTED_EDGE( '', *, *, #277, .F. );
#179 = ORIENTED_EDGE( '', *, *, #278, .T. );
#180 = ORIENTED_EDGE( '', *, *, #279, .T. );
#181 = ORIENTED_EDGE( '', *, *, #280, .T. );
#182 = ORIENTED_EDGE( '', *, *, #281, .T. );
#183 = ORIENTED_EDGE( '', *, *, #282, .T. );
#184 = ORIENTED_EDGE( '', *, *, #283, .T. );
#185 = CARTESIAN_POINT( '', ( 0.000000000000000, 0.000000000000000, 0.000000000000000 ) );
#186 = DIRECTION( '', ( 1.00000000000000, 0.000000000000000, -0.000000000000000 ) );
#187 = DIRECTION( '', ( -0.000000000000000, 0.000000000000000, -1.00000000000000 ) );
#188 = SURFACE_STYLE_FILL_AREA( #284 );
#189 = ORIENTED_EDGE( '', *, *, #282, .F. );
#190 = ORIENTED_EDGE( '', *, *, #285, .F. );
#191 = ORIENTED_EDGE( '', *, *, #286, .T. );
#192 = ORIENTED_EDGE( '', *, *, #287, .T. );
#193 = CARTESIAN_POINT( '', ( 3.00000000000000, 0.866025403784439, -1.50000000000000 ) );
#194 = DIRECTION( '', ( 0.000000000000000, -0.866025403784439, 0.500000000000000 ) );
#195 = DIRECTION( '', ( 0.000000000000000, -0.500000000000000, -0.866025403784439 ) );
#196 = SURFACE_STYLE_FILL_AREA( #288 );
#197 = ORIENTED_EDGE( '', *, *, #289, .F. );
#198 = ORIENTED_EDGE( '', *, *, #290, .T. );
#199 = CARTESIAN_POINT( '', ( 40.0000000000000, 0.000000000000000, 0.000000000000000 ) );
#200 = DIRECTION( '', ( -1.00000000000000, -0.000000000000000, 0.000000000000000 ) );
#201 = DIRECTION( '', ( -0.000000000000000, 0.000000000000000, -1.00000000000000 ) );
#202 = SURFACE_STYLE_FILL_AREA( #291 );
#203 = VERTEX_POINT( '', #292 );
#204 = ORIENTED_EDGE( '', *, *, #289, .T. );
#205 = CARTESIAN_POINT( '', ( 37.7500000000000, -6.50521303491303E-16, 0.000000000000000 ) );
#206 = DIRECTION( '', ( 1.00000000000000, 0.000000000000000, 0.000000000000000 ) );
#207 = DIRECTION( '', ( 0.000000000000000, 1.00000000000000, 0.000000000000000 ) );
#208 = SURFACE_STYLE_FILL_AREA( #293 );
#209 = ORIENTED_EDGE( '', *, *, #283, .F. );
#210 = ORIENTED_EDGE( '', *, *, #287, .F. );
#211 = ORIENTED_EDGE( '', *, *, #294, .T. );
#212 = ORIENTED_EDGE( '', *, *, #295, .T. );
#213 = CARTESIAN_POINT( '', ( 3.00000000000000, 1.73205080756888, 0.000000000000000 ) );
#214 = DIRECTION( '', ( 0.000000000000000, -0.866025403784439, -0.500000000000000 ) );
#215 = DIRECTION( '', ( 0.000000000000000, 0.500000000000000, -0.866025403784439 ) );
#216 = SURFACE_STYLE_FILL_AREA( #296 );
#217 = ORIENTED_EDGE( '', *, *, #290, .F. );
#218 = ORIENTED_EDGE( '', *, *, #297, .T. );
#219 = CARTESIAN_POINT( '', ( 34.5000000000000, 0.000000000000000, 0.000000000000000 ) );
#220 = DIRECTION( '', ( -1.00000000000000, 0.000000000000000, -0.000000000000000 ) );
#221 = DIRECTION( '', ( 0.000000000000000, 0.000000000000000, 1.00000000000000 ) );
#222 = SURFACE_STYLE_FILL_AREA( #298 );
#223 = ORIENTED_EDGE( '', *, *, #297, .F. );
#224 = ORIENTED_EDGE( '', *, *, #299, .T. );
#225 = CARTESIAN_POINT( '', ( 40.0000000000000, 0.000000000000000, 0.000000000000000 ) );
#226 = DIRECTION( '', ( -1.00000000000000, -0.000000000000000, 0.000000000000000 ) );
#227 = DIRECTION( '', ( -0.000000000000000, 0.000000000000000, -1.00000000000000 ) );
#228 = SURFACE_STYLE_FILL_AREA( #300 );
#229 = ORIENTED_EDGE( '', *, *, #301, .F. );
#230 = ORIENTED_EDGE( '', *, *, #294, .F. );
#231 = ORIENTED_EDGE( '', *, *, #286, .F. );
#232 = ORIENTED_EDGE( '', *, *, #302, .F. );
#233 = ORIENTED_EDGE( '', *, *, #303, .F. );
#234 = ORIENTED_EDGE( '', *, *, #304, .F. );
#235 = CARTESIAN_POINT( '', ( 3.00000000000000, 0.000000000000000, 0.000000000000000 ) );
#236 = DIRECTION( '', ( 1.00000000000000, 0.000000000000000, 0.000000000000000 ) );
#237 = DIRECTION( '', ( 0.000000000000000, 0.000000000000000, -1.00000000000000 ) );
#238 = SURFACE_STYLE_FILL_AREA( #305 );
#239 = ORIENTED_EDGE( '', *, *, #278, .F. );
#240 = ORIENTED_EDGE( '', *, *, #295, .F. );
#241 = ORIENTED_EDGE( '', *, *, #301, .T. );
#242 = ORIENTED_EDGE( '', *, *, #306, .T. );
#243 = CARTESIAN_POINT( '', ( 3.00000000000000, 0.866025403784439, 1.50000000000000 ) );
#244 = DIRECTION( '', ( 0.000000000000000, 0.000000000000000, -1.00000000000000 ) );
#245 = DIRECTION( '', ( -1.00000000000000, 0.000000000000000, 0.000000000000000 ) );
#246 = SURFACE_STYLE_FILL_AREA( #307 );
#247 = ORIENTED_EDGE( '', *, *, #299, .F. );
#248 = ORIENTED_EDGE( '', *, *, #277, .T. );
#249 = CARTESIAN_POINT( '', ( 0.000000000000000, 0.000000000000000, 0.000000000000000 ) );
#250 = DIRECTION( '', ( 1.00000000000000, -0.000000000000000, -0.000000000000000 ) );
#251 = DIRECTION( '', ( -0.000000000000000, 0.000000000000000, -1.00000000000000 ) );
#252 = SURFACE_STYLE_FILL_AREA( #308 );
#253 = ORIENTED_EDGE( '', *, *, #279, .F. );
#254 = ORIENTED_EDGE( '', *, *, #306, .F. );
#255 = ORIENTED_EDGE( '', *, *, #304, .T. );
#256 = ORIENTED_EDGE( '', *, *, #309, .T. );
#257 = CARTESIAN_POINT( '', ( 3.00000000000000, -0.866025403784439, 1.50000000000000 ) );
#258 = DIRECTION( '', ( 0.000000000000000, 0.866025403784439, -0.500000000000000 ) );
#259 = DIRECTION( '', ( 0.000000000000000, 0.500000000000000, 0.866025403784439 ) );
#260 = SURFACE_STYLE_FILL_AREA( #310 );
#261 = ORIENTED_EDGE( '', *, *, #280, .F. );
#262 = ORIENTED_EDGE( '', *, *, #309, .F. );
#263 = ORIENTED_EDGE( '', *, *, #303, .T. );
#264 = ORIENTED_EDGE( '', *, *, #311, .T. );
#265 = CARTESIAN_POINT( '', ( 3.00000000000000, -1.73205080756888, 0.000000000000000 ) );
#266 = DIRECTION( '', ( -0.000000000000000, 0.866025403784439, 0.500000000000000 ) );
#267 = DIRECTION( '', ( 0.000000000000000, -0.500000000000000, 0.866025403784439 ) );
#268 = SURFACE_STYLE_FILL_AREA( #312 );
#269 = ORIENTED_EDGE( '', *, *, #281, .F. );
#270 = ORIENTED_EDGE( '', *, *, #311, .F. );
#271 = ORIENTED_EDGE( '', *, *, #302, .T. );
#272 = ORIENTED_EDGE( '', *, *, #285, .T. );
#273 = CARTESIAN_POINT( '', ( 3.00000000000000, -0.866025403784439, -1.50000000000000 ) );
#274 = DIRECTION( '', ( 0.000000000000000, 0.000000000000000, 1.00000000000000 ) );
#275 = DIRECTION( '', ( 1.00000000000000, 0.000000000000000, -0.000000000000000 ) );
#276 = FILL_AREA_STYLE( '', ( #313 ) );
#277 = EDGE_CURVE( '', #314, #314, #315, .T. );
#278 = EDGE_CURVE( '', #316, #317, #318, .T. );
#279 = EDGE_CURVE( '', #317, #319, #320, .T. );
#280 = EDGE_CURVE( '', #319, #321, #322, .T. );
#281 = EDGE_CURVE( '', #321, #323, #324, .T. );
#282 = EDGE_CURVE( '', #323, #325, #326, .T. );
#283 = EDGE_CURVE( '', #325, #316, #327, .T. );
#284 = FILL_AREA_STYLE( '', ( #328 ) );
#285 = EDGE_CURVE( '', #329, #323, #330, .T. );
#286 = EDGE_CURVE( '', #329, #331, #332, .T. );
#287 = EDGE_CURVE( '', #331, #325, #333, .T. );
#288 = FILL_AREA_STYLE( '', ( #334 ) );
#289 = EDGE_CURVE( '', #335, #335, #336, .T. );
#290 = EDGE_CURVE( '', #337, #337, #338, .T. );
#291 = FILL_AREA_STYLE( '', ( #339 ) );
#292 = CARTESIAN_POINT( '', ( 40.0000000000000, -5.12748538587226E-16, 0.000000000000000 ) );
#293 = FILL_AREA_STYLE( '', ( #340 ) );
#294 = EDGE_CURVE( '', #331, #341, #342, .T. );
#295 = EDGE_CURVE( '', #341, #316, #343, .T. );
#296 = FILL_AREA_STYLE( '', ( #344 ) );
#297 = EDGE_CURVE( '', #345, #345, #346, .T. );
#298 = FILL_AREA_STYLE( '', ( #347 ) );
#299 = EDGE_CURVE( '', #348, #348, #349, .T. );
#300 = FILL_AREA_STYLE( '', ( #350 ) );
#301 = EDGE_CURVE( '', #341, #351, #352, .T. );
#302 = EDGE_CURVE( '', #353, #329, #354, .T. );
#303 = EDGE_CURVE( '', #355, #353, #356, .T. );
#304 = EDGE_CURVE( '', #351, #355, #357, .T. );
#305 = FILL_AREA_STYLE( '', ( #358 ) );
#306 = EDGE_CURVE( '', #351, #317, #359, .T. );
#307 = FILL_AREA_STYLE( '', ( #360 ) );
#308 = FILL_AREA_STYLE( '', ( #361 ) );
#309 = EDGE_CURVE( '', #355, #319, #362, .T. );
#310 = FILL_AREA_STYLE( '', ( #363 ) );
#311 = EDGE_CURVE( '', #353, #321, #364, .T. );
#312 = FILL_AREA_STYLE( '', ( #365 ) );
#313 = FILL_AREA_STYLE_COLOUR( '', #366 );
#314 = VERTEX_POINT( '', #367 );
#315 = CIRCLE( '', #368, 2.38650000000000 );
#316 = VERTEX_POINT( '', #369 );
#317 = VERTEX_POINT( '', #370 );
#318 = LINE( '', #371, #372 );
#319 = VERTEX_POINT( '', #373 );
#320 = LINE( '', #374, #375 );
#321 = VERTEX_POINT( '', #376 );
#322 = LINE( '', #377, #378 );
#323 = VERTEX_POINT( '', #379 );
#324 = LINE( '', #380, #381 );
#325 = VERTEX_POINT( '', #382 );
#326 = LINE( '', #383, #384 );
#327 = LINE( '', #385, #386 );
#328 = FILL_AREA_STYLE_COLOUR( '', #387 );
#329 = VERTEX_POINT( '', #388 );
#330 = LINE( '', #389, #390 );
#331 = VERTEX_POINT( '', #391 );
#332 = LINE( '', #392, #393 );
#333 = LINE( '', #394, #395 );
#334 = FILL_AREA_STYLE_COLOUR( '', #396 );
#335 = VERTEX_POINT( '', #397 );
#336 = CIRCLE( '', #398, 1.75000000000000 );
#337 = VERTEX_POINT( '', #399 );
#338 = CIRCLE( '', #400, 1.75000000000000 );
#339 = FILL_AREA_STYLE_COLOUR( '', #401 );
#340 = FILL_AREA_STYLE_COLOUR( '', #402 );
#341 = VERTEX_POINT( '', #403 );
#342 = LINE( '', #404, #405 );
#343 = LINE( '', #406, #407 );
#344 = FILL_AREA_STYLE_COLOUR( '', #408 );
#345 = VERTEX_POINT( '', #409 );
#346 = CIRCLE( '', #410, 3.00000000000000 );
#347 = FILL_AREA_STYLE_COLOUR( '', #411 );
#348 = VERTEX_POINT( '', #412 );
#349 = CIRCLE( '', #413, 3.00000000000000 );
#350 = FILL_AREA_STYLE_COLOUR( '', #414 );
#351 = VERTEX_POINT( '', #415 );
#352 = LINE( '', #416, #417 );
#353 = VERTEX_POINT( '', #418 );
#354 = LINE( '', #419, #420 );
#355 = VERTEX_POINT( '', #421 );
#356 = LINE( '', #422, #423 );
#357 = LINE( '', #424, #425 );
#358 = FILL_AREA_STYLE_COLOUR( '', #426 );
#359 = LINE( '', #427, #428 );
#360 = FILL_AREA_STYLE_COLOUR( '', #429 );
#361 = FILL_AREA_STYLE_COLOUR( '', #430 );
#362 = LINE( '', #431, #432 );
#363 = FILL_AREA_STYLE_COLOUR( '', #433 );
#364 = LINE( '', #434, #435 );
#365 = FILL_AREA_STYLE_COLOUR( '', #436 );
#366 = COLOUR_RGB( '', 0.689999997600000, 0.689999997600000, 0.689999997600000 );
#367 = CARTESIAN_POINT( '', ( 0.000000000000000, 0.000000000000000, -2.38650000000000 ) );
#368 = AXIS2_PLACEMENT_3D( '', #437, #438, #439 );
#369 = CARTESIAN_POINT( '', ( 0.000000000000000, 0.866025403784439, 1.50000000000000 ) );
#370 = CARTESIAN_POINT( '', ( 0.000000000000000, -0.866025403784439, 1.50000000000000 ) );
#371 = CARTESIAN_POINT( '', ( 0.000000000000000, 0.866025403784439, 1.50000000000000 ) );
#372 = VECTOR( '', #440, 1000.00000000000 );
#373 = CARTESIAN_POINT( '', ( 0.000000000000000, -1.73205080756888, 0.000000000000000 ) );
#374 = CARTESIAN_POINT( '', ( 0.000000000000000, -0.866025403784439, 1.50000000000000 ) );
#375 = VECTOR( '', #441, 1000.00000000000 );
#376 = CARTESIAN_POINT( '', ( 0.000000000000000, -0.866025403784439, -1.50000000000000 ) );
#377 = CARTESIAN_POINT( '', ( 0.000000000000000, -1.73205080756888, 0.000000000000000 ) );
#378 = VECTOR( '', #442, 1000.00000000000 );
#379 = CARTESIAN_POINT( '', ( 0.000000000000000, 0.866025403784438, -1.50000000000000 ) );
#380 = CARTESIAN_POINT( '', ( 0.000000000000000, -0.866025403784439, -1.50000000000000 ) );
#381 = VECTOR( '', #443, 1000.00000000000 );
#382 = CARTESIAN_POINT( '', ( 0.000000000000000, 1.73205080756888, 0.000000000000000 ) );
#383 = CARTESIAN_POINT( '', ( 0.000000000000000, 0.866025403784439, -1.50000000000000 ) );
#384 = VECTOR( '', #444, 1000.00000000000 );
#385 = CARTESIAN_POINT( '', ( 0.000000000000000, 1.73205080756888, 0.000000000000000 ) );
#386 = VECTOR( '', #445, 1000.00000000000 );
#387 = COLOUR_RGB( '', 0.689999997600000, 0.689999997600000, 0.689999997600000 );
#388 = CARTESIAN_POINT( '', ( 3.00000000000000, 0.866025403784438, -1.50000000000000 ) );
#389 = CARTESIAN_POINT( '', ( 3.00000000000000, 0.866025403784438, -1.50000000000000 ) );
#390 = VECTOR( '', #446, 1000.00000000000 );
#391 = CARTESIAN_POINT( '', ( 3.00000000000000, 1.73205080756888, 0.000000000000000 ) );
#392 = CARTESIAN_POINT( '', ( 3.00000000000000, 0.866025403784439, -1.50000000000000 ) );
#393 = VECTOR( '', #447, 1000.00000000000 );
#394 = CARTESIAN_POINT( '', ( 3.00000000000000, 1.73205080756888, 0.000000000000000 ) );
#395 = VECTOR( '', #448, 1000.00000000000 );
#396 = COLOUR_RGB( '', 0.689999997600000, 0.689999997600000, 0.689999997600000 );
#397 = CARTESIAN_POINT( '', ( 36.3357864376269, 0.000000000000000, -1.75000000000000 ) );
#398 = AXIS2_PLACEMENT_3D( '', #449, #450, #451 );
#399 = CARTESIAN_POINT( '', ( 35.7000000000000, 0.000000000000000, -1.75000000000000 ) );
#400 = AXIS2_PLACEMENT_3D( '', #452, #453, #454 );
#401 = COLOUR_RGB( '', 0.689999997600000, 0.689999997600000, 0.689999997600000 );
#402 = COLOUR_RGB( '', 0.689999997600000, 0.689999997600000, 0.689999997600000 );
#403 = CARTESIAN_POINT( '', ( 3.00000000000000, 0.866025403784439, 1.50000000000000 ) );
#404 = CARTESIAN_POINT( '', ( 3.00000000000000, 1.73205080756888, 0.000000000000000 ) );
#405 = VECTOR( '', #455, 1000.00000000000 );
#406 = CARTESIAN_POINT( '', ( 3.00000000000000, 0.866025403784439, 1.50000000000000 ) );
#407 = VECTOR( '', #456, 1000.00000000000 );
#408 = COLOUR_RGB( '', 0.689999997600000, 0.689999997600000, 0.689999997600000 );
#409 = CARTESIAN_POINT( '', ( 34.5000000000000, 0.000000000000000, -3.00000000000000 ) );
#410 = AXIS2_PLACEMENT_3D( '', #457, #458, #459 );
#411 = COLOUR_RGB( '', 0.689999997600000, 0.689999997600000, 0.689999997600000 );
#412 = CARTESIAN_POINT( '', ( 0.613500000000003, 0.000000000000000, -3.00000000000000 ) );
#413 = AXIS2_PLACEMENT_3D( '', #460, #461, #462 );
#414 = COLOUR_RGB( '', 0.689999997600000, 0.689999997600000, 0.689999997600000 );
#415 = CARTESIAN_POINT( '', ( 3.00000000000000, -0.866025403784439, 1.50000000000000 ) );
#416 = CARTESIAN_POINT( '', ( 3.00000000000000, 0.866025403784439, 1.50000000000000 ) );
#417 = VECTOR( '', #463, 1000.00000000000 );
#418 = CARTESIAN_POINT( '', ( 3.00000000000000, -0.866025403784439, -1.50000000000000 ) );
#419 = CARTESIAN_POINT( '', ( 3.00000000000000, -0.866025403784439, -1.50000000000000 ) );
#420 = VECTOR( '', #464, 1000.00000000000 );
#421 = CARTESIAN_POINT( '', ( 3.00000000000000, -1.73205080756888, 0.000000000000000 ) );
#422 = CARTESIAN_POINT( '', ( 3.00000000000000, -1.73205080756888, 0.000000000000000 ) );
#423 = VECTOR( '', #465, 1000.00000000000 );
#424 = CARTESIAN_POINT( '', ( 3.00000000000000, -0.866025403784439, 1.50000000000000 ) );
#425 = VECTOR( '', #466, 1000.00000000000 );
#426 = COLOUR_RGB( '', 0.689999997600000, 0.689999997600000, 0.689999997600000 );
#427 = CARTESIAN_POINT( '', ( 3.00000000000000, -0.866025403784439, 1.50000000000000 ) );
#428 = VECTOR( '', #467, 1000.00000000000 );
#429 = COLOUR_RGB( '', 0.689999997600000, 0.689999997600000, 0.689999997600000 );
#430 = COLOUR_RGB( '', 0.689999997600000, 0.689999997600000, 0.689999997600000 );
#431 = CARTESIAN_POINT( '', ( 3.00000000000000, -1.73205080756888, 0.000000000000000 ) );
#432 = VECTOR( '', #468, 1000.00000000000 );
#433 = COLOUR_RGB( '', 0.689999997600000, 0.689999997600000, 0.689999997600000 );
#434 = CARTESIAN_POINT( '', ( 3.00000000000000, -0.866025403784439, -1.50000000000000 ) );
#435 = VECTOR( '', #469, 1000.00000000000 );
#436 = COLOUR_RGB( '', 0.689999997600000, 0.689999997600000, 0.689999997600000 );
#437 = CARTESIAN_POINT( '', ( 0.000000000000000, 0.000000000000000, 0.000000000000000 ) );
#438 = DIRECTION( '', ( 1.00000000000000, 0.000000000000000, -0.000000000000000 ) );
#439 = DIRECTION( '', ( -0.000000000000000, 0.000000000000000, -1.00000000000000 ) );
#440 = DIRECTION( '', ( 0.000000000000000, -1.00000000000000, 0.000000000000000 ) );
#441 = DIRECTION( '', ( 0.000000000000000, -0.500000000000000, -0.866025403784439 ) );
#442 = DIRECTION( '', ( 0.000000000000000, 0.500000000000000, -0.866025403784439 ) );
#443 = DIRECTION( '', ( 0.000000000000000, 1.00000000000000, 0.000000000000000 ) );
#444 = DIRECTION( '', ( 0.000000000000000, 0.500000000000000, 0.866025403784439 ) );
#445 = DIRECTION( '', ( 0.000000000000000, -0.500000000000000, 0.866025403784439 ) );
#446 = DIRECTION( '', ( -1.00000000000000, -0.000000000000000, -0.000000000000000 ) );
#447 = DIRECTION( '', ( 0.000000000000000, 0.500000000000000, 0.866025403784439 ) );
#448 = DIRECTION( '', ( -1.00000000000000, -0.000000000000000, -0.000000000000000 ) );
#449 = CARTESIAN_POINT( '', ( 36.3357864376269, 0.000000000000000, 0.000000000000000 ) );
#450 = DIRECTION( '', ( 1.00000000000000, 0.000000000000000, -0.000000000000000 ) );
#451 = DIRECTION( '', ( -0.000000000000000, 0.000000000000000, -1.00000000000000 ) );
#452 = CARTESIAN_POINT( '', ( 35.7000000000000, 0.000000000000000, 0.000000000000000 ) );
#453 = DIRECTION( '', ( 1.00000000000000, 0.000000000000000, -0.000000000000000 ) );
#454 = DIRECTION( '', ( -0.000000000000000, 0.000000000000000, -1.00000000000000 ) );
#455 = DIRECTION( '', ( 0.000000000000000, -0.500000000000000, 0.866025403784439 ) );
#456 = DIRECTION( '', ( -1.00000000000000, -0.000000000000000, -0.000000000000000 ) );
#457 = CARTESIAN_POINT( '', ( 34.5000000000000, 0.000000000000000, 0.000000000000000 ) );
#458 = DIRECTION( '', ( 1.00000000000000, 0.000000000000000, -0.000000000000000 ) );
#459 = DIRECTION( '', ( -0.000000000000000, 0.000000000000000, -1.00000000000000 ) );
#460 = CARTESIAN_POINT( '', ( 0.613500000000003, 0.000000000000000, 0.000000000000000 ) );
#461 = DIRECTION( '', ( 1.00000000000000, 0.000000000000000, -0.000000000000000 ) );
#462 = DIRECTION( '', ( -0.000000000000000, 0.000000000000000, -1.00000000000000 ) );
#463 = DIRECTION( '', ( 0.000000000000000, -1.00000000000000, 0.000000000000000 ) );
#464 = DIRECTION( '', ( 0.000000000000000, 1.00000000000000, 0.000000000000000 ) );
#465 = DIRECTION( '', ( 0.000000000000000, 0.500000000000000, -0.866025403784439 ) );
#466 = DIRECTION( '', ( 0.000000000000000, -0.500000000000000, -0.866025403784439 ) );
#467 = DIRECTION( '', ( -1.00000000000000, -0.000000000000000, -0.000000000000000 ) );
#468 = DIRECTION( '', ( -1.00000000000000, -0.000000000000000, -0.000000000000000 ) );
#469 = DIRECTION( '', ( -1.00000000000000, -0.000000000000000, -0.000000000000000 ) );
ENDSEC;
END-ISO-10303-21;
