ISO-10303-21;
HEADER;
FILE_DESCRIPTION( ( 'STEP AP214' ), '1' );
FILE_NAME( '//goodhand-server/Shared Folders/GoodHand Data/Kipp CAD/K0391/K0391.10X60.stp', '2020-12-07T10:17:33', ( '' ), ( '' ), ' ', 'PARTsolutions', ' ' );
FILE_SCHEMA( ( 'AUTOMOTIVE_DESIGN { 1 0 10303 214 1 1 1 1 }' ) );
ENDSEC;
DATA;
#1 = MECHANICAL_DESIGN_GEOMETRIC_PRESENTATION_REPRESENTATION( ' ', ( #10, #11, #12, #13, #14, #15, #16, #17, #18, #19, #20, #21, #22 ), #6 );
#2 = PRODUCT_DEFINITION_CONTEXT( '', #23, 'design' );
#3 = APPLICATION_PROTOCOL_DEFINITION( 'international standard', 'automotive_design', 2001, #23 );
#4 = PRODUCT_CATEGORY_RELATIONSHIP( 'NONE', 'NONE', #24, #25 );
#5 = SHAPE_DEFINITION_REPRESENTATION( #26, #27 );
#6 =  ( GEOMETRIC_REPRESENTATION_CONTEXT( 3 )GLOBAL_UNCERTAINTY_ASSIGNED_CONTEXT( ( #30 ) )GLOBAL_UNIT_ASSIGNED_CONTEXT( ( #32, #33, #34 ) )REPRESENTATION_CONTEXT( 'NONE', 'WORKSPACE' ) );
#10 = STYLED_ITEM( '', ( #36 ), #37 );
#11 = STYLED_ITEM( '', ( #38 ), #39 );
#12 = STYLED_ITEM( '', ( #40 ), #41 );
#13 = STYLED_ITEM( '', ( #42 ), #43 );
#14 = STYLED_ITEM( '', ( #44 ), #45 );
#15 = STYLED_ITEM( '', ( #46 ), #47 );
#16 = STYLED_ITEM( '', ( #48 ), #49 );
#17 = STYLED_ITEM( '', ( #50 ), #51 );
#18 = STYLED_ITEM( '', ( #52 ), #53 );
#19 = STYLED_ITEM( '', ( #54 ), #55 );
#20 = STYLED_ITEM( '', ( #56 ), #57 );
#21 = STYLED_ITEM( '', ( #58 ), #59 );
#22 = STYLED_ITEM( '', ( #60 ), #61 );
#23 = APPLICATION_CONTEXT( 'core data for automotive mechanical design processes' );
#24 = PRODUCT_CATEGORY( 'part', 'NONE' );
#25 = PRODUCT_RELATED_PRODUCT_CATEGORY( 'detail', ' ', ( #62 ) );
#26 = PRODUCT_DEFINITION_SHAPE( 'NONE', 'NONE', #63 );
#27 = ADVANCED_BREP_SHAPE_REPRESENTATION( '_K0391.10X60', ( #64, #65 ), #6 );
#30 = UNCERTAINTY_MEASURE_WITH_UNIT( LENGTH_MEASURE( 0.00100000000000000 ), #32, '', '' );
#32 =  ( CONVERSION_BASED_UNIT( 'MILLIMETRE', #68 )LENGTH_UNIT(  )NAMED_UNIT( #71 ) );
#33 =  ( NAMED_UNIT( #73 )PLANE_ANGLE_UNIT(  )SI_UNIT( $, .RADIAN. ) );
#34 =  ( NAMED_UNIT( #73 )SI_UNIT( $, .STERADIAN. )SOLID_ANGLE_UNIT(  ) );
#36 = PRESENTATION_STYLE_ASSIGNMENT( ( #79 ) );
#37 = ADVANCED_FACE( '', ( #80, #81 ), #82, .T. );
#38 = PRESENTATION_STYLE_ASSIGNMENT( ( #83 ) );
#39 = ADVANCED_FACE( '', ( #84 ), #85, .T. );
#40 = PRESENTATION_STYLE_ASSIGNMENT( ( #86 ) );
#41 = ADVANCED_FACE( '', ( #87 ), #88, .F. );
#42 = PRESENTATION_STYLE_ASSIGNMENT( ( #89 ) );
#43 = ADVANCED_FACE( '', ( #90 ), #91, .T. );
#44 = PRESENTATION_STYLE_ASSIGNMENT( ( #92 ) );
#45 = ADVANCED_FACE( '', ( #93, #94 ), #95, .F. );
#46 = PRESENTATION_STYLE_ASSIGNMENT( ( #96 ) );
#47 = ADVANCED_FACE( '', ( #97, #98 ), #99, .T. );
#48 = PRESENTATION_STYLE_ASSIGNMENT( ( #100 ) );
#49 = ADVANCED_FACE( '', ( #101 ), #102, .T. );
#50 = PRESENTATION_STYLE_ASSIGNMENT( ( #103 ) );
#51 = ADVANCED_FACE( '', ( #104 ), #105, .T. );
#52 = PRESENTATION_STYLE_ASSIGNMENT( ( #106 ) );
#53 = ADVANCED_FACE( '', ( #107, #108 ), #109, .T. );
#54 = PRESENTATION_STYLE_ASSIGNMENT( ( #110 ) );
#55 = ADVANCED_FACE( '', ( #111 ), #112, .T. );
#56 = PRESENTATION_STYLE_ASSIGNMENT( ( #113 ) );
#57 = ADVANCED_FACE( '', ( #114 ), #115, .T. );
#58 = PRESENTATION_STYLE_ASSIGNMENT( ( #116 ) );
#59 = ADVANCED_FACE( '', ( #117, #118 ), #119, .T. );
#60 = PRESENTATION_STYLE_ASSIGNMENT( ( #120 ) );
#61 = ADVANCED_FACE( '', ( #121, #122 ), #123, .T. );
#62 = PRODUCT( '_K0391.10X60', '_K0391.10X60', 'PART-_K0391.10X60-DESC', ( #124 ) );
#63 = PRODUCT_DEFINITION( 'NONE', 'NONE', #125, #2 );
#64 = MANIFOLD_SOLID_BREP( '_K0391.10X60', #126 );
#65 = AXIS2_PLACEMENT_3D( '', #127, #128, #129 );
#68 = LENGTH_MEASURE_WITH_UNIT( LENGTH_MEASURE( 1.00000000000000 ), #130 );
#71 = DIMENSIONAL_EXPONENTS( 1.00000000000000, 0.000000000000000, 0.000000000000000, 0.000000000000000, 0.000000000000000, 0.000000000000000, 0.000000000000000 );
#73 = DIMENSIONAL_EXPONENTS( 0.000000000000000, 0.000000000000000, 0.000000000000000, 0.000000000000000, 0.000000000000000, 0.000000000000000, 0.000000000000000 );
#79 = SURFACE_STYLE_USAGE( .BOTH., #131 );
#80 = FACE_OUTER_BOUND( '', #132, .T. );
#81 = FACE_OUTER_BOUND( '', #133, .T. );
#82 = CYLINDRICAL_SURFACE( '', #134, 5.00000000000000 );
#83 = SURFACE_STYLE_USAGE( .BOTH., #135 );
#84 = FACE_OUTER_BOUND( '', #136, .T. );
#85 = PLANE( '', #137 );
#86 = SURFACE_STYLE_USAGE( .BOTH., #138 );
#87 = FACE_OUTER_BOUND( '', #139, .T. );
#88 = PLANE( '', #140 );
#89 = SURFACE_STYLE_USAGE( .BOTH., #141 );
#90 = FACE_OUTER_BOUND( '', #142, .T. );
#91 = PLANE( '', #143 );
#92 = SURFACE_STYLE_USAGE( .BOTH., #144 );
#93 = FACE_OUTER_BOUND( '', #145, .T. );
#94 = FACE_BOUND( '', #146, .T. );
#95 = PLANE( '', #147 );
#96 = SURFACE_STYLE_USAGE( .BOTH., #148 );
#97 = FACE_OUTER_BOUND( '', #149, .T. );
#98 = FACE_BOUND( '', #150, .T. );
#99 = CONICAL_SURFACE( '', #151, 4.08000000000000, 0.785398163400000 );
#100 = SURFACE_STYLE_USAGE( .BOTH., #152 );
#101 = FACE_OUTER_BOUND( '', #153, .T. );
#102 = PLANE( '', #154 );
#103 = SURFACE_STYLE_USAGE( .BOTH., #155 );
#104 = FACE_OUTER_BOUND( '', #156, .T. );
#105 = PLANE( '', #157 );
#106 = SURFACE_STYLE_USAGE( .BOTH., #158 );
#107 = FACE_BOUND( '', #159, .T. );
#108 = FACE_OUTER_BOUND( '', #160, .T. );
#109 = CONICAL_SURFACE( '', #161, 5.00000000000000, 0.771314587600000 );
#110 = SURFACE_STYLE_USAGE( .BOTH., #162 );
#111 = FACE_OUTER_BOUND( '', #163, .T. );
#112 = PLANE( '', #164 );
#113 = SURFACE_STYLE_USAGE( .BOTH., #165 );
#114 = FACE_OUTER_BOUND( '', #166, .T. );
#115 = PLANE( '', #167 );
#116 = SURFACE_STYLE_USAGE( .BOTH., #168 );
#117 = FACE_BOUND( '', #169, .T. );
#118 = FACE_OUTER_BOUND( '', #170, .T. );
#119 = SPHERICAL_SURFACE( '', #171, 4.00000000000000 );
#120 = SURFACE_STYLE_USAGE( .BOTH., #172 );
#121 = FACE_OUTER_BOUND( '', #173, .T. );
#122 = FACE_OUTER_BOUND( '', #174, .T. );
#123 = CYLINDRICAL_SURFACE( '', #175, 3.25000000000000 );
#124 = PRODUCT_CONTEXT( '', #23, 'mechanical' );
#125 = PRODUCT_DEFINITION_FORMATION_WITH_SPECIFIED_SOURCE( ' ', 'NONE', #62, .NOT_KNOWN. );
#126 = CLOSED_SHELL( '', ( #47, #45, #43, #51, #49, #59, #61, #53, #37, #57, #55, #39, #41 ) );
#127 = CARTESIAN_POINT( '', ( 0.000000000000000, 0.000000000000000, 0.000000000000000 ) );
#128 = DIRECTION( '', ( 0.000000000000000, 0.000000000000000, 1.00000000000000 ) );
#129 = DIRECTION( '', ( 1.00000000000000, 0.000000000000000, 0.000000000000000 ) );
#130 =  ( LENGTH_UNIT(  )NAMED_UNIT( #71 )SI_UNIT( .MILLI., .METRE. ) );
#131 = SURFACE_SIDE_STYLE( '', ( #177 ) );
#132 = EDGE_LOOP( '', ( #178 ) );
#133 = EDGE_LOOP( '', ( #179 ) );
#134 = AXIS2_PLACEMENT_3D( '', #180, #181, #182 );
#135 = SURFACE_SIDE_STYLE( '', ( #183 ) );
#136 = EDGE_LOOP( '', ( #184, #185, #186, #187 ) );
#137 = AXIS2_PLACEMENT_3D( '', #188, #189, #190 );
#138 = SURFACE_SIDE_STYLE( '', ( #191 ) );
#139 = EDGE_LOOP( '', ( #192, #193, #194, #195, #196, #197 ) );
#140 = AXIS2_PLACEMENT_3D( '', #198, #199, #200 );
#141 = SURFACE_SIDE_STYLE( '', ( #201 ) );
#142 = EDGE_LOOP( '', ( #202, #203, #204, #205 ) );
#143 = AXIS2_PLACEMENT_3D( '', #206, #207, #208 );
#144 = SURFACE_SIDE_STYLE( '', ( #209 ) );
#145 = EDGE_LOOP( '', ( #210 ) );
#146 = EDGE_LOOP( '', ( #211, #212, #213, #214, #215, #216 ) );
#147 = AXIS2_PLACEMENT_3D( '', #217, #218, #219 );
#148 = SURFACE_SIDE_STYLE( '', ( #220 ) );
#149 = EDGE_LOOP( '', ( #221 ) );
#150 = EDGE_LOOP( '', ( #222 ) );
#151 = AXIS2_PLACEMENT_3D( '', #223, #224, #225 );
#152 = SURFACE_SIDE_STYLE( '', ( #226 ) );
#153 = EDGE_LOOP( '', ( #227, #228, #229, #230 ) );
#154 = AXIS2_PLACEMENT_3D( '', #231, #232, #233 );
#155 = SURFACE_SIDE_STYLE( '', ( #234 ) );
#156 = EDGE_LOOP( '', ( #235, #236, #237, #238 ) );
#157 = AXIS2_PLACEMENT_3D( '', #239, #240, #241 );
#158 = SURFACE_SIDE_STYLE( '', ( #242 ) );
#159 = EDGE_LOOP( '', ( #243 ) );
#160 = EDGE_LOOP( '', ( #244 ) );
#161 = AXIS2_PLACEMENT_3D( '', #245, #246, #247 );
#162 = SURFACE_SIDE_STYLE( '', ( #248 ) );
#163 = EDGE_LOOP( '', ( #249, #250, #251, #252 ) );
#164 = AXIS2_PLACEMENT_3D( '', #253, #254, #255 );
#165 = SURFACE_SIDE_STYLE( '', ( #256 ) );
#166 = EDGE_LOOP( '', ( #257, #258, #259, #260 ) );
#167 = AXIS2_PLACEMENT_3D( '', #261, #262, #263 );
#168 = SURFACE_SIDE_STYLE( '', ( #264 ) );
#169 = VERTEX_LOOP( '', #265 );
#170 = EDGE_LOOP( '', ( #266 ) );
#171 = AXIS2_PLACEMENT_3D( '', #267, #268, #269 );
#172 = SURFACE_SIDE_STYLE( '', ( #270 ) );
#173 = EDGE_LOOP( '', ( #271 ) );
#174 = EDGE_LOOP( '', ( #272 ) );
#175 = AXIS2_PLACEMENT_3D( '', #273, #274, #275 );
#177 = SURFACE_STYLE_FILL_AREA( #276 );
#178 = ORIENTED_EDGE( '', *, *, #277, .F. );
#179 = ORIENTED_EDGE( '', *, *, #278, .T. );
#180 = CARTESIAN_POINT( '', ( 60.0000000000000, 0.000000000000000, 0.000000000000000 ) );
#181 = DIRECTION( '', ( -1.00000000000000, -0.000000000000000, 0.000000000000000 ) );
#182 = DIRECTION( '', ( -0.000000000000000, 0.000000000000000, -1.00000000000000 ) );
#183 = SURFACE_STYLE_FILL_AREA( #279 );
#184 = ORIENTED_EDGE( '', *, *, #280, .F. );
#185 = ORIENTED_EDGE( '', *, *, #281, .F. );
#186 = ORIENTED_EDGE( '', *, *, #282, .T. );
#187 = ORIENTED_EDGE( '', *, *, #283, .T. );
#188 = CARTESIAN_POINT( '', ( 5.00000000000000, 2.88675134594813, 0.000000000000000 ) );
#189 = DIRECTION( '', ( 0.000000000000000, -0.866025403784439, -0.500000000000000 ) );
#190 = DIRECTION( '', ( 0.000000000000000, 0.500000000000000, -0.866025403784439 ) );
#191 = SURFACE_STYLE_FILL_AREA( #284 );
#192 = ORIENTED_EDGE( '', *, *, #285, .F. );
#193 = ORIENTED_EDGE( '', *, *, #282, .F. );
#194 = ORIENTED_EDGE( '', *, *, #286, .F. );
#195 = ORIENTED_EDGE( '', *, *, #287, .F. );
#196 = ORIENTED_EDGE( '', *, *, #288, .F. );
#197 = ORIENTED_EDGE( '', *, *, #289, .F. );
#198 = CARTESIAN_POINT( '', ( 5.00000000000000, 0.000000000000000, 0.000000000000000 ) );
#199 = DIRECTION( '', ( 1.00000000000000, 0.000000000000000, 0.000000000000000 ) );
#200 = DIRECTION( '', ( 0.000000000000000, 0.000000000000000, -1.00000000000000 ) );
#201 = SURFACE_STYLE_FILL_AREA( #290 );
#202 = ORIENTED_EDGE( '', *, *, #291, .F. );
#203 = ORIENTED_EDGE( '', *, *, #292, .F. );
#204 = ORIENTED_EDGE( '', *, *, #289, .T. );
#205 = ORIENTED_EDGE( '', *, *, #293, .T. );
#206 = CARTESIAN_POINT( '', ( 5.00000000000000, -1.44337567297406, 2.50000000000000 ) );
#207 = DIRECTION( '', ( 0.000000000000000, 0.866025403784439, -0.500000000000000 ) );
#208 = DIRECTION( '', ( 0.000000000000000, 0.500000000000000, 0.866025403784439 ) );
#209 = SURFACE_STYLE_FILL_AREA( #294 );
#210 = ORIENTED_EDGE( '', *, *, #295, .F. );
#211 = ORIENTED_EDGE( '', *, *, #296, .T. );
#212 = ORIENTED_EDGE( '', *, *, #291, .T. );
#213 = ORIENTED_EDGE( '', *, *, #297, .T. );
#214 = ORIENTED_EDGE( '', *, *, #298, .T. );
#215 = ORIENTED_EDGE( '', *, *, #299, .T. );
#216 = ORIENTED_EDGE( '', *, *, #280, .T. );
#217 = CARTESIAN_POINT( '', ( 0.000000000000000, 0.000000000000000, 0.000000000000000 ) );
#218 = DIRECTION( '', ( 1.00000000000000, 0.000000000000000, -0.000000000000000 ) );
#219 = DIRECTION( '', ( -0.000000000000000, 0.000000000000000, -1.00000000000000 ) );
#220 = SURFACE_STYLE_FILL_AREA( #300 );
#221 = ORIENTED_EDGE( '', *, *, #278, .F. );
#222 = ORIENTED_EDGE( '', *, *, #295, .T. );
#223 = CARTESIAN_POINT( '', ( 0.000000000000000, 0.000000000000000, 0.000000000000000 ) );
#224 = DIRECTION( '', ( 1.00000000000000, -0.000000000000000, -0.000000000000000 ) );
#225 = DIRECTION( '', ( -0.000000000000000, 0.000000000000000, -1.00000000000000 ) );
#226 = SURFACE_STYLE_FILL_AREA( #301 );
#227 = ORIENTED_EDGE( '', *, *, #296, .F. );
#228 = ORIENTED_EDGE( '', *, *, #283, .F. );
#229 = ORIENTED_EDGE( '', *, *, #285, .T. );
#230 = ORIENTED_EDGE( '', *, *, #292, .T. );
#231 = CARTESIAN_POINT( '', ( 5.00000000000000, 1.44337567297406, 2.50000000000000 ) );
#232 = DIRECTION( '', ( 0.000000000000000, 0.000000000000000, -1.00000000000000 ) );
#233 = DIRECTION( '', ( -1.00000000000000, 0.000000000000000, 0.000000000000000 ) );
#234 = SURFACE_STYLE_FILL_AREA( #302 );
#235 = ORIENTED_EDGE( '', *, *, #297, .F. );
#236 = ORIENTED_EDGE( '', *, *, #293, .F. );
#237 = ORIENTED_EDGE( '', *, *, #288, .T. );
#238 = ORIENTED_EDGE( '', *, *, #303, .T. );
#239 = CARTESIAN_POINT( '', ( 5.00000000000000, -2.88675134594813, 0.000000000000000 ) );
#240 = DIRECTION( '', ( -0.000000000000000, 0.866025403784439, 0.500000000000000 ) );
#241 = DIRECTION( '', ( 0.000000000000000, -0.500000000000000, 0.866025403784439 ) );
#242 = SURFACE_STYLE_FILL_AREA( #304 );
#243 = ORIENTED_EDGE( '', *, *, #305, .F. );
#244 = ORIENTED_EDGE( '', *, *, #277, .T. );
#245 = CARTESIAN_POINT( '', ( 51.0000000000000, 0.000000000000000, 0.000000000000000 ) );
#246 = DIRECTION( '', ( -1.00000000000000, 0.000000000000000, -0.000000000000000 ) );
#247 = DIRECTION( '', ( 0.000000000000000, 0.000000000000000, 1.00000000000000 ) );
#248 = SURFACE_STYLE_FILL_AREA( #306 );
#249 = ORIENTED_EDGE( '', *, *, #299, .F. );
#250 = ORIENTED_EDGE( '', *, *, #307, .F. );
#251 = ORIENTED_EDGE( '', *, *, #286, .T. );
#252 = ORIENTED_EDGE( '', *, *, #281, .T. );
#253 = CARTESIAN_POINT( '', ( 5.00000000000000, 1.44337567297406, -2.50000000000000 ) );
#254 = DIRECTION( '', ( 0.000000000000000, -0.866025403784439, 0.500000000000000 ) );
#255 = DIRECTION( '', ( 0.000000000000000, -0.500000000000000, -0.866025403784439 ) );
#256 = SURFACE_STYLE_FILL_AREA( #308 );
#257 = ORIENTED_EDGE( '', *, *, #298, .F. );
#258 = ORIENTED_EDGE( '', *, *, #303, .F. );
#259 = ORIENTED_EDGE( '', *, *, #287, .T. );
#260 = ORIENTED_EDGE( '', *, *, #307, .T. );
#261 = CARTESIAN_POINT( '', ( 5.00000000000000, -1.44337567297406, -2.50000000000000 ) );
#262 = DIRECTION( '', ( 0.000000000000000, 0.000000000000000, 1.00000000000000 ) );
#263 = DIRECTION( '', ( 1.00000000000000, 0.000000000000000, -0.000000000000000 ) );
#264 = SURFACE_STYLE_FILL_AREA( #309 );
#265 = VERTEX_POINT( '', #310 );
#266 = ORIENTED_EDGE( '', *, *, #311, .T. );
#267 = CARTESIAN_POINT( '', ( 56.0000000000000, 6.93889390390723E-15, 0.000000000000000 ) );
#268 = DIRECTION( '', ( 1.00000000000000, 0.000000000000000, 0.000000000000000 ) );
#269 = DIRECTION( '', ( 0.000000000000000, -1.00000000000000, 0.000000000000000 ) );
#270 = SURFACE_STYLE_FILL_AREA( #312 );
#271 = ORIENTED_EDGE( '', *, *, #311, .F. );
#272 = ORIENTED_EDGE( '', *, *, #305, .T. );
#273 = CARTESIAN_POINT( '', ( 60.0000000000000, 0.000000000000000, 0.000000000000000 ) );
#274 = DIRECTION( '', ( -1.00000000000000, -0.000000000000000, 0.000000000000000 ) );
#275 = DIRECTION( '', ( -0.000000000000000, 0.000000000000000, -1.00000000000000 ) );
#276 = FILL_AREA_STYLE( '', ( #313 ) );
#277 = EDGE_CURVE( '', #314, #314, #315, .T. );
#278 = EDGE_CURVE( '', #316, #316, #317, .T. );
#279 = FILL_AREA_STYLE( '', ( #318 ) );
#280 = EDGE_CURVE( '', #319, #320, #321, .T. );
#281 = EDGE_CURVE( '', #322, #319, #323, .T. );
#282 = EDGE_CURVE( '', #322, #324, #325, .T. );
#283 = EDGE_CURVE( '', #324, #320, #326, .T. );
#284 = FILL_AREA_STYLE( '', ( #327 ) );
#285 = EDGE_CURVE( '', #324, #328, #329, .T. );
#286 = EDGE_CURVE( '', #330, #322, #331, .T. );
#287 = EDGE_CURVE( '', #332, #330, #333, .T. );
#288 = EDGE_CURVE( '', #334, #332, #335, .T. );
#289 = EDGE_CURVE( '', #328, #334, #336, .T. );
#290 = FILL_AREA_STYLE( '', ( #337 ) );
#291 = EDGE_CURVE( '', #338, #339, #340, .T. );
#292 = EDGE_CURVE( '', #328, #338, #341, .T. );
#293 = EDGE_CURVE( '', #334, #339, #342, .T. );
#294 = FILL_AREA_STYLE( '', ( #343 ) );
#295 = EDGE_CURVE( '', #344, #344, #345, .T. );
#296 = EDGE_CURVE( '', #320, #338, #346, .T. );
#297 = EDGE_CURVE( '', #339, #347, #348, .T. );
#298 = EDGE_CURVE( '', #347, #349, #350, .T. );
#299 = EDGE_CURVE( '', #349, #319, #351, .T. );
#300 = FILL_AREA_STYLE( '', ( #352 ) );
#301 = FILL_AREA_STYLE( '', ( #353 ) );
#302 = FILL_AREA_STYLE( '', ( #354 ) );
#303 = EDGE_CURVE( '', #332, #347, #355, .T. );
#304 = FILL_AREA_STYLE( '', ( #356 ) );
#305 = EDGE_CURVE( '', #357, #357, #358, .T. );
#306 = FILL_AREA_STYLE( '', ( #359 ) );
#307 = EDGE_CURVE( '', #330, #349, #360, .T. );
#308 = FILL_AREA_STYLE( '', ( #361 ) );
#309 = FILL_AREA_STYLE( '', ( #362 ) );
#310 = CARTESIAN_POINT( '', ( 60.0000000000000, 6.69396454407776E-15, 0.000000000000000 ) );
#311 = EDGE_CURVE( '', #363, #363, #364, .T. );
#312 = FILL_AREA_STYLE( '', ( #365 ) );
#313 = FILL_AREA_STYLE_COLOUR( '', #366 );
#314 = VERTEX_POINT( '', #367 );
#315 = CIRCLE( '', #368, 5.00000000000000 );
#316 = VERTEX_POINT( '', #369 );
#317 = CIRCLE( '', #370, 5.00000000000000 );
#318 = FILL_AREA_STYLE_COLOUR( '', #371 );
#319 = VERTEX_POINT( '', #372 );
#320 = VERTEX_POINT( '', #373 );
#321 = LINE( '', #374, #375 );
#322 = VERTEX_POINT( '', #376 );
#323 = LINE( '', #377, #378 );
#324 = VERTEX_POINT( '', #379 );
#325 = LINE( '', #380, #381 );
#326 = LINE( '', #382, #383 );
#327 = FILL_AREA_STYLE_COLOUR( '', #384 );
#328 = VERTEX_POINT( '', #385 );
#329 = LINE( '', #386, #387 );
#330 = VERTEX_POINT( '', #388 );
#331 = LINE( '', #389, #390 );
#332 = VERTEX_POINT( '', #391 );
#333 = LINE( '', #392, #393 );
#334 = VERTEX_POINT( '', #394 );
#335 = LINE( '', #395, #396 );
#336 = LINE( '', #397, #398 );
#337 = FILL_AREA_STYLE_COLOUR( '', #399 );
#338 = VERTEX_POINT( '', #400 );
#339 = VERTEX_POINT( '', #401 );
#340 = LINE( '', #402, #403 );
#341 = LINE( '', #404, #405 );
#342 = LINE( '', #406, #407 );
#343 = FILL_AREA_STYLE_COLOUR( '', #408 );
#344 = VERTEX_POINT( '', #409 );
#345 = CIRCLE( '', #410, 4.08000000000000 );
#346 = LINE( '', #411, #412 );
#347 = VERTEX_POINT( '', #413 );
#348 = LINE( '', #414, #415 );
#349 = VERTEX_POINT( '', #416 );
#350 = LINE( '', #417, #418 );
#351 = LINE( '', #419, #420 );
#352 = FILL_AREA_STYLE_COLOUR( '', #421 );
#353 = FILL_AREA_STYLE_COLOUR( '', #422 );
#354 = FILL_AREA_STYLE_COLOUR( '', #423 );
#355 = LINE( '', #424, #425 );
#356 = FILL_AREA_STYLE_COLOUR( '', #426 );
#357 = VERTEX_POINT( '', #427 );
#358 = CIRCLE( '', #428, 3.25000000000000 );
#359 = FILL_AREA_STYLE_COLOUR( '', #429 );
#360 = LINE( '', #430, #431 );
#361 = FILL_AREA_STYLE_COLOUR( '', #432 );
#362 = FILL_AREA_STYLE_COLOUR( '', #433 );
#363 = VERTEX_POINT( '', #434 );
#364 = CIRCLE( '', #435, 3.25000000000000 );
#365 = FILL_AREA_STYLE_COLOUR( '', #436 );
#366 = COLOUR_RGB( '', 0.689999997600000, 0.689999997600000, 0.689999997600000 );
#367 = CARTESIAN_POINT( '', ( 51.0000000000000, 0.000000000000000, -5.00000000000001 ) );
#368 = AXIS2_PLACEMENT_3D( '', #437, #438, #439 );
#369 = CARTESIAN_POINT( '', ( 0.920000000000004, 0.000000000000000, -5.00000000000001 ) );
#370 = AXIS2_PLACEMENT_3D( '', #440, #441, #442 );
#371 = COLOUR_RGB( '', 0.689999997600000, 0.689999997600000, 0.689999997600000 );
#372 = CARTESIAN_POINT( '', ( 0.000000000000000, 2.88675134594813, 0.000000000000000 ) );
#373 = CARTESIAN_POINT( '', ( 0.000000000000000, 1.44337567297406, 2.50000000000000 ) );
#374 = CARTESIAN_POINT( '', ( 0.000000000000000, 2.88675134594813, 0.000000000000000 ) );
#375 = VECTOR( '', #443, 1000.00000000000 );
#376 = CARTESIAN_POINT( '', ( 5.00000000000000, 2.88675134594813, 0.000000000000000 ) );
#377 = CARTESIAN_POINT( '', ( 5.00000000000000, 2.88675134594813, 0.000000000000000 ) );
#378 = VECTOR( '', #444, 1000.00000000000 );
#379 = CARTESIAN_POINT( '', ( 5.00000000000000, 1.44337567297406, 2.50000000000000 ) );
#380 = CARTESIAN_POINT( '', ( 5.00000000000000, 2.88675134594813, 0.000000000000000 ) );
#381 = VECTOR( '', #445, 1000.00000000000 );
#382 = CARTESIAN_POINT( '', ( 5.00000000000000, 1.44337567297406, 2.50000000000000 ) );
#383 = VECTOR( '', #446, 1000.00000000000 );
#384 = COLOUR_RGB( '', 0.689999997600000, 0.689999997600000, 0.689999997600000 );
#385 = CARTESIAN_POINT( '', ( 5.00000000000000, -1.44337567297406, 2.50000000000000 ) );
#386 = CARTESIAN_POINT( '', ( 5.00000000000000, 1.44337567297406, 2.50000000000000 ) );
#387 = VECTOR( '', #447, 1000.00000000000 );
#388 = CARTESIAN_POINT( '', ( 5.00000000000000, 1.44337567297406, -2.50000000000000 ) );
#389 = CARTESIAN_POINT( '', ( 5.00000000000000, 1.44337567297406, -2.50000000000000 ) );
#390 = VECTOR( '', #448, 1000.00000000000 );
#391 = CARTESIAN_POINT( '', ( 5.00000000000000, -1.44337567297406, -2.50000000000000 ) );
#392 = CARTESIAN_POINT( '', ( 5.00000000000000, -1.44337567297406, -2.50000000000000 ) );
#393 = VECTOR( '', #449, 1000.00000000000 );
#394 = CARTESIAN_POINT( '', ( 5.00000000000000, -2.88675134594813, 0.000000000000000 ) );
#395 = CARTESIAN_POINT( '', ( 5.00000000000000, -2.88675134594813, 0.000000000000000 ) );
#396 = VECTOR( '', #450, 1000.00000000000 );
#397 = CARTESIAN_POINT( '', ( 5.00000000000000, -1.44337567297406, 2.50000000000000 ) );
#398 = VECTOR( '', #451, 1000.00000000000 );
#399 = COLOUR_RGB( '', 0.689999997600000, 0.689999997600000, 0.689999997600000 );
#400 = CARTESIAN_POINT( '', ( 0.000000000000000, -1.44337567297406, 2.50000000000000 ) );
#401 = CARTESIAN_POINT( '', ( 0.000000000000000, -2.88675134594813, 0.000000000000000 ) );
#402 = CARTESIAN_POINT( '', ( 0.000000000000000, -1.44337567297406, 2.50000000000000 ) );
#403 = VECTOR( '', #452, 1000.00000000000 );
#404 = CARTESIAN_POINT( '', ( 5.00000000000000, -1.44337567297406, 2.50000000000000 ) );
#405 = VECTOR( '', #453, 1000.00000000000 );
#406 = CARTESIAN_POINT( '', ( 5.00000000000000, -2.88675134594813, 0.000000000000000 ) );
#407 = VECTOR( '', #454, 1000.00000000000 );
#408 = COLOUR_RGB( '', 0.689999997600000, 0.689999997600000, 0.689999997600000 );
#409 = CARTESIAN_POINT( '', ( 0.000000000000000, 0.000000000000000, -4.08000000000000 ) );
#410 = AXIS2_PLACEMENT_3D( '', #455, #456, #457 );
#411 = CARTESIAN_POINT( '', ( 0.000000000000000, 1.44337567297406, 2.50000000000000 ) );
#412 = VECTOR( '', #458, 1000.00000000000 );
#413 = CARTESIAN_POINT( '', ( 0.000000000000000, -1.44337567297406, -2.50000000000000 ) );
#414 = CARTESIAN_POINT( '', ( 0.000000000000000, -2.88675134594813, 0.000000000000000 ) );
#415 = VECTOR( '', #459, 1000.00000000000 );
#416 = CARTESIAN_POINT( '', ( 0.000000000000000, 1.44337567297406, -2.50000000000000 ) );
#417 = CARTESIAN_POINT( '', ( 0.000000000000000, -1.44337567297406, -2.50000000000000 ) );
#418 = VECTOR( '', #460, 1000.00000000000 );
#419 = CARTESIAN_POINT( '', ( 0.000000000000000, 1.44337567297406, -2.50000000000000 ) );
#420 = VECTOR( '', #461, 1000.00000000000 );
#421 = COLOUR_RGB( '', 0.689999997600000, 0.689999997600000, 0.689999997600000 );
#422 = COLOUR_RGB( '', 0.689999997600000, 0.689999997600000, 0.689999997600000 );
#423 = COLOUR_RGB( '', 0.689999997600000, 0.689999997600000, 0.689999997600000 );
#424 = CARTESIAN_POINT( '', ( 5.00000000000000, -1.44337567297406, -2.50000000000000 ) );
#425 = VECTOR( '', #462, 1000.00000000000 );
#426 = COLOUR_RGB( '', 0.689999997600000, 0.689999997600000, 0.689999997600000 );
#427 = CARTESIAN_POINT( '', ( 52.8000000000000, 0.000000000000000, -3.25000000000000 ) );
#428 = AXIS2_PLACEMENT_3D( '', #463, #464, #465 );
#429 = COLOUR_RGB( '', 0.689999997600000, 0.689999997600000, 0.689999997600000 );
#430 = CARTESIAN_POINT( '', ( 5.00000000000000, 1.44337567297406, -2.50000000000000 ) );
#431 = VECTOR( '', #466, 1000.00000000000 );
#432 = COLOUR_RGB( '', 0.689999997600000, 0.689999997600000, 0.689999997600000 );
#433 = COLOUR_RGB( '', 0.689999997600000, 0.689999997600000, 0.689999997600000 );
#434 = CARTESIAN_POINT( '', ( 53.6681552367278, 0.000000000000000, -3.25000000000000 ) );
#435 = AXIS2_PLACEMENT_3D( '', #467, #468, #469 );
#436 = COLOUR_RGB( '', 0.689999997600000, 0.689999997600000, 0.689999997600000 );
#437 = CARTESIAN_POINT( '', ( 51.0000000000000, 0.000000000000000, 0.000000000000000 ) );
#438 = DIRECTION( '', ( 1.00000000000000, 0.000000000000000, -0.000000000000000 ) );
#439 = DIRECTION( '', ( -0.000000000000000, 0.000000000000000, -1.00000000000000 ) );
#440 = CARTESIAN_POINT( '', ( 0.920000000000004, 0.000000000000000, 0.000000000000000 ) );
#441 = DIRECTION( '', ( 1.00000000000000, 0.000000000000000, -0.000000000000000 ) );
#442 = DIRECTION( '', ( -0.000000000000000, 0.000000000000000, -1.00000000000000 ) );
#443 = DIRECTION( '', ( 0.000000000000000, -0.500000000000000, 0.866025403784439 ) );
#444 = DIRECTION( '', ( -1.00000000000000, -0.000000000000000, -0.000000000000000 ) );
#445 = DIRECTION( '', ( 0.000000000000000, -0.500000000000000, 0.866025403784439 ) );
#446 = DIRECTION( '', ( -1.00000000000000, -0.000000000000000, -0.000000000000000 ) );
#447 = DIRECTION( '', ( 0.000000000000000, -1.00000000000000, 0.000000000000000 ) );
#448 = DIRECTION( '', ( 0.000000000000000, 0.500000000000000, 0.866025403784439 ) );
#449 = DIRECTION( '', ( 0.000000000000000, 1.00000000000000, 0.000000000000000 ) );
#450 = DIRECTION( '', ( 0.000000000000000, 0.500000000000000, -0.866025403784439 ) );
#451 = DIRECTION( '', ( 0.000000000000000, -0.500000000000000, -0.866025403784439 ) );
#452 = DIRECTION( '', ( 0.000000000000000, -0.500000000000000, -0.866025403784439 ) );
#453 = DIRECTION( '', ( -1.00000000000000, -0.000000000000000, -0.000000000000000 ) );
#454 = DIRECTION( '', ( -1.00000000000000, -0.000000000000000, -0.000000000000000 ) );
#455 = CARTESIAN_POINT( '', ( 0.000000000000000, 0.000000000000000, 0.000000000000000 ) );
#456 = DIRECTION( '', ( 1.00000000000000, 0.000000000000000, -0.000000000000000 ) );
#457 = DIRECTION( '', ( -0.000000000000000, 0.000000000000000, -1.00000000000000 ) );
#458 = DIRECTION( '', ( 0.000000000000000, -1.00000000000000, 0.000000000000000 ) );
#459 = DIRECTION( '', ( 0.000000000000000, 0.500000000000000, -0.866025403784439 ) );
#460 = DIRECTION( '', ( 0.000000000000000, 1.00000000000000, 0.000000000000000 ) );
#461 = DIRECTION( '', ( 0.000000000000000, 0.500000000000000, 0.866025403784439 ) );
#462 = DIRECTION( '', ( -1.00000000000000, -0.000000000000000, -0.000000000000000 ) );
#463 = CARTESIAN_POINT( '', ( 52.8000000000000, 0.000000000000000, 0.000000000000000 ) );
#464 = DIRECTION( '', ( 1.00000000000000, 0.000000000000000, -0.000000000000000 ) );
#465 = DIRECTION( '', ( -0.000000000000000, 0.000000000000000, -1.00000000000000 ) );
#466 = DIRECTION( '', ( -1.00000000000000, -0.000000000000000, -0.000000000000000 ) );
#467 = CARTESIAN_POINT( '', ( 53.6681552367278, 0.000000000000000, 0.000000000000000 ) );
#468 = DIRECTION( '', ( 1.00000000000000, 0.000000000000000, -0.000000000000000 ) );
#469 = DIRECTION( '', ( -0.000000000000000, 0.000000000000000, -1.00000000000000 ) );
ENDSEC;
END-ISO-10303-21;
