ISO-10303-21;
HEADER;
FILE_DESCRIPTION( ( 'STEP AP214' ), '1' );
FILE_NAME( '//goodhand-server/Shared Folders/GoodHand Data/Kipp CAD/K0714/K0714.10.stp', '2020-12-09T12:40:39', ( '' ), ( '' ), ' ', 'PARTsolutions', ' ' );
FILE_SCHEMA( ( 'AUTOMOTIVE_DESIGN { 1 0 10303 214 1 1 1 1 }' ) );
ENDSEC;
DATA;
#1 = MECHANICAL_DESIGN_GEOMETRIC_PRESENTATION_REPRESENTATION( ' ', ( #10, #11, #12, #13, #14, #15, #16, #17, #18, #19, #20, #21 ), #6 );
#2 = PRODUCT_DEFINITION_CONTEXT( '', #22, 'design' );
#3 = APPLICATION_PROTOCOL_DEFINITION( 'international standard', 'automotive_design', 2001, #22 );
#4 = PRODUCT_CATEGORY_RELATIONSHIP( 'NONE', 'NONE', #23, #24 );
#5 = SHAPE_DEFINITION_REPRESENTATION( #25, #26 );
#6 =  ( GEOMETRIC_REPRESENTATION_CONTEXT( 3 )GLOBAL_UNCERTAINTY_ASSIGNED_CONTEXT( ( #29 ) )GLOBAL_UNIT_ASSIGNED_CONTEXT( ( #31, #32, #33 ) )REPRESENTATION_CONTEXT( 'NONE', 'WORKSPACE' ) );
#10 = STYLED_ITEM( '', ( #35 ), #36 );
#11 = STYLED_ITEM( '', ( #37 ), #38 );
#12 = STYLED_ITEM( '', ( #39 ), #40 );
#13 = STYLED_ITEM( '', ( #41 ), #42 );
#14 = STYLED_ITEM( '', ( #43 ), #44 );
#15 = STYLED_ITEM( '', ( #45 ), #46 );
#16 = STYLED_ITEM( '', ( #47 ), #48 );
#17 = STYLED_ITEM( '', ( #49 ), #50 );
#18 = STYLED_ITEM( '', ( #51 ), #52 );
#19 = STYLED_ITEM( '', ( #53 ), #54 );
#20 = STYLED_ITEM( '', ( #55 ), #56 );
#21 = STYLED_ITEM( '', ( #57 ), #58 );
#22 = APPLICATION_CONTEXT( 'core data for automotive mechanical design processes' );
#23 = PRODUCT_CATEGORY( 'part', 'NONE' );
#24 = PRODUCT_RELATED_PRODUCT_CATEGORY( 'detail', ' ', ( #59 ) );
#25 = PRODUCT_DEFINITION_SHAPE( 'NONE', 'NONE', #60 );
#26 = ADVANCED_BREP_SHAPE_REPRESENTATION( '_K0714.10', ( #61, #62 ), #6 );
#29 = UNCERTAINTY_MEASURE_WITH_UNIT( LENGTH_MEASURE( 0.00100000000000000 ), #31, '', '' );
#31 =  ( CONVERSION_BASED_UNIT( 'MILLIMETRE', #65 )LENGTH_UNIT(  )NAMED_UNIT( #68 ) );
#32 =  ( NAMED_UNIT( #70 )PLANE_ANGLE_UNIT(  )SI_UNIT( $, .RADIAN. ) );
#33 =  ( NAMED_UNIT( #70 )SI_UNIT( $, .STERADIAN. )SOLID_ANGLE_UNIT(  ) );
#35 = PRESENTATION_STYLE_ASSIGNMENT( ( #76 ) );
#36 = ADVANCED_FACE( '', ( #77 ), #78, .F. );
#37 = PRESENTATION_STYLE_ASSIGNMENT( ( #79 ) );
#38 = ADVANCED_FACE( '', ( #80 ), #81, .T. );
#39 = PRESENTATION_STYLE_ASSIGNMENT( ( #82 ) );
#40 = ADVANCED_FACE( '', ( #83 ), #84, .F. );
#41 = PRESENTATION_STYLE_ASSIGNMENT( ( #85 ) );
#42 = ADVANCED_FACE( '', ( #86 ), #87, .F. );
#43 = PRESENTATION_STYLE_ASSIGNMENT( ( #88 ) );
#44 = ADVANCED_FACE( '', ( #89 ), #90, .F. );
#45 = PRESENTATION_STYLE_ASSIGNMENT( ( #91 ) );
#46 = ADVANCED_FACE( '', ( #92 ), #93, .F. );
#47 = PRESENTATION_STYLE_ASSIGNMENT( ( #94 ) );
#48 = ADVANCED_FACE( '', ( #95 ), #96, .T. );
#49 = PRESENTATION_STYLE_ASSIGNMENT( ( #97 ) );
#50 = ADVANCED_FACE( '', ( #98 ), #99, .F. );
#51 = PRESENTATION_STYLE_ASSIGNMENT( ( #100 ) );
#52 = ADVANCED_FACE( '', ( #101 ), #102, .T. );
#53 = PRESENTATION_STYLE_ASSIGNMENT( ( #103 ) );
#54 = ADVANCED_FACE( '', ( #104 ), #105, .F. );
#55 = PRESENTATION_STYLE_ASSIGNMENT( ( #106 ) );
#56 = ADVANCED_FACE( '', ( #107 ), #108, .T. );
#57 = PRESENTATION_STYLE_ASSIGNMENT( ( #109 ) );
#58 = ADVANCED_FACE( '', ( #110 ), #111, .F. );
#59 = PRODUCT( '_K0714.10', '_K0714.10', 'PART-_K0714.10-DESC', ( #112 ) );
#60 = PRODUCT_DEFINITION( 'NONE', 'NONE', #113, #2 );
#61 = MANIFOLD_SOLID_BREP( '_K0714.10', #114 );
#62 = AXIS2_PLACEMENT_3D( '', #115, #116, #117 );
#65 = LENGTH_MEASURE_WITH_UNIT( LENGTH_MEASURE( 1.00000000000000 ), #118 );
#68 = DIMENSIONAL_EXPONENTS( 1.00000000000000, 0.000000000000000, 0.000000000000000, 0.000000000000000, 0.000000000000000, 0.000000000000000, 0.000000000000000 );
#70 = DIMENSIONAL_EXPONENTS( 0.000000000000000, 0.000000000000000, 0.000000000000000, 0.000000000000000, 0.000000000000000, 0.000000000000000, 0.000000000000000 );
#76 = SURFACE_STYLE_USAGE( .BOTH., #119 );
#77 = FACE_OUTER_BOUND( '', #120, .T. );
#78 = CYLINDRICAL_SURFACE( '', #121, 0.435000000000000 );
#79 = SURFACE_STYLE_USAGE( .BOTH., #122 );
#80 = FACE_OUTER_BOUND( '', #123, .T. );
#81 = CYLINDRICAL_SURFACE( '', #124, 0.870000000000000 );
#82 = SURFACE_STYLE_USAGE( .BOTH., #125 );
#83 = FACE_OUTER_BOUND( '', #126, .T. );
#84 = PLANE( '', #127 );
#85 = SURFACE_STYLE_USAGE( .BOTH., #128 );
#86 = FACE_OUTER_BOUND( '', #129, .T. );
#87 = PLANE( '', #130 );
#88 = SURFACE_STYLE_USAGE( .BOTH., #131 );
#89 = FACE_OUTER_BOUND( '', #132, .T. );
#90 = PLANE( '', #133 );
#91 = SURFACE_STYLE_USAGE( .BOTH., #134 );
#92 = FACE_OUTER_BOUND( '', #135, .T. );
#93 = PLANE( '', #136 );
#94 = SURFACE_STYLE_USAGE( .BOTH., #137 );
#95 = FACE_OUTER_BOUND( '', #138, .T. );
#96 = PLANE( '', #139 );
#97 = SURFACE_STYLE_USAGE( .BOTH., #140 );
#98 = FACE_OUTER_BOUND( '', #141, .T. );
#99 = PLANE( '', #142 );
#100 = SURFACE_STYLE_USAGE( .BOTH., #143 );
#101 = FACE_OUTER_BOUND( '', #144, .T. );
#102 = PLANE( '', #145 );
#103 = SURFACE_STYLE_USAGE( .BOTH., #146 );
#104 = FACE_OUTER_BOUND( '', #147, .T. );
#105 = PLANE( '', #148 );
#106 = SURFACE_STYLE_USAGE( .BOTH., #149 );
#107 = FACE_OUTER_BOUND( '', #150, .T. );
#108 = CYLINDRICAL_SURFACE( '', #151, 4.78500000000000 );
#109 = SURFACE_STYLE_USAGE( .BOTH., #152 );
#110 = FACE_OUTER_BOUND( '', #153, .T. );
#111 = CYLINDRICAL_SURFACE( '', #154, 4.35000000000000 );
#112 = PRODUCT_CONTEXT( '', #22, 'mechanical' );
#113 = PRODUCT_DEFINITION_FORMATION_WITH_SPECIFIED_SOURCE( ' ', 'NONE', #59, .NOT_KNOWN. );
#114 = CLOSED_SHELL( '', ( #40, #52, #42, #46, #50, #44, #48, #36, #56, #54, #58, #38 ) );
#115 = CARTESIAN_POINT( '', ( 0.000000000000000, 0.000000000000000, 0.000000000000000 ) );
#116 = DIRECTION( '', ( 0.000000000000000, 0.000000000000000, 1.00000000000000 ) );
#117 = DIRECTION( '', ( 1.00000000000000, 0.000000000000000, 0.000000000000000 ) );
#118 =  ( LENGTH_UNIT(  )NAMED_UNIT( #68 )SI_UNIT( .MILLI., .METRE. ) );
#119 = SURFACE_SIDE_STYLE( '', ( #156 ) );
#120 = EDGE_LOOP( '', ( #157, #158, #159, #160 ) );
#121 = AXIS2_PLACEMENT_3D( '', #161, #162, #163 );
#122 = SURFACE_SIDE_STYLE( '', ( #164 ) );
#123 = EDGE_LOOP( '', ( #165, #166, #167, #168 ) );
#124 = AXIS2_PLACEMENT_3D( '', #169, #170, #171 );
#125 = SURFACE_SIDE_STYLE( '', ( #172 ) );
#126 = EDGE_LOOP( '', ( #173, #174, #175, #176 ) );
#127 = AXIS2_PLACEMENT_3D( '', #177, #178, #179 );
#128 = SURFACE_SIDE_STYLE( '', ( #180 ) );
#129 = EDGE_LOOP( '', ( #181, #182, #183, #184, #185, #186, #187, #188 ) );
#130 = AXIS2_PLACEMENT_3D( '', #189, #190, #191 );
#131 = SURFACE_SIDE_STYLE( '', ( #192 ) );
#132 = EDGE_LOOP( '', ( #193, #194, #195, #196 ) );
#133 = AXIS2_PLACEMENT_3D( '', #197, #198, #199 );
#134 = SURFACE_SIDE_STYLE( '', ( #200 ) );
#135 = EDGE_LOOP( '', ( #201, #202, #203, #204 ) );
#136 = AXIS2_PLACEMENT_3D( '', #205, #206, #207 );
#137 = SURFACE_SIDE_STYLE( '', ( #208 ) );
#138 = EDGE_LOOP( '', ( #209, #210, #211, #212, #213, #214, #215, #216 ) );
#139 = AXIS2_PLACEMENT_3D( '', #217, #218, #219 );
#140 = SURFACE_SIDE_STYLE( '', ( #220 ) );
#141 = EDGE_LOOP( '', ( #221, #222, #223, #224 ) );
#142 = AXIS2_PLACEMENT_3D( '', #225, #226, #227 );
#143 = SURFACE_SIDE_STYLE( '', ( #228 ) );
#144 = EDGE_LOOP( '', ( #229, #230, #231, #232 ) );
#145 = AXIS2_PLACEMENT_3D( '', #233, #234, #235 );
#146 = SURFACE_SIDE_STYLE( '', ( #236 ) );
#147 = EDGE_LOOP( '', ( #237, #238, #239, #240 ) );
#148 = AXIS2_PLACEMENT_3D( '', #241, #242, #243 );
#149 = SURFACE_SIDE_STYLE( '', ( #244 ) );
#150 = EDGE_LOOP( '', ( #245, #246, #247, #248, #249, #250 ) );
#151 = AXIS2_PLACEMENT_3D( '', #251, #252, #253 );
#152 = SURFACE_SIDE_STYLE( '', ( #254 ) );
#153 = EDGE_LOOP( '', ( #255, #256, #257, #258, #259, #260 ) );
#154 = AXIS2_PLACEMENT_3D( '', #261, #262, #263 );
#156 = SURFACE_STYLE_FILL_AREA( #264 );
#157 = ORIENTED_EDGE( '', *, *, #265, .F. );
#158 = ORIENTED_EDGE( '', *, *, #266, .F. );
#159 = ORIENTED_EDGE( '', *, *, #267, .T. );
#160 = ORIENTED_EDGE( '', *, *, #268, .T. );
#161 = CARTESIAN_POINT( '', ( 0.435000000000000, -2.08618671264103, 4.78500000000000 ) );
#162 = DIRECTION( '', ( 1.00000000000000, -0.000000000000000, -0.000000000000000 ) );
#163 = DIRECTION( '', ( 0.000000000000000, 0.000000000000000, 1.00000000000000 ) );
#164 = SURFACE_STYLE_FILL_AREA( #269 );
#165 = ORIENTED_EDGE( '', *, *, #270, .T. );
#166 = ORIENTED_EDGE( '', *, *, #271, .F. );
#167 = ORIENTED_EDGE( '', *, *, #272, .F. );
#168 = ORIENTED_EDGE( '', *, *, #273, .T. );
#169 = CARTESIAN_POINT( '', ( 0.435000000000000, -2.08618671264103, 4.78500000000000 ) );
#170 = DIRECTION( '', ( 1.00000000000000, -0.000000000000000, -0.000000000000000 ) );
#171 = DIRECTION( '', ( 0.000000000000000, 0.000000000000000, 1.00000000000000 ) );
#172 = SURFACE_STYLE_FILL_AREA( #274 );
#173 = ORIENTED_EDGE( '', *, *, #275, .T. );
#174 = ORIENTED_EDGE( '', *, *, #276, .F. );
#175 = ORIENTED_EDGE( '', *, *, #277, .F. );
#176 = ORIENTED_EDGE( '', *, *, #278, .T. );
#177 = CARTESIAN_POINT( '', ( 13.3700000000000, -2.00587207450124, -4.34427234651973 ) );
#178 = DIRECTION( '', ( 0.000000000000000, -0.866025403784438, 0.500000000000001 ) );
#179 = DIRECTION( '', ( 0.000000000000000, -0.500000000000001, -0.866025403784438 ) );
#180 = SURFACE_STYLE_FILL_AREA( #279 );
#181 = ORIENTED_EDGE( '', *, *, #280, .F. );
#182 = ORIENTED_EDGE( '', *, *, #281, .F. );
#183 = ORIENTED_EDGE( '', *, *, #265, .T. );
#184 = ORIENTED_EDGE( '', *, *, #282, .F. );
#185 = ORIENTED_EDGE( '', *, *, #283, .F. );
#186 = ORIENTED_EDGE( '', *, *, #284, .T. );
#187 = ORIENTED_EDGE( '', *, *, #270, .F. );
#188 = ORIENTED_EDGE( '', *, *, #285, .F. );
#189 = CARTESIAN_POINT( '', ( 0.000000000000000, -2.08618671264103, 4.78500000000000 ) );
#190 = DIRECTION( '', ( 1.00000000000000, 0.000000000000000, 0.000000000000000 ) );
#191 = DIRECTION( '', ( 0.000000000000000, 0.000000000000000, -1.00000000000000 ) );
#192 = SURFACE_STYLE_FILL_AREA( #286 );
#193 = ORIENTED_EDGE( '', *, *, #281, .T. );
#194 = ORIENTED_EDGE( '', *, *, #287, .F. );
#195 = ORIENTED_EDGE( '', *, *, #288, .F. );
#196 = ORIENTED_EDGE( '', *, *, #266, .T. );
#197 = CARTESIAN_POINT( '', ( 0.435000000000000, -2.08618671264103, 5.22000000000000 ) );
#198 = DIRECTION( '', ( 0.000000000000000, 0.000000000000000, 1.00000000000000 ) );
#199 = DIRECTION( '', ( 1.00000000000000, 0.000000000000000, -0.000000000000000 ) );
#200 = SURFACE_STYLE_FILL_AREA( #289 );
#201 = ORIENTED_EDGE( '', *, *, #280, .T. );
#202 = ORIENTED_EDGE( '', *, *, #290, .F. );
#203 = ORIENTED_EDGE( '', *, *, #291, .F. );
#204 = ORIENTED_EDGE( '', *, *, #287, .T. );
#205 = CARTESIAN_POINT( '', ( 0.435000000000000, -0.869999999999995, 5.22000000000000 ) );
#206 = DIRECTION( '', ( 0.000000000000000, -1.00000000000000, -4.98483757464600E-16 ) );
#207 = DIRECTION( '', ( 0.000000000000000, 4.98483757464600E-16, -1.00000000000000 ) );
#208 = SURFACE_STYLE_FILL_AREA( #292 );
#209 = ORIENTED_EDGE( '', *, *, #275, .F. );
#210 = ORIENTED_EDGE( '', *, *, #293, .T. );
#211 = ORIENTED_EDGE( '', *, *, #267, .F. );
#212 = ORIENTED_EDGE( '', *, *, #288, .T. );
#213 = ORIENTED_EDGE( '', *, *, #291, .T. );
#214 = ORIENTED_EDGE( '', *, *, #294, .T. );
#215 = ORIENTED_EDGE( '', *, *, #272, .T. );
#216 = ORIENTED_EDGE( '', *, *, #295, .F. );
#217 = CARTESIAN_POINT( '', ( 0.435000000000000, -2.08618671264103, 4.78500000000000 ) );
#218 = DIRECTION( '', ( 1.00000000000000, 0.000000000000000, 0.000000000000000 ) );
#219 = DIRECTION( '', ( 0.000000000000000, 0.000000000000000, -1.00000000000000 ) );
#220 = SURFACE_STYLE_FILL_AREA( #296 );
#221 = ORIENTED_EDGE( '', *, *, #285, .T. );
#222 = ORIENTED_EDGE( '', *, *, #273, .F. );
#223 = ORIENTED_EDGE( '', *, *, #294, .F. );
#224 = ORIENTED_EDGE( '', *, *, #290, .T. );
#225 = CARTESIAN_POINT( '', ( 0.435000000000000, -0.869999999999995, 5.65500000000000 ) );
#226 = DIRECTION( '', ( 0.000000000000000, 0.000000000000000, -1.00000000000000 ) );
#227 = DIRECTION( '', ( -1.00000000000000, 0.000000000000000, 0.000000000000000 ) );
#228 = SURFACE_STYLE_FILL_AREA( #297 );
#229 = ORIENTED_EDGE( '', *, *, #298, .F. );
#230 = ORIENTED_EDGE( '', *, *, #299, .T. );
#231 = ORIENTED_EDGE( '', *, *, #300, .T. );
#232 = ORIENTED_EDGE( '', *, *, #277, .T. );
#233 = CARTESIAN_POINT( '', ( 13.3700000000000, -4.42354486374086E-14, -7.02563007770607E-14 ) );
#234 = DIRECTION( '', ( 1.00000000000000, 0.000000000000000, 0.000000000000000 ) );
#235 = DIRECTION( '', ( 0.000000000000000, 0.000000000000000, -1.00000000000000 ) );
#236 = SURFACE_STYLE_FILL_AREA( #301 );
#237 = ORIENTED_EDGE( '', *, *, #283, .T. );
#238 = ORIENTED_EDGE( '', *, *, #302, .F. );
#239 = ORIENTED_EDGE( '', *, *, #299, .F. );
#240 = ORIENTED_EDGE( '', *, *, #303, .T. );
#241 = CARTESIAN_POINT( '', ( 0.435000000000000, -2.17500000000000, -3.76721050646231 ) );
#242 = DIRECTION( '', ( 0.000000000000000, 0.866025403784437, -0.500000000000003 ) );
#243 = DIRECTION( '', ( 0.000000000000000, 0.500000000000003, 0.866025403784437 ) );
#244 = SURFACE_STYLE_FILL_AREA( #304 );
#245 = ORIENTED_EDGE( '', *, *, #282, .T. );
#246 = ORIENTED_EDGE( '', *, *, #268, .F. );
#247 = ORIENTED_EDGE( '', *, *, #293, .F. );
#248 = ORIENTED_EDGE( '', *, *, #278, .F. );
#249 = ORIENTED_EDGE( '', *, *, #300, .F. );
#250 = ORIENTED_EDGE( '', *, *, #302, .T. );
#251 = CARTESIAN_POINT( '', ( 0.435000000000000, -2.38524477946811E-15, 4.33680868994202E-16 ) );
#252 = DIRECTION( '', ( 1.00000000000000, -0.000000000000000, -0.000000000000000 ) );
#253 = DIRECTION( '', ( 0.000000000000000, 0.000000000000000, 1.00000000000000 ) );
#254 = SURFACE_STYLE_FILL_AREA( #305 );
#255 = ORIENTED_EDGE( '', *, *, #284, .F. );
#256 = ORIENTED_EDGE( '', *, *, #303, .F. );
#257 = ORIENTED_EDGE( '', *, *, #298, .T. );
#258 = ORIENTED_EDGE( '', *, *, #276, .T. );
#259 = ORIENTED_EDGE( '', *, *, #295, .T. );
#260 = ORIENTED_EDGE( '', *, *, #271, .T. );
#261 = CARTESIAN_POINT( '', ( 0.435000000000000, -8.67361737988404E-16, -2.16840434497101E-16 ) );
#262 = DIRECTION( '', ( 1.00000000000000, -0.000000000000000, -0.000000000000000 ) );
#263 = DIRECTION( '', ( 0.000000000000000, 0.000000000000000, 1.00000000000000 ) );
#264 = FILL_AREA_STYLE( '', ( #306 ) );
#265 = EDGE_CURVE( '', #307, #308, #309, .T. );
#266 = EDGE_CURVE( '', #310, #307, #311, .T. );
#267 = EDGE_CURVE( '', #310, #312, #313, .T. );
#268 = EDGE_CURVE( '', #312, #308, #314, .T. );
#269 = FILL_AREA_STYLE( '', ( #315 ) );
#270 = EDGE_CURVE( '', #316, #317, #318, .T. );
#271 = EDGE_CURVE( '', #319, #317, #320, .T. );
#272 = EDGE_CURVE( '', #321, #319, #322, .T. );
#273 = EDGE_CURVE( '', #321, #316, #323, .T. );
#274 = FILL_AREA_STYLE( '', ( #324 ) );
#275 = EDGE_CURVE( '', #325, #326, #327, .T. );
#276 = EDGE_CURVE( '', #328, #326, #329, .T. );
#277 = EDGE_CURVE( '', #330, #328, #331, .T. );
#278 = EDGE_CURVE( '', #330, #325, #332, .T. );
#279 = FILL_AREA_STYLE( '', ( #333 ) );
#280 = EDGE_CURVE( '', #334, #335, #336, .T. );
#281 = EDGE_CURVE( '', #307, #334, #337, .T. );
#282 = EDGE_CURVE( '', #338, #308, #339, .T. );
#283 = EDGE_CURVE( '', #340, #338, #341, .T. );
#284 = EDGE_CURVE( '', #340, #317, #342, .T. );
#285 = EDGE_CURVE( '', #335, #316, #343, .T. );
#286 = FILL_AREA_STYLE( '', ( #344 ) );
#287 = EDGE_CURVE( '', #345, #334, #346, .T. );
#288 = EDGE_CURVE( '', #310, #345, #347, .T. );
#289 = FILL_AREA_STYLE( '', ( #348 ) );
#290 = EDGE_CURVE( '', #349, #335, #350, .T. );
#291 = EDGE_CURVE( '', #345, #349, #351, .T. );
#292 = FILL_AREA_STYLE( '', ( #352 ) );
#293 = EDGE_CURVE( '', #325, #312, #353, .T. );
#294 = EDGE_CURVE( '', #349, #321, #354, .T. );
#295 = EDGE_CURVE( '', #326, #319, #355, .T. );
#296 = FILL_AREA_STYLE( '', ( #356 ) );
#297 = FILL_AREA_STYLE( '', ( #357 ) );
#298 = EDGE_CURVE( '', #358, #328, #359, .T. );
#299 = EDGE_CURVE( '', #358, #360, #361, .T. );
#300 = EDGE_CURVE( '', #360, #330, #362, .T. );
#301 = FILL_AREA_STYLE( '', ( #363 ) );
#302 = EDGE_CURVE( '', #360, #338, #364, .T. );
#303 = EDGE_CURVE( '', #358, #340, #365, .T. );
#304 = FILL_AREA_STYLE( '', ( #366 ) );
#305 = FILL_AREA_STYLE( '', ( #367 ) );
#306 = FILL_AREA_STYLE_COLOUR( '', #368 );
#307 = VERTEX_POINT( '', #369 );
#308 = VERTEX_POINT( '', #370 );
#309 = CIRCLE( '', #371, 0.435000000000000 );
#310 = VERTEX_POINT( '', #372 );
#311 = LINE( '', #373, #374 );
#312 = VERTEX_POINT( '', #375 );
#313 = CIRCLE( '', #376, 0.435000000000000 );
#314 = LINE( '', #377, #378 );
#315 = FILL_AREA_STYLE_COLOUR( '', #379 );
#316 = VERTEX_POINT( '', #380 );
#317 = VERTEX_POINT( '', #381 );
#318 = CIRCLE( '', #382, 0.870000000000000 );
#319 = VERTEX_POINT( '', #383 );
#320 = LINE( '', #384, #385 );
#321 = VERTEX_POINT( '', #386 );
#322 = CIRCLE( '', #387, 0.870000000000000 );
#323 = LINE( '', #388, #389 );
#324 = FILL_AREA_STYLE_COLOUR( '', #390 );
#325 = VERTEX_POINT( '', #391 );
#326 = VERTEX_POINT( '', #392 );
#327 = LINE( '', #393, #394 );
#328 = VERTEX_POINT( '', #395 );
#329 = LINE( '', #396, #397 );
#330 = VERTEX_POINT( '', #398 );
#331 = LINE( '', #399, #400 );
#332 = LINE( '', #401, #402 );
#333 = FILL_AREA_STYLE_COLOUR( '', #403 );
#334 = VERTEX_POINT( '', #404 );
#335 = VERTEX_POINT( '', #405 );
#336 = LINE( '', #406, #407 );
#337 = LINE( '', #408, #409 );
#338 = VERTEX_POINT( '', #410 );
#339 = CIRCLE( '', #411, 4.78500000000000 );
#340 = VERTEX_POINT( '', #412 );
#341 = LINE( '', #413, #414 );
#342 = CIRCLE( '', #415, 4.35000000000000 );
#343 = LINE( '', #416, #417 );
#344 = FILL_AREA_STYLE_COLOUR( '', #418 );
#345 = VERTEX_POINT( '', #419 );
#346 = LINE( '', #420, #421 );
#347 = LINE( '', #422, #423 );
#348 = FILL_AREA_STYLE_COLOUR( '', #424 );
#349 = VERTEX_POINT( '', #425 );
#350 = LINE( '', #426, #427 );
#351 = LINE( '', #428, #429 );
#352 = FILL_AREA_STYLE_COLOUR( '', #430 );
#353 = CIRCLE( '', #431, 4.78500000000000 );
#354 = LINE( '', #432, #433 );
#355 = CIRCLE( '', #434, 4.35000000000000 );
#356 = FILL_AREA_STYLE_COLOUR( '', #435 );
#357 = FILL_AREA_STYLE_COLOUR( '', #436 );
#358 = VERTEX_POINT( '', #437 );
#359 = CIRCLE( '', #438, 4.35000000000000 );
#360 = VERTEX_POINT( '', #439 );
#361 = LINE( '', #440, #441 );
#362 = CIRCLE( '', #442, 4.78500000000000 );
#363 = FILL_AREA_STYLE_COLOUR( '', #443 );
#364 = LINE( '', #444, #445 );
#365 = LINE( '', #446, #447 );
#366 = FILL_AREA_STYLE_COLOUR( '', #448 );
#367 = FILL_AREA_STYLE_COLOUR( '', #449 );
#368 = COLOUR_RGB( '', 0.689999997600000, 0.689999997600000, 0.689999997600000 );
#369 = CARTESIAN_POINT( '', ( 0.000000000000000, -2.08618671264103, 5.22000000000000 ) );
#370 = CARTESIAN_POINT( '', ( 0.000000000000000, -1.91233781992094, 4.38625000000000 ) );
#371 = AXIS2_PLACEMENT_3D( '', #450, #451, #452 );
#372 = CARTESIAN_POINT( '', ( 0.435000000000000, -2.08618671264103, 5.22000000000000 ) );
#373 = CARTESIAN_POINT( '', ( 0.435000000000000, -2.08618671264103, 5.22000000000000 ) );
#374 = VECTOR( '', #453, 1000.00000000000 );
#375 = CARTESIAN_POINT( '', ( 0.435000000000000, -1.91233781992094, 4.38625000000000 ) );
#376 = AXIS2_PLACEMENT_3D( '', #454, #455, #456 );
#377 = CARTESIAN_POINT( '', ( 0.435000000000000, -1.91233781992094, 4.38625000000000 ) );
#378 = VECTOR( '', #457, 1000.00000000000 );
#379 = COLOUR_RGB( '', 0.689999997600000, 0.689999997600000, 0.689999997600000 );
#380 = CARTESIAN_POINT( '', ( 0.000000000000000, -2.08618671264104, 5.65500000000000 ) );
#381 = CARTESIAN_POINT( '', ( 0.000000000000000, -1.73848892720087, 3.98750000000000 ) );
#382 = AXIS2_PLACEMENT_3D( '', #458, #459, #460 );
#383 = CARTESIAN_POINT( '', ( 0.435000000000000, -1.73848892720087, 3.98750000000000 ) );
#384 = CARTESIAN_POINT( '', ( 0.435000000000000, -1.73848892720087, 3.98750000000000 ) );
#385 = VECTOR( '', #461, 1000.00000000000 );
#386 = CARTESIAN_POINT( '', ( 0.435000000000000, -2.08618671264104, 5.65500000000000 ) );
#387 = AXIS2_PLACEMENT_3D( '', #462, #463, #464 );
#388 = CARTESIAN_POINT( '', ( 0.435000000000000, -2.08618671264104, 5.65500000000000 ) );
#389 = VECTOR( '', #465, 1000.00000000000 );
#390 = COLOUR_RGB( '', 0.689999997600000, 0.689999997600000, 0.689999997600000 );
#391 = CARTESIAN_POINT( '', ( 0.435000000000000, -2.00587207450124, -4.34427234651973 ) );
#392 = CARTESIAN_POINT( '', ( 0.435000000000000, -1.78737662506067, -3.96582712686606 ) );
#393 = CARTESIAN_POINT( '', ( 0.435000000000000, -2.00587207450124, -4.34427234651973 ) );
#394 = VECTOR( '', #466, 1000.00000000000 );
#395 = CARTESIAN_POINT( '', ( 13.3700000000000, -1.78737662506067, -3.96582712686606 ) );
#396 = CARTESIAN_POINT( '', ( 13.3700000000000, -1.78737662506067, -3.96582712686606 ) );
#397 = VECTOR( '', #467, 1000.00000000000 );
#398 = CARTESIAN_POINT( '', ( 13.3700000000000, -2.00587207450124, -4.34427234651973 ) );
#399 = CARTESIAN_POINT( '', ( 13.3700000000000, -2.00587207450124, -4.34427234651973 ) );
#400 = VECTOR( '', #468, 1000.00000000000 );
#401 = CARTESIAN_POINT( '', ( 13.3700000000000, -2.00587207450124, -4.34427234651973 ) );
#402 = VECTOR( '', #469, 1000.00000000000 );
#403 = COLOUR_RGB( '', 0.689999997600000, 0.689999997600000, 0.689999997600000 );
#404 = CARTESIAN_POINT( '', ( 0.000000000000000, -0.869999999999994, 5.22000000000000 ) );
#405 = CARTESIAN_POINT( '', ( 0.000000000000000, -0.869999999999995, 5.65500000000000 ) );
#406 = CARTESIAN_POINT( '', ( 0.000000000000000, -0.869999999999995, 5.22000000000000 ) );
#407 = VECTOR( '', #470, 1000.00000000000 );
#408 = CARTESIAN_POINT( '', ( 0.000000000000000, -2.08618671264103, 5.22000000000000 ) );
#409 = VECTOR( '', #471, 1000.00000000000 );
#410 = CARTESIAN_POINT( '', ( 0.000000000000000, -2.39250000000000, -4.14393155710854 ) );
#411 = AXIS2_PLACEMENT_3D( '', #472, #473, #474 );
#412 = CARTESIAN_POINT( '', ( 0.000000000000000, -2.17500000000000, -3.76721050646231 ) );
#413 = CARTESIAN_POINT( '', ( 0.000000000000000, -2.17500000000000, -3.76721050646231 ) );
#414 = VECTOR( '', #475, 1000.00000000000 );
#415 = AXIS2_PLACEMENT_3D( '', #476, #477, #478 );
#416 = CARTESIAN_POINT( '', ( 0.000000000000000, -0.869999999999995, 5.65500000000000 ) );
#417 = VECTOR( '', #479, 1000.00000000000 );
#418 = COLOUR_RGB( '', 0.689999997600000, 0.689999997600000, 0.689999997600000 );
#419 = CARTESIAN_POINT( '', ( 0.435000000000000, -0.869999999999994, 5.22000000000000 ) );
#420 = CARTESIAN_POINT( '', ( 0.435000000000000, -0.869999999999994, 5.22000000000000 ) );
#421 = VECTOR( '', #480, 1000.00000000000 );
#422 = CARTESIAN_POINT( '', ( 0.435000000000000, -2.08618671264103, 5.22000000000000 ) );
#423 = VECTOR( '', #481, 1000.00000000000 );
#424 = COLOUR_RGB( '', 0.689999997600000, 0.689999997600000, 0.689999997600000 );
#425 = CARTESIAN_POINT( '', ( 0.435000000000000, -0.869999999999995, 5.65500000000000 ) );
#426 = CARTESIAN_POINT( '', ( 0.435000000000000, -0.869999999999995, 5.65500000000000 ) );
#427 = VECTOR( '', #482, 1000.00000000000 );
#428 = CARTESIAN_POINT( '', ( 0.435000000000000, -0.869999999999995, 5.22000000000000 ) );
#429 = VECTOR( '', #483, 1000.00000000000 );
#430 = COLOUR_RGB( '', 0.689999997600000, 0.689999997600000, 0.689999997600000 );
#431 = AXIS2_PLACEMENT_3D( '', #484, #485, #486 );
#432 = CARTESIAN_POINT( '', ( 0.435000000000000, -0.869999999999995, 5.65500000000000 ) );
#433 = VECTOR( '', #487, 1000.00000000000 );
#434 = AXIS2_PLACEMENT_3D( '', #488, #489, #490 );
#435 = COLOUR_RGB( '', 0.689999997600000, 0.689999997600000, 0.689999997600000 );
#436 = COLOUR_RGB( '', 0.689999997600000, 0.689999997600000, 0.689999997600000 );
#437 = CARTESIAN_POINT( '', ( 13.3700000000000, -2.17500000000000, -3.76721050646231 ) );
#438 = AXIS2_PLACEMENT_3D( '', #491, #492, #493 );
#439 = CARTESIAN_POINT( '', ( 13.3700000000000, -2.39250000000000, -4.14393155710854 ) );
#440 = CARTESIAN_POINT( '', ( 13.3700000000000, -2.17500000000000, -3.76721050646231 ) );
#441 = VECTOR( '', #494, 1000.00000000000 );
#442 = AXIS2_PLACEMENT_3D( '', #495, #496, #497 );
#443 = COLOUR_RGB( '', 0.689999997600000, 0.689999997600000, 0.689999997600000 );
#444 = CARTESIAN_POINT( '', ( 0.435000000000000, -2.39250000000000, -4.14393155710854 ) );
#445 = VECTOR( '', #498, 1000.00000000000 );
#446 = CARTESIAN_POINT( '', ( 0.435000000000000, -2.17500000000000, -3.76721050646231 ) );
#447 = VECTOR( '', #499, 1000.00000000000 );
#448 = COLOUR_RGB( '', 0.689999997600000, 0.689999997600000, 0.689999997600000 );
#449 = COLOUR_RGB( '', 0.689999997600000, 0.689999997600000, 0.689999997600000 );
#450 = CARTESIAN_POINT( '', ( 0.000000000000000, -2.08618671264103, 4.78500000000000 ) );
#451 = DIRECTION( '', ( 1.00000000000000, 0.000000000000000, 0.000000000000000 ) );
#452 = DIRECTION( '', ( 0.000000000000000, 0.000000000000000, -1.00000000000000 ) );
#453 = DIRECTION( '', ( -1.00000000000000, -0.000000000000000, -0.000000000000000 ) );
#454 = CARTESIAN_POINT( '', ( 0.435000000000000, -2.08618671264103, 4.78500000000000 ) );
#455 = DIRECTION( '', ( 1.00000000000000, 0.000000000000000, 0.000000000000000 ) );
#456 = DIRECTION( '', ( 0.000000000000000, 0.000000000000000, -1.00000000000000 ) );
#457 = DIRECTION( '', ( -1.00000000000000, -0.000000000000000, -0.000000000000000 ) );
#458 = CARTESIAN_POINT( '', ( 0.000000000000000, -2.08618671264103, 4.78500000000000 ) );
#459 = DIRECTION( '', ( 1.00000000000000, 0.000000000000000, 0.000000000000000 ) );
#460 = DIRECTION( '', ( 0.000000000000000, 0.000000000000000, -1.00000000000000 ) );
#461 = DIRECTION( '', ( -1.00000000000000, -0.000000000000000, -0.000000000000000 ) );
#462 = CARTESIAN_POINT( '', ( 0.435000000000000, -2.08618671264103, 4.78500000000000 ) );
#463 = DIRECTION( '', ( 1.00000000000000, 0.000000000000000, 0.000000000000000 ) );
#464 = DIRECTION( '', ( 0.000000000000000, 0.000000000000000, -1.00000000000000 ) );
#465 = DIRECTION( '', ( -1.00000000000000, -0.000000000000000, -0.000000000000000 ) );
#466 = DIRECTION( '', ( 0.000000000000000, 0.500000000000001, 0.866025403784438 ) );
#467 = DIRECTION( '', ( -1.00000000000000, -0.000000000000000, -0.000000000000000 ) );
#468 = DIRECTION( '', ( 0.000000000000000, 0.500000000000001, 0.866025403784438 ) );
#469 = DIRECTION( '', ( -1.00000000000000, -0.000000000000000, -0.000000000000000 ) );
#470 = DIRECTION( '', ( 0.000000000000000, -4.98483757464600E-16, 1.00000000000000 ) );
#471 = DIRECTION( '', ( 0.000000000000000, 1.00000000000000, 0.000000000000000 ) );
#472 = CARTESIAN_POINT( '', ( 0.000000000000000, -2.38524477946811E-15, 4.33680868994202E-16 ) );
#473 = DIRECTION( '', ( 1.00000000000000, 0.000000000000000, 0.000000000000000 ) );
#474 = DIRECTION( '', ( 0.000000000000000, 0.000000000000000, -1.00000000000000 ) );
#475 = DIRECTION( '', ( 0.000000000000000, -0.500000000000003, -0.866025403784437 ) );
#476 = CARTESIAN_POINT( '', ( 0.000000000000000, -8.67361737988404E-16, -2.16840434497101E-16 ) );
#477 = DIRECTION( '', ( 1.00000000000000, 0.000000000000000, 0.000000000000000 ) );
#478 = DIRECTION( '', ( 0.000000000000000, 0.000000000000000, -1.00000000000000 ) );
#479 = DIRECTION( '', ( 0.000000000000000, -1.00000000000000, 0.000000000000000 ) );
#480 = DIRECTION( '', ( -1.00000000000000, -0.000000000000000, -0.000000000000000 ) );
#481 = DIRECTION( '', ( 0.000000000000000, 1.00000000000000, 0.000000000000000 ) );
#482 = DIRECTION( '', ( -1.00000000000000, -0.000000000000000, -0.000000000000000 ) );
#483 = DIRECTION( '', ( 0.000000000000000, -4.98483757464600E-16, 1.00000000000000 ) );
#484 = CARTESIAN_POINT( '', ( 0.435000000000000, -2.38524477946811E-15, 4.33680868994202E-16 ) );
#485 = DIRECTION( '', ( 1.00000000000000, 0.000000000000000, 0.000000000000000 ) );
#486 = DIRECTION( '', ( 0.000000000000000, 0.000000000000000, -1.00000000000000 ) );
#487 = DIRECTION( '', ( 0.000000000000000, -1.00000000000000, 0.000000000000000 ) );
#488 = CARTESIAN_POINT( '', ( 0.435000000000000, -8.67361737988404E-16, -2.16840434497101E-16 ) );
#489 = DIRECTION( '', ( 1.00000000000000, 0.000000000000000, 0.000000000000000 ) );
#490 = DIRECTION( '', ( 0.000000000000000, 0.000000000000000, -1.00000000000000 ) );
#491 = CARTESIAN_POINT( '', ( 13.3700000000000, -4.42354486374086E-14, -7.02563007770607E-14 ) );
#492 = DIRECTION( '', ( 1.00000000000000, 0.000000000000000, 0.000000000000000 ) );
#493 = DIRECTION( '', ( 0.000000000000000, 0.000000000000000, -1.00000000000000 ) );
#494 = DIRECTION( '', ( 0.000000000000000, -0.499999999999999, -0.866025403784439 ) );
#495 = CARTESIAN_POINT( '', ( 13.3700000000000, -3.62123525610158E-13, -7.00828284294630E-13 ) );
#496 = DIRECTION( '', ( 1.00000000000000, 0.000000000000000, 0.000000000000000 ) );
#497 = DIRECTION( '', ( 0.000000000000000, 0.000000000000000, -1.00000000000000 ) );
#498 = DIRECTION( '', ( -1.00000000000000, -0.000000000000000, -0.000000000000000 ) );
#499 = DIRECTION( '', ( -1.00000000000000, -0.000000000000000, -0.000000000000000 ) );
ENDSEC;
END-ISO-10303-21;
