ISO-10303-21;
HEADER;
FILE_DESCRIPTION( ( 'STEP AP214' ), '1' );
FILE_NAME( '//goodhand-server/Shared Folders/GoodHand Data/Kipp CAD/K0390/K0390.16X70.stp', '2020-12-07T10:14:55', ( '' ), ( '' ), ' ', 'PARTsolutions', ' ' );
FILE_SCHEMA( ( 'AUTOMOTIVE_DESIGN { 1 0 10303 214 1 1 1 1 }' ) );
ENDSEC;
DATA;
#1 = MECHANICAL_DESIGN_GEOMETRIC_PRESENTATION_REPRESENTATION( ' ', ( #10, #11, #12, #13, #14, #15, #16, #17, #18, #19, #20, #21, #22 ), #6 );
#2 = PRODUCT_DEFINITION_CONTEXT( '', #23, 'design' );
#3 = APPLICATION_PROTOCOL_DEFINITION( 'international standard', 'automotive_design', 2001, #23 );
#4 = PRODUCT_CATEGORY_RELATIONSHIP( 'NONE', 'NONE', #24, #25 );
#5 = SHAPE_DEFINITION_REPRESENTATION( #26, #27 );
#6 =  ( GEOMETRIC_REPRESENTATION_CONTEXT( 3 )GLOBAL_UNCERTAINTY_ASSIGNED_CONTEXT( ( #30 ) )GLOBAL_UNIT_ASSIGNED_CONTEXT( ( #32, #33, #34 ) )REPRESENTATION_CONTEXT( 'NONE', 'WORKSPACE' ) );
#10 = STYLED_ITEM( '', ( #36 ), #37 );
#11 = STYLED_ITEM( '', ( #38 ), #39 );
#12 = STYLED_ITEM( '', ( #40 ), #41 );
#13 = STYLED_ITEM( '', ( #42 ), #43 );
#14 = STYLED_ITEM( '', ( #44 ), #45 );
#15 = STYLED_ITEM( '', ( #46 ), #47 );
#16 = STYLED_ITEM( '', ( #48 ), #49 );
#17 = STYLED_ITEM( '', ( #50 ), #51 );
#18 = STYLED_ITEM( '', ( #52 ), #53 );
#19 = STYLED_ITEM( '', ( #54 ), #55 );
#20 = STYLED_ITEM( '', ( #56 ), #57 );
#21 = STYLED_ITEM( '', ( #58 ), #59 );
#22 = STYLED_ITEM( '', ( #60 ), #61 );
#23 = APPLICATION_CONTEXT( 'core data for automotive mechanical design processes' );
#24 = PRODUCT_CATEGORY( 'part', 'NONE' );
#25 = PRODUCT_RELATED_PRODUCT_CATEGORY( 'detail', ' ', ( #62 ) );
#26 = PRODUCT_DEFINITION_SHAPE( 'NONE', 'NONE', #63 );
#27 = ADVANCED_BREP_SHAPE_REPRESENTATION( '_K0390.16X70', ( #64, #65 ), #6 );
#30 = UNCERTAINTY_MEASURE_WITH_UNIT( LENGTH_MEASURE( 0.00100000000000000 ), #32, '', '' );
#32 =  ( CONVERSION_BASED_UNIT( 'MILLIMETRE', #68 )LENGTH_UNIT(  )NAMED_UNIT( #71 ) );
#33 =  ( NAMED_UNIT( #73 )PLANE_ANGLE_UNIT(  )SI_UNIT( $, .RADIAN. ) );
#34 =  ( NAMED_UNIT( #73 )SI_UNIT( $, .STERADIAN. )SOLID_ANGLE_UNIT(  ) );
#36 = PRESENTATION_STYLE_ASSIGNMENT( ( #79 ) );
#37 = ADVANCED_FACE( '', ( #80, #81 ), #82, .T. );
#38 = PRESENTATION_STYLE_ASSIGNMENT( ( #83 ) );
#39 = ADVANCED_FACE( '', ( #84 ), #85, .F. );
#40 = PRESENTATION_STYLE_ASSIGNMENT( ( #86 ) );
#41 = ADVANCED_FACE( '', ( #87 ), #88, .T. );
#42 = PRESENTATION_STYLE_ASSIGNMENT( ( #89 ) );
#43 = ADVANCED_FACE( '', ( #90 ), #91, .F. );
#44 = PRESENTATION_STYLE_ASSIGNMENT( ( #92 ) );
#45 = ADVANCED_FACE( '', ( #93 ), #94, .T. );
#46 = PRESENTATION_STYLE_ASSIGNMENT( ( #95 ) );
#47 = ADVANCED_FACE( '', ( #96, #97 ), #98, .T. );
#48 = PRESENTATION_STYLE_ASSIGNMENT( ( #99 ) );
#49 = ADVANCED_FACE( '', ( #100, #101 ), #102, .T. );
#50 = PRESENTATION_STYLE_ASSIGNMENT( ( #103 ) );
#51 = ADVANCED_FACE( '', ( #104, #105 ), #106, .F. );
#52 = PRESENTATION_STYLE_ASSIGNMENT( ( #107 ) );
#53 = ADVANCED_FACE( '', ( #108 ), #109, .F. );
#54 = PRESENTATION_STYLE_ASSIGNMENT( ( #110 ) );
#55 = ADVANCED_FACE( '', ( #111, #112 ), #113, .T. );
#56 = PRESENTATION_STYLE_ASSIGNMENT( ( #114 ) );
#57 = ADVANCED_FACE( '', ( #115 ), #116, .F. );
#58 = PRESENTATION_STYLE_ASSIGNMENT( ( #117 ) );
#59 = ADVANCED_FACE( '', ( #118 ), #119, .T. );
#60 = PRESENTATION_STYLE_ASSIGNMENT( ( #120 ) );
#61 = ADVANCED_FACE( '', ( #121, #122 ), #123, .T. );
#62 = PRODUCT( '_K0390.16X70', '_K0390.16X70', 'PART-_K0390.16X70-DESC', ( #124 ) );
#63 = PRODUCT_DEFINITION( 'NONE', 'NONE', #125, #2 );
#64 = MANIFOLD_SOLID_BREP( '_K0390.16X70', #126 );
#65 = AXIS2_PLACEMENT_3D( '', #127, #128, #129 );
#68 = LENGTH_MEASURE_WITH_UNIT( LENGTH_MEASURE( 1.00000000000000 ), #130 );
#71 = DIMENSIONAL_EXPONENTS( 1.00000000000000, 0.000000000000000, 0.000000000000000, 0.000000000000000, 0.000000000000000, 0.000000000000000, 0.000000000000000 );
#73 = DIMENSIONAL_EXPONENTS( 0.000000000000000, 0.000000000000000, 0.000000000000000, 0.000000000000000, 0.000000000000000, 0.000000000000000, 0.000000000000000 );
#79 = SURFACE_STYLE_USAGE( .BOTH., #131 );
#80 = FACE_BOUND( '', #132, .T. );
#81 = FACE_OUTER_BOUND( '', #133, .T. );
#82 = CONICAL_SURFACE( '', #134, 8.00000000000000, 1.13808724680000 );
#83 = SURFACE_STYLE_USAGE( .BOTH., #135 );
#84 = FACE_OUTER_BOUND( '', #136, .T. );
#85 = PLANE( '', #137 );
#86 = SURFACE_STYLE_USAGE( .BOTH., #138 );
#87 = FACE_OUTER_BOUND( '', #139, .T. );
#88 = PLANE( '', #140 );
#89 = SURFACE_STYLE_USAGE( .BOTH., #141 );
#90 = FACE_OUTER_BOUND( '', #142, .T. );
#91 = PLANE( '', #143 );
#92 = SURFACE_STYLE_USAGE( .BOTH., #144 );
#93 = FACE_OUTER_BOUND( '', #145, .T. );
#94 = CONICAL_SURFACE( '', #146, 6.77300000000000, 0.785398163400000 );
#95 = SURFACE_STYLE_USAGE( .BOTH., #147 );
#96 = FACE_OUTER_BOUND( '', #148, .T. );
#97 = FACE_OUTER_BOUND( '', #149, .T. );
#98 = CYLINDRICAL_SURFACE( '', #150, 8.00000000000000 );
#99 = SURFACE_STYLE_USAGE( .BOTH., #151 );
#100 = FACE_BOUND( '', #152, .T. );
#101 = FACE_OUTER_BOUND( '', #153, .T. );
#102 = SPHERICAL_SURFACE( '', #154, 10.0644000000000 );
#103 = SURFACE_STYLE_USAGE( .BOTH., #155 );
#104 = FACE_OUTER_BOUND( '', #156, .T. );
#105 = FACE_BOUND( '', #157, .T. );
#106 = PLANE( '', #158 );
#107 = SURFACE_STYLE_USAGE( .BOTH., #159 );
#108 = FACE_OUTER_BOUND( '', #160, .T. );
#109 = PLANE( '', #161 );
#110 = SURFACE_STYLE_USAGE( .BOTH., #162 );
#111 = FACE_OUTER_BOUND( '', #163, .T. );
#112 = FACE_OUTER_BOUND( '', #164, .T. );
#113 = CYLINDRICAL_SURFACE( '', #165, 6.00000000000000 );
#114 = SURFACE_STYLE_USAGE( .BOTH., #166 );
#115 = FACE_OUTER_BOUND( '', #167, .T. );
#116 = PLANE( '', #168 );
#117 = SURFACE_STYLE_USAGE( .BOTH., #169 );
#118 = FACE_OUTER_BOUND( '', #170, .T. );
#119 = CONICAL_SURFACE( '', #171, 6.77300000000000, 0.785398163400000 );
#120 = SURFACE_STYLE_USAGE( .BOTH., #172 );
#121 = FACE_OUTER_BOUND( '', #173, .T. );
#122 = FACE_OUTER_BOUND( '', #174, .T. );
#123 = CYLINDRICAL_SURFACE( '', #175, 5.50000000000000 );
#124 = PRODUCT_CONTEXT( '', #23, 'mechanical' );
#125 = PRODUCT_DEFINITION_FORMATION_WITH_SPECIFIED_SOURCE( ' ', 'NONE', #62, .NOT_KNOWN. );
#126 = CLOSED_SHELL( '', ( #39, #57, #49, #55, #51, #61, #37, #47, #45, #53, #59, #43, #41 ) );
#127 = CARTESIAN_POINT( '', ( 0.000000000000000, 0.000000000000000, 0.000000000000000 ) );
#128 = DIRECTION( '', ( 0.000000000000000, 0.000000000000000, 1.00000000000000 ) );
#129 = DIRECTION( '', ( 1.00000000000000, 0.000000000000000, 0.000000000000000 ) );
#130 =  ( LENGTH_UNIT(  )NAMED_UNIT( #71 )SI_UNIT( .MILLI., .METRE. ) );
#131 = SURFACE_SIDE_STYLE( '', ( #177 ) );
#132 = EDGE_LOOP( '', ( #178 ) );
#133 = EDGE_LOOP( '', ( #179 ) );
#134 = AXIS2_PLACEMENT_3D( '', #180, #181, #182 );
#135 = SURFACE_SIDE_STYLE( '', ( #183 ) );
#136 = EDGE_LOOP( '', ( #184, #185, #186, #187, #188, #189 ) );
#137 = AXIS2_PLACEMENT_3D( '', #190, #191, #192 );
#138 = SURFACE_SIDE_STYLE( '', ( #193 ) );
#139 = EDGE_LOOP( '', ( #194, #195, #196, #197 ) );
#140 = AXIS2_PLACEMENT_3D( '', #198, #199, #200 );
#141 = SURFACE_SIDE_STYLE( '', ( #201 ) );
#142 = EDGE_LOOP( '', ( #202, #203 ) );
#143 = AXIS2_PLACEMENT_3D( '', #204, #205, #206 );
#144 = SURFACE_SIDE_STYLE( '', ( #207 ) );
#145 = EDGE_LOOP( '', ( #208, #209, #210, #211 ) );
#146 = AXIS2_PLACEMENT_3D( '', #212, #213, #214 );
#147 = SURFACE_SIDE_STYLE( '', ( #215 ) );
#148 = EDGE_LOOP( '', ( #216 ) );
#149 = EDGE_LOOP( '', ( #217, #218, #219, #220, #221, #222, #223, #224 ) );
#150 = AXIS2_PLACEMENT_3D( '', #225, #226, #227 );
#151 = SURFACE_SIDE_STYLE( '', ( #228 ) );
#152 = VERTEX_LOOP( '', #229 );
#153 = EDGE_LOOP( '', ( #230 ) );
#154 = AXIS2_PLACEMENT_3D( '', #231, #232, #233 );
#155 = SURFACE_SIDE_STYLE( '', ( #234 ) );
#156 = EDGE_LOOP( '', ( #235 ) );
#157 = EDGE_LOOP( '', ( #236 ) );
#158 = AXIS2_PLACEMENT_3D( '', #237, #238, #239 );
#159 = SURFACE_SIDE_STYLE( '', ( #240 ) );
#160 = EDGE_LOOP( '', ( #241, #242 ) );
#161 = AXIS2_PLACEMENT_3D( '', #243, #244, #245 );
#162 = SURFACE_SIDE_STYLE( '', ( #246 ) );
#163 = EDGE_LOOP( '', ( #247 ) );
#164 = EDGE_LOOP( '', ( #248 ) );
#165 = AXIS2_PLACEMENT_3D( '', #249, #250, #251 );
#166 = SURFACE_SIDE_STYLE( '', ( #252 ) );
#167 = EDGE_LOOP( '', ( #253, #254, #255, #256, #257, #258 ) );
#168 = AXIS2_PLACEMENT_3D( '', #259, #260, #261 );
#169 = SURFACE_SIDE_STYLE( '', ( #262 ) );
#170 = EDGE_LOOP( '', ( #263, #264, #265, #266 ) );
#171 = AXIS2_PLACEMENT_3D( '', #267, #268, #269 );
#172 = SURFACE_SIDE_STYLE( '', ( #270 ) );
#173 = EDGE_LOOP( '', ( #271 ) );
#174 = EDGE_LOOP( '', ( #272 ) );
#175 = AXIS2_PLACEMENT_3D( '', #273, #274, #275 );
#177 = SURFACE_STYLE_FILL_AREA( #276 );
#178 = ORIENTED_EDGE( '', *, *, #277, .F. );
#179 = ORIENTED_EDGE( '', *, *, #278, .T. );
#180 = CARTESIAN_POINT( '', ( 58.0000000000000, 7.34788079488413E-16, 0.000000000000000 ) );
#181 = DIRECTION( '', ( -1.00000000000000, 6.12323399573677E-17, -0.000000000000000 ) );
#182 = DIRECTION( '', ( -6.12323399573677E-17, -1.00000000000000, 0.000000000000000 ) );
#183 = SURFACE_STYLE_FILL_AREA( #279 );
#184 = ORIENTED_EDGE( '', *, *, #280, .F. );
#185 = ORIENTED_EDGE( '', *, *, #281, .T. );
#186 = ORIENTED_EDGE( '', *, *, #282, .F. );
#187 = ORIENTED_EDGE( '', *, *, #283, .F. );
#188 = ORIENTED_EDGE( '', *, *, #284, .F. );
#189 = ORIENTED_EDGE( '', *, *, #285, .F. );
#190 = CARTESIAN_POINT( '', ( 3.00000000000000, 0.900000000000004, 10.5000000000000 ) );
#191 = DIRECTION( '', ( 0.000000000000000, 1.00000000000000, 0.000000000000000 ) );
#192 = DIRECTION( '', ( 0.000000000000000, -0.000000000000000, 1.00000000000000 ) );
#193 = SURFACE_STYLE_FILL_AREA( #286 );
#194 = ORIENTED_EDGE( '', *, *, #287, .T. );
#195 = ORIENTED_EDGE( '', *, *, #288, .T. );
#196 = ORIENTED_EDGE( '', *, *, #289, .T. );
#197 = ORIENTED_EDGE( '', *, *, #284, .T. );
#198 = CARTESIAN_POINT( '', ( 3.00000000000000, 0.000000000000000, 0.000000000000000 ) );
#199 = DIRECTION( '', ( -1.00000000000000, 0.000000000000000, 0.000000000000000 ) );
#200 = DIRECTION( '', ( 0.000000000000000, 0.000000000000000, 1.00000000000000 ) );
#201 = SURFACE_STYLE_FILL_AREA( #290 );
#202 = ORIENTED_EDGE( '', *, *, #291, .F. );
#203 = ORIENTED_EDGE( '', *, *, #281, .F. );
#204 = CARTESIAN_POINT( '', ( -2.07363319265626E-16, 4.28626379701574E-15, 0.000000000000000 ) );
#205 = DIRECTION( '', ( 1.00000000000000, -6.12323399573677E-17, -0.000000000000000 ) );
#206 = DIRECTION( '', ( 6.12323399573677E-17, 1.00000000000000, 0.000000000000000 ) );
#207 = SURFACE_STYLE_FILL_AREA( #292 );
#208 = ORIENTED_EDGE( '', *, *, #291, .T. );
#209 = ORIENTED_EDGE( '', *, *, #280, .T. );
#210 = ORIENTED_EDGE( '', *, *, #293, .F. );
#211 = ORIENTED_EDGE( '', *, *, #282, .T. );
#212 = CARTESIAN_POINT( '', ( 0.000000000000000, 4.28626379701574E-15, 0.000000000000000 ) );
#213 = DIRECTION( '', ( 1.00000000000000, -6.12323399573677E-17, -0.000000000000000 ) );
#214 = DIRECTION( '', ( 6.12323399573677E-17, 1.00000000000000, 0.000000000000000 ) );
#215 = SURFACE_STYLE_FILL_AREA( #294 );
#216 = ORIENTED_EDGE( '', *, *, #278, .F. );
#217 = ORIENTED_EDGE( '', *, *, #295, .T. );
#218 = ORIENTED_EDGE( '', *, *, #296, .T. );
#219 = ORIENTED_EDGE( '', *, *, #287, .F. );
#220 = ORIENTED_EDGE( '', *, *, #283, .T. );
#221 = ORIENTED_EDGE( '', *, *, #293, .T. );
#222 = ORIENTED_EDGE( '', *, *, #285, .T. );
#223 = ORIENTED_EDGE( '', *, *, #289, .F. );
#224 = ORIENTED_EDGE( '', *, *, #297, .T. );
#225 = CARTESIAN_POINT( '', ( 70.0000000000000, 0.000000000000000, 0.000000000000000 ) );
#226 = DIRECTION( '', ( -1.00000000000000, 6.12323399573677E-17, 0.000000000000000 ) );
#227 = DIRECTION( '', ( 6.12323399573677E-17, 1.00000000000000, 0.000000000000000 ) );
#228 = SURFACE_STYLE_FILL_AREA( #298 );
#229 = VERTEX_POINT( '', #299 );
#230 = ORIENTED_EDGE( '', *, *, #300, .T. );
#231 = CARTESIAN_POINT( '', ( 59.9356000000001, 2.68882138776405E-14, 0.000000000000000 ) );
#232 = DIRECTION( '', ( 1.00000000000000, 0.000000000000000, 0.000000000000000 ) );
#233 = DIRECTION( '', ( 0.000000000000000, -1.00000000000000, 0.000000000000000 ) );
#234 = SURFACE_STYLE_FILL_AREA( #301 );
#235 = ORIENTED_EDGE( '', *, *, #302, .F. );
#236 = ORIENTED_EDGE( '', *, *, #303, .T. );
#237 = CARTESIAN_POINT( '', ( 65.0000000000000, 5.50000000000000, 0.000000000000000 ) );
#238 = DIRECTION( '', ( 1.00000000000000, -6.12323399573677E-17, -0.000000000000000 ) );
#239 = DIRECTION( '', ( 6.12323399573677E-17, 1.00000000000000, 0.000000000000000 ) );
#240 = SURFACE_STYLE_FILL_AREA( #304 );
#241 = ORIENTED_EDGE( '', *, *, #305, .F. );
#242 = ORIENTED_EDGE( '', *, *, #306, .F. );
#243 = CARTESIAN_POINT( '', ( -2.07363319265626E-16, 4.28626379701574E-15, 0.000000000000000 ) );
#244 = DIRECTION( '', ( 1.00000000000000, -6.12323399573677E-17, -0.000000000000000 ) );
#245 = DIRECTION( '', ( 6.12323399573677E-17, 1.00000000000000, 0.000000000000000 ) );
#246 = SURFACE_STYLE_FILL_AREA( #307 );
#247 = ORIENTED_EDGE( '', *, *, #300, .F. );
#248 = ORIENTED_EDGE( '', *, *, #302, .T. );
#249 = CARTESIAN_POINT( '', ( 70.0000000000000, 0.000000000000000, 0.000000000000000 ) );
#250 = DIRECTION( '', ( -1.00000000000000, 6.12323399573677E-17, 0.000000000000000 ) );
#251 = DIRECTION( '', ( 6.12323399573677E-17, 1.00000000000000, 0.000000000000000 ) );
#252 = SURFACE_STYLE_FILL_AREA( #308 );
#253 = ORIENTED_EDGE( '', *, *, #306, .T. );
#254 = ORIENTED_EDGE( '', *, *, #309, .F. );
#255 = ORIENTED_EDGE( '', *, *, #297, .F. );
#256 = ORIENTED_EDGE( '', *, *, #288, .F. );
#257 = ORIENTED_EDGE( '', *, *, #296, .F. );
#258 = ORIENTED_EDGE( '', *, *, #310, .F. );
#259 = CARTESIAN_POINT( '', ( 3.00000000000000, -0.899999999999996, -10.5000000000000 ) );
#260 = DIRECTION( '', ( 0.000000000000000, -1.00000000000000, 0.000000000000000 ) );
#261 = DIRECTION( '', ( 0.000000000000000, 0.000000000000000, -1.00000000000000 ) );
#262 = SURFACE_STYLE_FILL_AREA( #311 );
#263 = ORIENTED_EDGE( '', *, *, #295, .F. );
#264 = ORIENTED_EDGE( '', *, *, #309, .T. );
#265 = ORIENTED_EDGE( '', *, *, #305, .T. );
#266 = ORIENTED_EDGE( '', *, *, #310, .T. );
#267 = CARTESIAN_POINT( '', ( 0.000000000000000, 4.28626379701574E-15, 0.000000000000000 ) );
#268 = DIRECTION( '', ( 1.00000000000000, -6.12323399573677E-17, -0.000000000000000 ) );
#269 = DIRECTION( '', ( 6.12323399573677E-17, 1.00000000000000, 0.000000000000000 ) );
#270 = SURFACE_STYLE_FILL_AREA( #312 );
#271 = ORIENTED_EDGE( '', *, *, #303, .F. );
#272 = ORIENTED_EDGE( '', *, *, #277, .T. );
#273 = CARTESIAN_POINT( '', ( 70.0000000000000, 0.000000000000000, 0.000000000000000 ) );
#274 = DIRECTION( '', ( -1.00000000000000, 6.12323399573676E-17, 0.000000000000000 ) );
#275 = DIRECTION( '', ( 6.12323399573677E-17, 1.00000000000000, 0.000000000000000 ) );
#276 = FILL_AREA_STYLE( '', ( #313 ) );
#277 = EDGE_CURVE( '', #314, #314, #315, .T. );
#278 = EDGE_CURVE( '', #316, #316, #317, .T. );
#279 = FILL_AREA_STYLE( '', ( #318 ) );
#280 = EDGE_CURVE( '', #319, #320, #321, .T. );
#281 = EDGE_CURVE( '', #319, #322, #323, .T. );
#282 = EDGE_CURVE( '', #324, #322, #325, .T. );
#283 = EDGE_CURVE( '', #326, #324, #327, .F. );
#284 = EDGE_CURVE( '', #328, #326, #329, .T. );
#285 = EDGE_CURVE( '', #320, #328, #330, .T. );
#286 = FILL_AREA_STYLE( '', ( #331 ) );
#287 = EDGE_CURVE( '', #326, #332, #333, .T. );
#288 = EDGE_CURVE( '', #332, #334, #335, .T. );
#289 = EDGE_CURVE( '', #334, #328, #336, .T. );
#290 = FILL_AREA_STYLE( '', ( #337 ) );
#291 = EDGE_CURVE( '', #322, #319, #338, .T. );
#292 = FILL_AREA_STYLE( '', ( #339 ) );
#293 = EDGE_CURVE( '', #324, #320, #340, .T. );
#294 = FILL_AREA_STYLE( '', ( #341 ) );
#295 = EDGE_CURVE( '', #342, #343, #344, .T. );
#296 = EDGE_CURVE( '', #343, #332, #345, .T. );
#297 = EDGE_CURVE( '', #334, #342, #346, .F. );
#298 = FILL_AREA_STYLE( '', ( #347 ) );
#299 = CARTESIAN_POINT( '', ( 70.0000000000000, 2.56556803531067E-14, 0.000000000000000 ) );
#300 = EDGE_CURVE( '', #348, #348, #349, .T. );
#301 = FILL_AREA_STYLE( '', ( #350 ) );
#302 = EDGE_CURVE( '', #351, #351, #352, .T. );
#303 = EDGE_CURVE( '', #353, #353, #354, .T. );
#304 = FILL_AREA_STYLE( '', ( #355 ) );
#305 = EDGE_CURVE( '', #356, #357, #358, .T. );
#306 = EDGE_CURVE( '', #357, #356, #359, .T. );
#307 = FILL_AREA_STYLE( '', ( #360 ) );
#308 = FILL_AREA_STYLE( '', ( #361 ) );
#309 = EDGE_CURVE( '', #342, #356, #362, .T. );
#310 = EDGE_CURVE( '', #357, #343, #363, .T. );
#311 = FILL_AREA_STYLE( '', ( #364 ) );
#312 = FILL_AREA_STYLE( '', ( #365 ) );
#313 = FILL_AREA_STYLE_COLOUR( '', #366 );
#314 = VERTEX_POINT( '', #367 );
#315 = CIRCLE( '', #368, 5.50000000000000 );
#316 = VERTEX_POINT( '', #369 );
#317 = CIRCLE( '', #370, 8.00000000000000 );
#318 = FILL_AREA_STYLE_COLOUR( '', #371 );
#319 = VERTEX_POINT( '', #372 );
#320 = VERTEX_POINT( '', #373 );
#321 = B_SPLINE_CURVE_WITH_KNOTS( '', 3, ( #374, #375, #376, #377 ), .UNSPECIFIED., .F., .F., ( 4, 4 ), ( 0.0333752047769191, 0.0351188466568865 ), .UNSPECIFIED. );
#322 = VERTEX_POINT( '', #378 );
#323 = LINE( '', #379, #380 );
#324 = VERTEX_POINT( '', #381 );
#325 = B_SPLINE_CURVE_WITH_KNOTS( '', 3, ( #382, #383, #384, #385 ), .UNSPECIFIED., .F., .F., ( 4, 4 ), ( 0.0136362270213630, 0.0153780387903499 ), .UNSPECIFIED. );
#326 = VERTEX_POINT( '', #386 );
#327 = LINE( '', #387, #388 );
#328 = VERTEX_POINT( '', #389 );
#329 = LINE( '', #390, #391 );
#330 = LINE( '', #392, #393 );
#331 = FILL_AREA_STYLE_COLOUR( '', #394 );
#332 = VERTEX_POINT( '', #395 );
#333 = CIRCLE( '', #396, 8.00000000000000 );
#334 = VERTEX_POINT( '', #397 );
#335 = LINE( '', #398, #399 );
#336 = CIRCLE( '', #400, 8.00000000000000 );
#337 = FILL_AREA_STYLE_COLOUR( '', #401 );
#338 = CIRCLE( '', #402, 6.77300000000000 );
#339 = FILL_AREA_STYLE_COLOUR( '', #403 );
#340 = CIRCLE( '', #404, 8.00000000000000 );
#341 = FILL_AREA_STYLE_COLOUR( '', #405 );
#342 = VERTEX_POINT( '', #406 );
#343 = VERTEX_POINT( '', #407 );
#344 = CIRCLE( '', #408, 8.00000000000000 );
#345 = LINE( '', #409, #410 );
#346 = LINE( '', #411, #412 );
#347 = FILL_AREA_STYLE_COLOUR( '', #413 );
#348 = VERTEX_POINT( '', #414 );
#349 = CIRCLE( '', #415, 6.00000000000000 );
#350 = FILL_AREA_STYLE_COLOUR( '', #416 );
#351 = VERTEX_POINT( '', #417 );
#352 = CIRCLE( '', #418, 6.00000000000000 );
#353 = VERTEX_POINT( '', #419 );
#354 = CIRCLE( '', #420, 5.50000000000000 );
#355 = FILL_AREA_STYLE_COLOUR( '', #421 );
#356 = VERTEX_POINT( '', #422 );
#357 = VERTEX_POINT( '', #423 );
#358 = CIRCLE( '', #424, 6.77300000000000 );
#359 = LINE( '', #425, #426 );
#360 = FILL_AREA_STYLE_COLOUR( '', #427 );
#361 = FILL_AREA_STYLE_COLOUR( '', #428 );
#362 = B_SPLINE_CURVE_WITH_KNOTS( '', 3, ( #429, #430, #431, #432 ), .UNSPECIFIED., .F., .F., ( 4, 4 ), ( 0.0136362270213630, 0.0153780387903499 ), .UNSPECIFIED. );
#363 = B_SPLINE_CURVE_WITH_KNOTS( '', 3, ( #433, #434, #435, #436 ), .UNSPECIFIED., .F., .F., ( 4, 4 ), ( 0.0333752047769191, 0.0351188466568865 ), .UNSPECIFIED. );
#364 = FILL_AREA_STYLE_COLOUR( '', #437 );
#365 = FILL_AREA_STYLE_COLOUR( '', #438 );
#366 = COLOUR_RGB( '', 0.689999997600000, 0.689999997600000, 0.689999997600000 );
#367 = CARTESIAN_POINT( '', ( 59.1547600000000, 5.50000000000000, 0.000000000000000 ) );
#368 = AXIS2_PLACEMENT_3D( '', #439, #440, #441 );
#369 = CARTESIAN_POINT( '', ( 58.0000000000000, 8.00000000000000, 0.000000000000000 ) );
#370 = AXIS2_PLACEMENT_3D( '', #442, #443, #444 );
#371 = COLOUR_RGB( '', 0.689999997600000, 0.689999997600000, 0.689999997600000 );
#372 = CARTESIAN_POINT( '', ( 0.000000000000000, 0.900000000000004, 6.71293743453639 ) );
#373 = CARTESIAN_POINT( '', ( 1.22700000000001, 0.900000000000009, 7.94921379760288 ) );
#374 = CARTESIAN_POINT( '', ( -1.71859089494200E-16, 0.900000000000004, 6.71293743453639 ) );
#375 = CARTESIAN_POINT( '', ( 0.408715634480827, 0.900000000000004, 7.12530996434678 ) );
#376 = CARTESIAN_POINT( '', ( 0.817759551175691, 0.900000000000004, 7.53735877974165 ) );
#377 = CARTESIAN_POINT( '', ( 1.22700000000001, 0.900000000000004, 7.94921379760288 ) );
#378 = CARTESIAN_POINT( '', ( 0.000000000000000, 0.900000000000004, -6.71293743453639 ) );
#379 = CARTESIAN_POINT( '', ( 0.000000000000000, 0.900000000000004, 10.5000000000000 ) );
#380 = VECTOR( '', #445, 1000.00000000000 );
#381 = CARTESIAN_POINT( '', ( 1.22700000000001, 0.900000000000009, -7.94921379760288 ) );
#382 = CARTESIAN_POINT( '', ( 1.22700000000000, 0.900000000000004, -7.94921379760288 ) );
#383 = CARTESIAN_POINT( '', ( 0.817760310665014, 0.900000000000004, -7.53735954408322 ) );
#384 = CARTESIAN_POINT( '', ( 0.408716531538589, 0.900000000000004, -7.12531086943077 ) );
#385 = CARTESIAN_POINT( '', ( -2.11363423507204E-15, 0.900000000000004, -6.71293743453639 ) );
#386 = CARTESIAN_POINT( '', ( 3.00000000000000, 0.900000000000004, -7.94921379760288 ) );
#387 = CARTESIAN_POINT( '', ( 70.0000000000000, 0.900000000000004, -7.94921379760288 ) );
#388 = VECTOR( '', #446, 1000.00000000000 );
#389 = CARTESIAN_POINT( '', ( 3.00000000000000, 0.900000000000004, 7.94921379760288 ) );
#390 = CARTESIAN_POINT( '', ( 3.00000000000000, 0.900000000000004, 10.5000000000000 ) );
#391 = VECTOR( '', #447, 1000.00000000000 );
#392 = CARTESIAN_POINT( '', ( 70.0000000000000, 0.900000000000004, 7.94921379760288 ) );
#393 = VECTOR( '', #448, 1000.00000000000 );
#394 = COLOUR_RGB( '', 0.689999997600000, 0.689999997600000, 0.689999997600000 );
#395 = CARTESIAN_POINT( '', ( 3.00000000000000, -0.899999999999996, -7.94921379760288 ) );
#396 = AXIS2_PLACEMENT_3D( '', #449, #450, #451 );
#397 = CARTESIAN_POINT( '', ( 3.00000000000000, -0.899999999999996, 7.94921379760288 ) );
#398 = CARTESIAN_POINT( '', ( 3.00000000000000, -0.899999999999996, -10.5000000000000 ) );
#399 = VECTOR( '', #452, 1000.00000000000 );
#400 = AXIS2_PLACEMENT_3D( '', #453, #454, #455 );
#401 = COLOUR_RGB( '', 0.689999997600000, 0.689999997600000, 0.689999997600000 );
#402 = AXIS2_PLACEMENT_3D( '', #456, #457, #458 );
#403 = COLOUR_RGB( '', 0.689999997600000, 0.689999997600000, 0.689999997600000 );
#404 = AXIS2_PLACEMENT_3D( '', #459, #460, #461 );
#405 = COLOUR_RGB( '', 0.689999997600000, 0.689999997600000, 0.689999997600000 );
#406 = CARTESIAN_POINT( '', ( 1.22700000000001, -0.899999999999991, 7.94921379760288 ) );
#407 = CARTESIAN_POINT( '', ( 1.22700000000001, -0.899999999999991, -7.94921379760288 ) );
#408 = AXIS2_PLACEMENT_3D( '', #462, #463, #464 );
#409 = CARTESIAN_POINT( '', ( 70.0000000000000, -0.899999999999996, -7.94921379760288 ) );
#410 = VECTOR( '', #465, 1000.00000000000 );
#411 = CARTESIAN_POINT( '', ( 70.0000000000000, -0.899999999999996, 7.94921379760288 ) );
#412 = VECTOR( '', #466, 1000.00000000000 );
#413 = COLOUR_RGB( '', 0.689999997600000, 0.689999997600000, 0.689999997600000 );
#414 = CARTESIAN_POINT( '', ( 68.0159556456384, 6.00000000000000, 0.000000000000000 ) );
#415 = AXIS2_PLACEMENT_3D( '', #467, #468, #469 );
#416 = COLOUR_RGB( '', 0.689999997600000, 0.689999997600000, 0.689999997600000 );
#417 = CARTESIAN_POINT( '', ( 65.0000000000000, 6.00000000000000, 0.000000000000000 ) );
#418 = AXIS2_PLACEMENT_3D( '', #470, #471, #472 );
#419 = CARTESIAN_POINT( '', ( 65.0000000000000, 5.50000000000000, 0.000000000000000 ) );
#420 = AXIS2_PLACEMENT_3D( '', #473, #474, #475 );
#421 = COLOUR_RGB( '', 0.689999997600000, 0.689999997600000, 0.689999997600000 );
#422 = CARTESIAN_POINT( '', ( 0.000000000000000, -0.899999999999996, 6.71293743453639 ) );
#423 = CARTESIAN_POINT( '', ( 0.000000000000000, -0.899999999999996, -6.71293743453639 ) );
#424 = AXIS2_PLACEMENT_3D( '', #476, #477, #478 );
#425 = CARTESIAN_POINT( '', ( 0.000000000000000, -0.899999999999996, -10.5000000000000 ) );
#426 = VECTOR( '', #479, 1000.00000000000 );
#427 = COLOUR_RGB( '', 0.689999997600000, 0.689999997600000, 0.689999997600000 );
#428 = COLOUR_RGB( '', 0.689999997600000, 0.689999997600000, 0.689999997600000 );
#429 = CARTESIAN_POINT( '', ( 1.22700000000000, -0.899999999999996, 7.94921379760288 ) );
#430 = CARTESIAN_POINT( '', ( 0.817760310665017, -0.899999999999996, 7.53735954408322 ) );
#431 = CARTESIAN_POINT( '', ( 0.408716531538592, -0.899999999999996, 7.12531086943078 ) );
#432 = CARTESIAN_POINT( '', ( 8.53230804789007E-16, -0.899999999999996, 6.71293743453639 ) );
#433 = CARTESIAN_POINT( '', ( -6.13084944274137E-18, -0.899999999999996, -6.71293743453639 ) );
#434 = CARTESIAN_POINT( '', ( 0.408715634480826, -0.899999999999996, -7.12530996434678 ) );
#435 = CARTESIAN_POINT( '', ( 0.817759551175689, -0.899999999999996, -7.53735877974164 ) );
#436 = CARTESIAN_POINT( '', ( 1.22700000000000, -0.899999999999996, -7.94921379760288 ) );
#437 = COLOUR_RGB( '', 0.689999997600000, 0.689999997600000, 0.689999997600000 );
#438 = COLOUR_RGB( '', 0.689999997600000, 0.689999997600000, 0.689999997600000 );
#439 = CARTESIAN_POINT( '', ( 59.1547600000000, 6.64079422599242E-16, 0.000000000000000 ) );
#440 = DIRECTION( '', ( 1.00000000000000, -6.12323399573677E-17, -0.000000000000000 ) );
#441 = DIRECTION( '', ( 6.12323399573676E-17, 1.00000000000000, 0.000000000000000 ) );
#442 = CARTESIAN_POINT( '', ( 58.0000000000000, 7.34788079488413E-16, 0.000000000000000 ) );
#443 = DIRECTION( '', ( 1.00000000000000, -6.12323399573677E-17, -0.000000000000000 ) );
#444 = DIRECTION( '', ( 6.12323399573677E-17, 1.00000000000000, 0.000000000000000 ) );
#445 = DIRECTION( '', ( 0.000000000000000, 0.000000000000000, -1.00000000000000 ) );
#446 = DIRECTION( '', ( 1.00000000000000, -6.12323399573677E-17, -0.000000000000000 ) );
#447 = DIRECTION( '', ( 0.000000000000000, 0.000000000000000, -1.00000000000000 ) );
#448 = DIRECTION( '', ( 1.00000000000000, -6.12323399573677E-17, -0.000000000000000 ) );
#449 = CARTESIAN_POINT( '', ( 3.00000000000000, 4.10256677714363E-15, 0.000000000000000 ) );
#450 = DIRECTION( '', ( -1.00000000000000, 0.000000000000000, 0.000000000000000 ) );
#451 = DIRECTION( '', ( 0.000000000000000, 0.000000000000000, 1.00000000000000 ) );
#452 = DIRECTION( '', ( 0.000000000000000, 0.000000000000000, 1.00000000000000 ) );
#453 = CARTESIAN_POINT( '', ( 3.00000000000000, 4.10256677714363E-15, 0.000000000000000 ) );
#454 = DIRECTION( '', ( -1.00000000000000, 0.000000000000000, 0.000000000000000 ) );
#455 = DIRECTION( '', ( 0.000000000000000, 0.000000000000000, 1.00000000000000 ) );
#456 = CARTESIAN_POINT( '', ( 0.000000000000000, 4.28626379701574E-15, 0.000000000000000 ) );
#457 = DIRECTION( '', ( 1.00000000000000, -6.12323399573677E-17, -0.000000000000000 ) );
#458 = DIRECTION( '', ( 6.12323399573677E-17, 1.00000000000000, 0.000000000000000 ) );
#459 = CARTESIAN_POINT( '', ( 1.22700000000001, 4.21113171588805E-15, 0.000000000000000 ) );
#460 = DIRECTION( '', ( 1.00000000000000, -6.12323399573677E-17, -0.000000000000000 ) );
#461 = DIRECTION( '', ( 6.12323399573677E-17, 1.00000000000000, 0.000000000000000 ) );
#462 = CARTESIAN_POINT( '', ( 1.22700000000001, 4.21113171588805E-15, 0.000000000000000 ) );
#463 = DIRECTION( '', ( 1.00000000000000, -6.12323399573677E-17, -0.000000000000000 ) );
#464 = DIRECTION( '', ( 6.12323399573677E-17, 1.00000000000000, 0.000000000000000 ) );
#465 = DIRECTION( '', ( 1.00000000000000, -6.12323399573677E-17, -0.000000000000000 ) );
#466 = DIRECTION( '', ( 1.00000000000000, -6.12323399573677E-17, -0.000000000000000 ) );
#467 = CARTESIAN_POINT( '', ( 68.0159556456384, 1.21487678396767E-16, 0.000000000000000 ) );
#468 = DIRECTION( '', ( 1.00000000000000, -6.12323399573677E-17, -0.000000000000000 ) );
#469 = DIRECTION( '', ( 6.12323399573677E-17, 1.00000000000000, 0.000000000000000 ) );
#470 = CARTESIAN_POINT( '', ( 65.0000000000000, 3.06161699786839E-16, 0.000000000000000 ) );
#471 = DIRECTION( '', ( 1.00000000000000, -6.12323399573677E-17, -0.000000000000000 ) );
#472 = DIRECTION( '', ( 6.12323399573677E-17, 1.00000000000000, 0.000000000000000 ) );
#473 = CARTESIAN_POINT( '', ( 65.0000000000000, 3.06161699786839E-16, 0.000000000000000 ) );
#474 = DIRECTION( '', ( 1.00000000000000, -6.12323399573676E-17, -0.000000000000000 ) );
#475 = DIRECTION( '', ( 6.12323399573677E-17, 1.00000000000000, 0.000000000000000 ) );
#476 = CARTESIAN_POINT( '', ( 0.000000000000000, 4.28626379701574E-15, 0.000000000000000 ) );
#477 = DIRECTION( '', ( 1.00000000000000, -6.12323399573677E-17, -0.000000000000000 ) );
#478 = DIRECTION( '', ( 6.12323399573677E-17, 1.00000000000000, 0.000000000000000 ) );
#479 = DIRECTION( '', ( 0.000000000000000, 0.000000000000000, 1.00000000000000 ) );
ENDSEC;
END-ISO-10303-21;
