ISO-10303-21;
HEADER;
FILE_DESCRIPTION( ( 'STEP AP214' ), '1' );
FILE_NAME( '//goodhand-server/Shared Folders/GoodHand Data/Kipp CAD/K0390/K0390.08X50.stp', '2020-12-07T10:14:23', ( '' ), ( '' ), ' ', 'PARTsolutions', ' ' );
FILE_SCHEMA( ( 'AUTOMOTIVE_DESIGN { 1 0 10303 214 1 1 1 1 }' ) );
ENDSEC;
DATA;
#1 = MECHANICAL_DESIGN_GEOMETRIC_PRESENTATION_REPRESENTATION( ' ', ( #10, #11, #12, #13, #14, #15, #16, #17, #18, #19, #20, #21, #22 ), #6 );
#2 = PRODUCT_DEFINITION_CONTEXT( '', #23, 'design' );
#3 = APPLICATION_PROTOCOL_DEFINITION( 'international standard', 'automotive_design', 2001, #23 );
#4 = PRODUCT_CATEGORY_RELATIONSHIP( 'NONE', 'NONE', #24, #25 );
#5 = SHAPE_DEFINITION_REPRESENTATION( #26, #27 );
#6 =  ( GEOMETRIC_REPRESENTATION_CONTEXT( 3 )GLOBAL_UNCERTAINTY_ASSIGNED_CONTEXT( ( #30 ) )GLOBAL_UNIT_ASSIGNED_CONTEXT( ( #32, #33, #34 ) )REPRESENTATION_CONTEXT( 'NONE', 'WORKSPACE' ) );
#10 = STYLED_ITEM( '', ( #36 ), #37 );
#11 = STYLED_ITEM( '', ( #38 ), #39 );
#12 = STYLED_ITEM( '', ( #40 ), #41 );
#13 = STYLED_ITEM( '', ( #42 ), #43 );
#14 = STYLED_ITEM( '', ( #44 ), #45 );
#15 = STYLED_ITEM( '', ( #46 ), #47 );
#16 = STYLED_ITEM( '', ( #48 ), #49 );
#17 = STYLED_ITEM( '', ( #50 ), #51 );
#18 = STYLED_ITEM( '', ( #52 ), #53 );
#19 = STYLED_ITEM( '', ( #54 ), #55 );
#20 = STYLED_ITEM( '', ( #56 ), #57 );
#21 = STYLED_ITEM( '', ( #58 ), #59 );
#22 = STYLED_ITEM( '', ( #60 ), #61 );
#23 = APPLICATION_CONTEXT( 'core data for automotive mechanical design processes' );
#24 = PRODUCT_CATEGORY( 'part', 'NONE' );
#25 = PRODUCT_RELATED_PRODUCT_CATEGORY( 'detail', ' ', ( #62 ) );
#26 = PRODUCT_DEFINITION_SHAPE( 'NONE', 'NONE', #63 );
#27 = ADVANCED_BREP_SHAPE_REPRESENTATION( '_K0390.08X50', ( #64, #65 ), #6 );
#30 = UNCERTAINTY_MEASURE_WITH_UNIT( LENGTH_MEASURE( 0.00100000000000000 ), #32, '', '' );
#32 =  ( CONVERSION_BASED_UNIT( 'MILLIMETRE', #68 )LENGTH_UNIT(  )NAMED_UNIT( #71 ) );
#33 =  ( NAMED_UNIT( #73 )PLANE_ANGLE_UNIT(  )SI_UNIT( $, .RADIAN. ) );
#34 =  ( NAMED_UNIT( #73 )SI_UNIT( $, .STERADIAN. )SOLID_ANGLE_UNIT(  ) );
#36 = PRESENTATION_STYLE_ASSIGNMENT( ( #79 ) );
#37 = ADVANCED_FACE( '', ( #80 ), #81, .F. );
#38 = PRESENTATION_STYLE_ASSIGNMENT( ( #82 ) );
#39 = ADVANCED_FACE( '', ( #83, #84 ), #85, .T. );
#40 = PRESENTATION_STYLE_ASSIGNMENT( ( #86 ) );
#41 = ADVANCED_FACE( '', ( #87 ), #88, .T. );
#42 = PRESENTATION_STYLE_ASSIGNMENT( ( #89 ) );
#43 = ADVANCED_FACE( '', ( #90 ), #91, .T. );
#44 = PRESENTATION_STYLE_ASSIGNMENT( ( #92 ) );
#45 = ADVANCED_FACE( '', ( #93 ), #94, .T. );
#46 = PRESENTATION_STYLE_ASSIGNMENT( ( #95 ) );
#47 = ADVANCED_FACE( '', ( #96, #97 ), #98, .F. );
#48 = PRESENTATION_STYLE_ASSIGNMENT( ( #99 ) );
#49 = ADVANCED_FACE( '', ( #100 ), #101, .F. );
#50 = PRESENTATION_STYLE_ASSIGNMENT( ( #102 ) );
#51 = ADVANCED_FACE( '', ( #103, #104 ), #105, .T. );
#52 = PRESENTATION_STYLE_ASSIGNMENT( ( #106 ) );
#53 = ADVANCED_FACE( '', ( #107, #108 ), #109, .T. );
#54 = PRESENTATION_STYLE_ASSIGNMENT( ( #110 ) );
#55 = ADVANCED_FACE( '', ( #111, #112 ), #113, .T. );
#56 = PRESENTATION_STYLE_ASSIGNMENT( ( #114 ) );
#57 = ADVANCED_FACE( '', ( #115 ), #116, .F. );
#58 = PRESENTATION_STYLE_ASSIGNMENT( ( #117 ) );
#59 = ADVANCED_FACE( '', ( #118, #119 ), #120, .T. );
#60 = PRESENTATION_STYLE_ASSIGNMENT( ( #121 ) );
#61 = ADVANCED_FACE( '', ( #122 ), #123, .F. );
#62 = PRODUCT( '_K0390.08X50', '_K0390.08X50', 'PART-_K0390.08X50-DESC', ( #124 ) );
#63 = PRODUCT_DEFINITION( 'NONE', 'NONE', #125, #2 );
#64 = MANIFOLD_SOLID_BREP( '_K0390.08X50', #126 );
#65 = AXIS2_PLACEMENT_3D( '', #127, #128, #129 );
#68 = LENGTH_MEASURE_WITH_UNIT( LENGTH_MEASURE( 1.00000000000000 ), #130 );
#71 = DIMENSIONAL_EXPONENTS( 1.00000000000000, 0.000000000000000, 0.000000000000000, 0.000000000000000, 0.000000000000000, 0.000000000000000, 0.000000000000000 );
#73 = DIMENSIONAL_EXPONENTS( 0.000000000000000, 0.000000000000000, 0.000000000000000, 0.000000000000000, 0.000000000000000, 0.000000000000000, 0.000000000000000 );
#79 = SURFACE_STYLE_USAGE( .BOTH., #131 );
#80 = FACE_OUTER_BOUND( '', #132, .T. );
#81 = PLANE( '', #133 );
#82 = SURFACE_STYLE_USAGE( .BOTH., #134 );
#83 = FACE_OUTER_BOUND( '', #135, .T. );
#84 = FACE_OUTER_BOUND( '', #136, .T. );
#85 = CYLINDRICAL_SURFACE( '', #137, 2.70000000000000 );
#86 = SURFACE_STYLE_USAGE( .BOTH., #138 );
#87 = FACE_OUTER_BOUND( '', #139, .T. );
#88 = PLANE( '', #140 );
#89 = SURFACE_STYLE_USAGE( .BOTH., #141 );
#90 = FACE_OUTER_BOUND( '', #142, .T. );
#91 = CONICAL_SURFACE( '', #143, 3.23300000000000, 0.785398163400000 );
#92 = SURFACE_STYLE_USAGE( .BOTH., #144 );
#93 = FACE_OUTER_BOUND( '', #145, .T. );
#94 = CONICAL_SURFACE( '', #146, 3.23300000000000, 0.785398163400000 );
#95 = SURFACE_STYLE_USAGE( .BOTH., #147 );
#96 = FACE_OUTER_BOUND( '', #148, .T. );
#97 = FACE_BOUND( '', #149, .T. );
#98 = PLANE( '', #150 );
#99 = SURFACE_STYLE_USAGE( .BOTH., #151 );
#100 = FACE_OUTER_BOUND( '', #152, .T. );
#101 = PLANE( '', #153 );
#102 = SURFACE_STYLE_USAGE( .BOTH., #154 );
#103 = FACE_OUTER_BOUND( '', #155, .T. );
#104 = FACE_OUTER_BOUND( '', #156, .T. );
#105 = CYLINDRICAL_SURFACE( '', #157, 3.00000000000000 );
#106 = SURFACE_STYLE_USAGE( .BOTH., #158 );
#107 = FACE_OUTER_BOUND( '', #159, .T. );
#108 = FACE_OUTER_BOUND( '', #160, .T. );
#109 = CYLINDRICAL_SURFACE( '', #161, 4.00000000000000 );
#110 = SURFACE_STYLE_USAGE( .BOTH., #162 );
#111 = FACE_BOUND( '', #163, .T. );
#112 = FACE_OUTER_BOUND( '', #164, .T. );
#113 = SPHERICAL_SURFACE( '', #165, 5.03220000000000 );
#114 = SURFACE_STYLE_USAGE( .BOTH., #166 );
#115 = FACE_OUTER_BOUND( '', #167, .T. );
#116 = PLANE( '', #168 );
#117 = SURFACE_STYLE_USAGE( .BOTH., #169 );
#118 = FACE_BOUND( '', #170, .T. );
#119 = FACE_OUTER_BOUND( '', #171, .T. );
#120 = CONICAL_SURFACE( '', #172, 4.00000000000000, 1.06399014130000 );
#121 = SURFACE_STYLE_USAGE( .BOTH., #173 );
#122 = FACE_OUTER_BOUND( '', #174, .T. );
#123 = PLANE( '', #175 );
#124 = PRODUCT_CONTEXT( '', #23, 'mechanical' );
#125 = PRODUCT_DEFINITION_FORMATION_WITH_SPECIFIED_SOURCE( ' ', 'NONE', #62, .NOT_KNOWN. );
#126 = CLOSED_SHELL( '', ( #57, #49, #55, #51, #47, #39, #59, #53, #45, #61, #43, #37, #41 ) );
#127 = CARTESIAN_POINT( '', ( 0.000000000000000, 0.000000000000000, 0.000000000000000 ) );
#128 = DIRECTION( '', ( 0.000000000000000, 0.000000000000000, 1.00000000000000 ) );
#129 = DIRECTION( '', ( 1.00000000000000, 0.000000000000000, 0.000000000000000 ) );
#130 =  ( LENGTH_UNIT(  )NAMED_UNIT( #71 )SI_UNIT( .MILLI., .METRE. ) );
#131 = SURFACE_SIDE_STYLE( '', ( #177 ) );
#132 = EDGE_LOOP( '', ( #178, #179 ) );
#133 = AXIS2_PLACEMENT_3D( '', #180, #181, #182 );
#134 = SURFACE_SIDE_STYLE( '', ( #183 ) );
#135 = EDGE_LOOP( '', ( #184 ) );
#136 = EDGE_LOOP( '', ( #185 ) );
#137 = AXIS2_PLACEMENT_3D( '', #186, #187, #188 );
#138 = SURFACE_SIDE_STYLE( '', ( #189 ) );
#139 = EDGE_LOOP( '', ( #190, #191, #192, #193 ) );
#140 = AXIS2_PLACEMENT_3D( '', #194, #195, #196 );
#141 = SURFACE_SIDE_STYLE( '', ( #197 ) );
#142 = EDGE_LOOP( '', ( #198, #199, #200, #201 ) );
#143 = AXIS2_PLACEMENT_3D( '', #202, #203, #204 );
#144 = SURFACE_SIDE_STYLE( '', ( #205 ) );
#145 = EDGE_LOOP( '', ( #206, #207, #208, #209 ) );
#146 = AXIS2_PLACEMENT_3D( '', #210, #211, #212 );
#147 = SURFACE_SIDE_STYLE( '', ( #213 ) );
#148 = EDGE_LOOP( '', ( #214 ) );
#149 = EDGE_LOOP( '', ( #215 ) );
#150 = AXIS2_PLACEMENT_3D( '', #216, #217, #218 );
#151 = SURFACE_SIDE_STYLE( '', ( #219 ) );
#152 = EDGE_LOOP( '', ( #220, #221, #222, #223, #224, #225 ) );
#153 = AXIS2_PLACEMENT_3D( '', #226, #227, #228 );
#154 = SURFACE_SIDE_STYLE( '', ( #229 ) );
#155 = EDGE_LOOP( '', ( #230 ) );
#156 = EDGE_LOOP( '', ( #231 ) );
#157 = AXIS2_PLACEMENT_3D( '', #232, #233, #234 );
#158 = SURFACE_SIDE_STYLE( '', ( #235 ) );
#159 = EDGE_LOOP( '', ( #236 ) );
#160 = EDGE_LOOP( '', ( #237, #238, #239, #240, #241, #242, #243, #244 ) );
#161 = AXIS2_PLACEMENT_3D( '', #245, #246, #247 );
#162 = SURFACE_SIDE_STYLE( '', ( #248 ) );
#163 = VERTEX_LOOP( '', #249 );
#164 = EDGE_LOOP( '', ( #250 ) );
#165 = AXIS2_PLACEMENT_3D( '', #251, #252, #253 );
#166 = SURFACE_SIDE_STYLE( '', ( #254 ) );
#167 = EDGE_LOOP( '', ( #255, #256, #257, #258, #259, #260 ) );
#168 = AXIS2_PLACEMENT_3D( '', #261, #262, #263 );
#169 = SURFACE_SIDE_STYLE( '', ( #264 ) );
#170 = EDGE_LOOP( '', ( #265 ) );
#171 = EDGE_LOOP( '', ( #266 ) );
#172 = AXIS2_PLACEMENT_3D( '', #267, #268, #269 );
#173 = SURFACE_SIDE_STYLE( '', ( #270 ) );
#174 = EDGE_LOOP( '', ( #271, #272 ) );
#175 = AXIS2_PLACEMENT_3D( '', #273, #274, #275 );
#177 = SURFACE_STYLE_FILL_AREA( #276 );
#178 = ORIENTED_EDGE( '', *, *, #277, .F. );
#179 = ORIENTED_EDGE( '', *, *, #278, .F. );
#180 = CARTESIAN_POINT( '', ( -9.89820775410848E-17, 6.61433067666888E-15, 0.000000000000000 ) );
#181 = DIRECTION( '', ( 1.00000000000000, -6.12323399573676E-17, -0.000000000000000 ) );
#182 = DIRECTION( '', ( 6.12323399573676E-17, 1.00000000000000, 0.000000000000000 ) );
#183 = SURFACE_STYLE_FILL_AREA( #279 );
#184 = ORIENTED_EDGE( '', *, *, #280, .F. );
#185 = ORIENTED_EDGE( '', *, *, #281, .T. );
#186 = CARTESIAN_POINT( '', ( 50.0000000000000, 3.55271367880050E-15, 0.000000000000000 ) );
#187 = DIRECTION( '', ( -1.00000000000000, 6.12323399573676E-17, 0.000000000000000 ) );
#188 = DIRECTION( '', ( 6.12323399573676E-17, 1.00000000000000, 0.000000000000000 ) );
#189 = SURFACE_STYLE_FILL_AREA( #282 );
#190 = ORIENTED_EDGE( '', *, *, #283, .T. );
#191 = ORIENTED_EDGE( '', *, *, #284, .T. );
#192 = ORIENTED_EDGE( '', *, *, #285, .T. );
#193 = ORIENTED_EDGE( '', *, *, #286, .T. );
#194 = CARTESIAN_POINT( '', ( 3.00000000000000, 0.000000000000000, 0.000000000000000 ) );
#195 = DIRECTION( '', ( -1.00000000000000, 0.000000000000000, 0.000000000000000 ) );
#196 = DIRECTION( '', ( 0.000000000000000, 0.000000000000000, 1.00000000000000 ) );
#197 = SURFACE_STYLE_FILL_AREA( #287 );
#198 = ORIENTED_EDGE( '', *, *, #288, .F. );
#199 = ORIENTED_EDGE( '', *, *, #289, .T. );
#200 = ORIENTED_EDGE( '', *, *, #290, .T. );
#201 = ORIENTED_EDGE( '', *, *, #291, .T. );
#202 = CARTESIAN_POINT( '', ( 0.000000000000000, 6.61433067666888E-15, 0.000000000000000 ) );
#203 = DIRECTION( '', ( 1.00000000000000, -6.12323399573676E-17, -0.000000000000000 ) );
#204 = DIRECTION( '', ( 6.12323399573676E-17, 1.00000000000000, 0.000000000000000 ) );
#205 = SURFACE_STYLE_FILL_AREA( #292 );
#206 = ORIENTED_EDGE( '', *, *, #277, .T. );
#207 = ORIENTED_EDGE( '', *, *, #293, .T. );
#208 = ORIENTED_EDGE( '', *, *, #294, .F. );
#209 = ORIENTED_EDGE( '', *, *, #295, .T. );
#210 = CARTESIAN_POINT( '', ( 0.000000000000000, 6.61433067666888E-15, 0.000000000000000 ) );
#211 = DIRECTION( '', ( 1.00000000000000, -6.12323399573676E-17, -0.000000000000000 ) );
#212 = DIRECTION( '', ( 6.12323399573676E-17, 1.00000000000000, 0.000000000000000 ) );
#213 = SURFACE_STYLE_FILL_AREA( #296 );
#214 = ORIENTED_EDGE( '', *, *, #297, .F. );
#215 = ORIENTED_EDGE( '', *, *, #280, .T. );
#216 = CARTESIAN_POINT( '', ( 47.0000000000000, 2.70000000000000, 0.000000000000000 ) );
#217 = DIRECTION( '', ( 1.00000000000000, -6.12323399573676E-17, -0.000000000000000 ) );
#218 = DIRECTION( '', ( 6.12323399573676E-17, 1.00000000000000, 0.000000000000000 ) );
#219 = SURFACE_STYLE_FILL_AREA( #298 );
#220 = ORIENTED_EDGE( '', *, *, #299, .T. );
#221 = ORIENTED_EDGE( '', *, *, #289, .F. );
#222 = ORIENTED_EDGE( '', *, *, #300, .F. );
#223 = ORIENTED_EDGE( '', *, *, #284, .F. );
#224 = ORIENTED_EDGE( '', *, *, #301, .F. );
#225 = ORIENTED_EDGE( '', *, *, #291, .F. );
#226 = CARTESIAN_POINT( '', ( 3.00000000000000, -0.899999999999993, -10.5000000000000 ) );
#227 = DIRECTION( '', ( 0.000000000000000, -1.00000000000000, 0.000000000000000 ) );
#228 = DIRECTION( '', ( 0.000000000000000, 0.000000000000000, -1.00000000000000 ) );
#229 = SURFACE_STYLE_FILL_AREA( #302 );
#230 = ORIENTED_EDGE( '', *, *, #303, .F. );
#231 = ORIENTED_EDGE( '', *, *, #297, .T. );
#232 = CARTESIAN_POINT( '', ( 50.0000000000000, 3.55271367880050E-15, 0.000000000000000 ) );
#233 = DIRECTION( '', ( -1.00000000000000, 6.12323399573677E-17, 0.000000000000000 ) );
#234 = DIRECTION( '', ( 6.12323399573677E-17, 1.00000000000000, 0.000000000000000 ) );
#235 = SURFACE_STYLE_FILL_AREA( #304 );
#236 = ORIENTED_EDGE( '', *, *, #305, .F. );
#237 = ORIENTED_EDGE( '', *, *, #288, .T. );
#238 = ORIENTED_EDGE( '', *, *, #301, .T. );
#239 = ORIENTED_EDGE( '', *, *, #283, .F. );
#240 = ORIENTED_EDGE( '', *, *, #306, .T. );
#241 = ORIENTED_EDGE( '', *, *, #294, .T. );
#242 = ORIENTED_EDGE( '', *, *, #307, .T. );
#243 = ORIENTED_EDGE( '', *, *, #285, .F. );
#244 = ORIENTED_EDGE( '', *, *, #300, .T. );
#245 = CARTESIAN_POINT( '', ( 50.0000000000000, 3.55271367880050E-15, 0.000000000000000 ) );
#246 = DIRECTION( '', ( -1.00000000000000, 6.12323399573676E-17, 0.000000000000000 ) );
#247 = DIRECTION( '', ( 6.12323399573676E-17, 1.00000000000000, 0.000000000000000 ) );
#248 = SURFACE_STYLE_FILL_AREA( #308 );
#249 = VERTEX_POINT( '', #309 );
#250 = ORIENTED_EDGE( '', *, *, #303, .T. );
#251 = CARTESIAN_POINT( '', ( 44.9678000000001, 2.94902990916057E-14, 0.000000000000000 ) );
#252 = DIRECTION( '', ( 1.00000000000000, 0.000000000000000, 0.000000000000000 ) );
#253 = DIRECTION( '', ( 0.000000000000000, -1.00000000000000, 0.000000000000000 ) );
#254 = SURFACE_STYLE_FILL_AREA( #310 );
#255 = ORIENTED_EDGE( '', *, *, #293, .F. );
#256 = ORIENTED_EDGE( '', *, *, #278, .T. );
#257 = ORIENTED_EDGE( '', *, *, #295, .F. );
#258 = ORIENTED_EDGE( '', *, *, #306, .F. );
#259 = ORIENTED_EDGE( '', *, *, #286, .F. );
#260 = ORIENTED_EDGE( '', *, *, #307, .F. );
#261 = CARTESIAN_POINT( '', ( 3.00000000000000, 0.900000000000007, 10.5000000000000 ) );
#262 = DIRECTION( '', ( 0.000000000000000, 1.00000000000000, 0.000000000000000 ) );
#263 = DIRECTION( '', ( 0.000000000000000, -0.000000000000000, 1.00000000000000 ) );
#264 = SURFACE_STYLE_FILL_AREA( #311 );
#265 = ORIENTED_EDGE( '', *, *, #281, .F. );
#266 = ORIENTED_EDGE( '', *, *, #305, .T. );
#267 = CARTESIAN_POINT( '', ( 42.5000000000000, 4.01195622848076E-15, 0.000000000000000 ) );
#268 = DIRECTION( '', ( -1.00000000000000, 6.12323399573676E-17, -0.000000000000000 ) );
#269 = DIRECTION( '', ( -6.12323399573676E-17, -1.00000000000000, 0.000000000000000 ) );
#270 = SURFACE_STYLE_FILL_AREA( #312 );
#271 = ORIENTED_EDGE( '', *, *, #290, .F. );
#272 = ORIENTED_EDGE( '', *, *, #299, .F. );
#273 = CARTESIAN_POINT( '', ( -9.89820775410848E-17, 6.61433067666888E-15, 0.000000000000000 ) );
#274 = DIRECTION( '', ( 1.00000000000000, -6.12323399573676E-17, -0.000000000000000 ) );
#275 = DIRECTION( '', ( 6.12323399573676E-17, 1.00000000000000, 0.000000000000000 ) );
#276 = FILL_AREA_STYLE( '', ( #313 ) );
#277 = EDGE_CURVE( '', #314, #315, #316, .T. );
#278 = EDGE_CURVE( '', #315, #314, #317, .T. );
#279 = FILL_AREA_STYLE( '', ( #318 ) );
#280 = EDGE_CURVE( '', #319, #319, #320, .T. );
#281 = EDGE_CURVE( '', #321, #321, #322, .T. );
#282 = FILL_AREA_STYLE( '', ( #323 ) );
#283 = EDGE_CURVE( '', #324, #325, #326, .T. );
#284 = EDGE_CURVE( '', #325, #327, #328, .T. );
#285 = EDGE_CURVE( '', #327, #329, #330, .T. );
#286 = EDGE_CURVE( '', #329, #324, #331, .T. );
#287 = FILL_AREA_STYLE( '', ( #332 ) );
#288 = EDGE_CURVE( '', #333, #334, #335, .T. );
#289 = EDGE_CURVE( '', #333, #336, #337, .T. );
#290 = EDGE_CURVE( '', #336, #338, #339, .T. );
#291 = EDGE_CURVE( '', #338, #334, #340, .T. );
#292 = FILL_AREA_STYLE( '', ( #341 ) );
#293 = EDGE_CURVE( '', #315, #342, #343, .T. );
#294 = EDGE_CURVE( '', #344, #342, #345, .T. );
#295 = EDGE_CURVE( '', #344, #314, #346, .T. );
#296 = FILL_AREA_STYLE( '', ( #347 ) );
#297 = EDGE_CURVE( '', #348, #348, #349, .T. );
#298 = FILL_AREA_STYLE( '', ( #350 ) );
#299 = EDGE_CURVE( '', #338, #336, #351, .T. );
#300 = EDGE_CURVE( '', #327, #333, #352, .F. );
#301 = EDGE_CURVE( '', #334, #325, #353, .T. );
#302 = FILL_AREA_STYLE( '', ( #354 ) );
#303 = EDGE_CURVE( '', #355, #355, #356, .T. );
#304 = FILL_AREA_STYLE( '', ( #357 ) );
#305 = EDGE_CURVE( '', #358, #358, #359, .T. );
#306 = EDGE_CURVE( '', #324, #344, #360, .F. );
#307 = EDGE_CURVE( '', #342, #329, #361, .T. );
#308 = FILL_AREA_STYLE( '', ( #362 ) );
#309 = CARTESIAN_POINT( '', ( 50.0000000000000, 2.88740323293388E-14, 0.000000000000000 ) );
#310 = FILL_AREA_STYLE( '', ( #363 ) );
#311 = FILL_AREA_STYLE( '', ( #364 ) );
#312 = FILL_AREA_STYLE( '', ( #365 ) );
#313 = FILL_AREA_STYLE_COLOUR( '', #366 );
#314 = VERTEX_POINT( '', #367 );
#315 = VERTEX_POINT( '', #368 );
#316 = CIRCLE( '', #369, 3.23300000000000 );
#317 = LINE( '', #370, #371 );
#318 = FILL_AREA_STYLE_COLOUR( '', #372 );
#319 = VERTEX_POINT( '', #373 );
#320 = CIRCLE( '', #374, 2.70000000000000 );
#321 = VERTEX_POINT( '', #375 );
#322 = CIRCLE( '', #376, 2.70000000000000 );
#323 = FILL_AREA_STYLE_COLOUR( '', #377 );
#324 = VERTEX_POINT( '', #378 );
#325 = VERTEX_POINT( '', #379 );
#326 = CIRCLE( '', #380, 4.00000000000000 );
#327 = VERTEX_POINT( '', #381 );
#328 = LINE( '', #382, #383 );
#329 = VERTEX_POINT( '', #384 );
#330 = CIRCLE( '', #385, 4.00000000000000 );
#331 = LINE( '', #386, #387 );
#332 = FILL_AREA_STYLE_COLOUR( '', #388 );
#333 = VERTEX_POINT( '', #389 );
#334 = VERTEX_POINT( '', #390 );
#335 = CIRCLE( '', #391, 4.00000000000000 );
#336 = VERTEX_POINT( '', #392 );
#337 = B_SPLINE_CURVE_WITH_KNOTS( '', 3, ( #393, #394, #395, #396 ), .UNSPECIFIED., .F., .F., ( 4, 4 ), ( 0.00685941369446051, 0.00796210091278451 ), .UNSPECIFIED. );
#338 = VERTEX_POINT( '', #397 );
#339 = CIRCLE( '', #398, 3.23300000000000 );
#340 = B_SPLINE_CURVE_WITH_KNOTS( '', 3, ( #399, #400, #401, #402 ), .UNSPECIFIED., .F., .F., ( 4, 4 ), ( 0.0158157249040059, 0.0169130244324276 ), .UNSPECIFIED. );
#341 = FILL_AREA_STYLE_COLOUR( '', #403 );
#342 = VERTEX_POINT( '', #404 );
#343 = B_SPLINE_CURVE_WITH_KNOTS( '', 3, ( #405, #406, #407, #408 ), .UNSPECIFIED., .F., .F., ( 4, 4 ), ( 0.0158157249040059, 0.0169130244324276 ), .UNSPECIFIED. );
#344 = VERTEX_POINT( '', #409 );
#345 = CIRCLE( '', #410, 4.00000000000000 );
#346 = B_SPLINE_CURVE_WITH_KNOTS( '', 3, ( #411, #412, #413, #414 ), .UNSPECIFIED., .F., .F., ( 4, 4 ), ( 0.00685941369446052, 0.00796210091278451 ), .UNSPECIFIED. );
#347 = FILL_AREA_STYLE_COLOUR( '', #415 );
#348 = VERTEX_POINT( '', #416 );
#349 = CIRCLE( '', #417, 3.00000000000000 );
#350 = FILL_AREA_STYLE_COLOUR( '', #418 );
#351 = LINE( '', #419, #420 );
#352 = LINE( '', #421, #422 );
#353 = LINE( '', #423, #424 );
#354 = FILL_AREA_STYLE_COLOUR( '', #425 );
#355 = VERTEX_POINT( '', #426 );
#356 = CIRCLE( '', #427, 3.00000000000000 );
#357 = FILL_AREA_STYLE_COLOUR( '', #428 );
#358 = VERTEX_POINT( '', #429 );
#359 = CIRCLE( '', #430, 4.00000000000000 );
#360 = LINE( '', #431, #432 );
#361 = LINE( '', #433, #434 );
#362 = FILL_AREA_STYLE_COLOUR( '', #435 );
#363 = FILL_AREA_STYLE_COLOUR( '', #436 );
#364 = FILL_AREA_STYLE_COLOUR( '', #437 );
#365 = FILL_AREA_STYLE_COLOUR( '', #438 );
#366 = COLOUR_RGB( '', 0.689999997600000, 0.689999997600000, 0.689999997600000 );
#367 = CARTESIAN_POINT( '', ( 0.000000000000000, 0.900000000000006, -3.10520353600211 ) );
#368 = CARTESIAN_POINT( '', ( 0.000000000000000, 0.900000000000006, 3.10520353600211 ) );
#369 = AXIS2_PLACEMENT_3D( '', #439, #440, #441 );
#370 = CARTESIAN_POINT( '', ( 0.000000000000000, 0.900000000000007, 10.5000000000000 ) );
#371 = VECTOR( '', #442, 1000.00000000000 );
#372 = COLOUR_RGB( '', 0.689999997600000, 0.689999997600000, 0.689999997600000 );
#373 = CARTESIAN_POINT( '', ( 47.0000000000000, 2.70000000000000, 0.000000000000000 ) );
#374 = AXIS2_PLACEMENT_3D( '', #443, #444, #445 );
#375 = CARTESIAN_POINT( '', ( 43.2217250000000, 2.70000000000000, 0.000000000000000 ) );
#376 = AXIS2_PLACEMENT_3D( '', #446, #447, #448 );
#377 = COLOUR_RGB( '', 0.689999997600000, 0.689999997600000, 0.689999997600000 );
#378 = CARTESIAN_POINT( '', ( 3.00000000000000, 0.900000000000006, -3.89743505398101 ) );
#379 = CARTESIAN_POINT( '', ( 3.00000000000000, -0.899999999999993, -3.89743505398101 ) );
#380 = AXIS2_PLACEMENT_3D( '', #449, #450, #451 );
#381 = CARTESIAN_POINT( '', ( 3.00000000000000, -0.899999999999993, 3.89743505398101 ) );
#382 = CARTESIAN_POINT( '', ( 3.00000000000000, -0.899999999999993, -10.5000000000000 ) );
#383 = VECTOR( '', #452, 1000.00000000000 );
#384 = CARTESIAN_POINT( '', ( 3.00000000000000, 0.900000000000006, 3.89743505398101 ) );
#385 = AXIS2_PLACEMENT_3D( '', #453, #454, #455 );
#386 = CARTESIAN_POINT( '', ( 3.00000000000000, 0.900000000000007, 10.5000000000000 ) );
#387 = VECTOR( '', #456, 1000.00000000000 );
#388 = COLOUR_RGB( '', 0.689999997600000, 0.689999997600000, 0.689999997600000 );
#389 = CARTESIAN_POINT( '', ( 0.767000000000004, -0.899999999999990, 3.89743505398102 ) );
#390 = CARTESIAN_POINT( '', ( 0.767000000000004, -0.899999999999990, -3.89743505398102 ) );
#391 = AXIS2_PLACEMENT_3D( '', #457, #458, #459 );
#392 = CARTESIAN_POINT( '', ( 0.000000000000000, -0.899999999999993, 3.10520353600211 ) );
#393 = CARTESIAN_POINT( '', ( 0.767000000000001, -0.899999999999993, 3.89743505398102 ) );
#394 = CARTESIAN_POINT( '', ( 0.510490421567083, -0.899999999999993, 3.63417516651128 ) );
#395 = CARTESIAN_POINT( '', ( 0.254616510453990, -0.899999999999993, 3.37029893756074 ) );
#396 = CARTESIAN_POINT( '', ( 5.98544661405433E-16, -0.899999999999993, 3.10520353600211 ) );
#397 = CARTESIAN_POINT( '', ( 0.000000000000000, -0.899999999999993, -3.10520353600211 ) );
#398 = AXIS2_PLACEMENT_3D( '', #460, #461, #462 );
#399 = CARTESIAN_POINT( '', ( 1.07506289704327E-15, -0.899999999999993, -3.10520353600211 ) );
#400 = CARTESIAN_POINT( '', ( 0.254623855499882, -0.899999999999993, -3.37030658489628 ) );
#401 = CARTESIAN_POINT( '', ( 0.510496360619597, -0.899999999999993, -3.63418126185596 ) );
#402 = CARTESIAN_POINT( '', ( 0.767000000000001, -0.899999999999993, -3.89743505398102 ) );
#403 = COLOUR_RGB( '', 0.689999997600000, 0.689999997600000, 0.689999997600000 );
#404 = CARTESIAN_POINT( '', ( 0.767000000000004, 0.900000000000010, 3.89743505398101 ) );
#405 = CARTESIAN_POINT( '', ( -3.14911240955613E-16, 0.900000000000007, 3.10520353600211 ) );
#406 = CARTESIAN_POINT( '', ( 0.254623855499881, 0.900000000000007, 3.37030658489628 ) );
#407 = CARTESIAN_POINT( '', ( 0.510496360619596, 0.900000000000007, 3.63418126185596 ) );
#408 = CARTESIAN_POINT( '', ( 0.766999999999999, 0.900000000000007, 3.89743505398102 ) );
#409 = CARTESIAN_POINT( '', ( 0.767000000000004, 0.900000000000010, -3.89743505398101 ) );
#410 = AXIS2_PLACEMENT_3D( '', #463, #464, #465 );
#411 = CARTESIAN_POINT( '', ( 0.767000000000000, 0.900000000000007, -3.89743505398102 ) );
#412 = CARTESIAN_POINT( '', ( 0.510490421567082, 0.900000000000007, -3.63417516651127 ) );
#413 = CARTESIAN_POINT( '', ( 0.254616510453988, 0.900000000000007, -3.37029893756074 ) );
#414 = CARTESIAN_POINT( '', ( -1.07797795260380E-15, 0.900000000000007, -3.10520353600211 ) );
#415 = COLOUR_RGB( '', 0.689999997600000, 0.689999997600000, 0.689999997600000 );
#416 = CARTESIAN_POINT( '', ( 47.0000000000000, 3.00000000000000, 0.000000000000000 ) );
#417 = AXIS2_PLACEMENT_3D( '', #466, #467, #468 );
#418 = COLOUR_RGB( '', 0.689999997600000, 0.689999997600000, 0.689999997600000 );
#419 = CARTESIAN_POINT( '', ( 0.000000000000000, -0.899999999999993, -10.5000000000000 ) );
#420 = VECTOR( '', #469, 1000.00000000000 );
#421 = CARTESIAN_POINT( '', ( 50.0000000000000, -0.899999999999993, 3.89743505398102 ) );
#422 = VECTOR( '', #470, 1000.00000000000 );
#423 = CARTESIAN_POINT( '', ( 50.0000000000000, -0.899999999999993, -3.89743505398102 ) );
#424 = VECTOR( '', #471, 1000.00000000000 );
#425 = COLOUR_RGB( '', 0.689999997600000, 0.689999997600000, 0.689999997600000 );
#426 = CARTESIAN_POINT( '', ( 49.0079778228192, 3.00000000000000, 0.000000000000000 ) );
#427 = AXIS2_PLACEMENT_3D( '', #472, #473, #474 );
#428 = COLOUR_RGB( '', 0.689999997600000, 0.689999997600000, 0.689999997600000 );
#429 = CARTESIAN_POINT( '', ( 42.5000000000000, 4.00000000000000, 0.000000000000000 ) );
#430 = AXIS2_PLACEMENT_3D( '', #475, #476, #477 );
#431 = CARTESIAN_POINT( '', ( 50.0000000000000, 0.900000000000007, -3.89743505398101 ) );
#432 = VECTOR( '', #478, 1000.00000000000 );
#433 = CARTESIAN_POINT( '', ( 50.0000000000000, 0.900000000000007, 3.89743505398101 ) );
#434 = VECTOR( '', #479, 1000.00000000000 );
#435 = COLOUR_RGB( '', 0.689999997600000, 0.689999997600000, 0.689999997600000 );
#436 = COLOUR_RGB( '', 0.689999997600000, 0.689999997600000, 0.689999997600000 );
#437 = COLOUR_RGB( '', 0.689999997600000, 0.689999997600000, 0.689999997600000 );
#438 = COLOUR_RGB( '', 0.689999997600000, 0.689999997600000, 0.689999997600000 );
#439 = CARTESIAN_POINT( '', ( 0.000000000000000, 6.61433067666888E-15, 0.000000000000000 ) );
#440 = DIRECTION( '', ( 1.00000000000000, -6.12323399573676E-17, -0.000000000000000 ) );
#441 = DIRECTION( '', ( 6.12323399573676E-17, 1.00000000000000, 0.000000000000000 ) );
#442 = DIRECTION( '', ( 0.000000000000000, 0.000000000000000, -1.00000000000000 ) );
#443 = CARTESIAN_POINT( '', ( 47.0000000000000, 3.73641069867260E-15, 0.000000000000000 ) );
#444 = DIRECTION( '', ( 1.00000000000000, -6.12323399573676E-17, -0.000000000000000 ) );
#445 = DIRECTION( '', ( 6.12323399573676E-17, 1.00000000000000, 0.000000000000000 ) );
#446 = CARTESIAN_POINT( '', ( 43.2217250000000, 3.96776331792503E-15, 0.000000000000000 ) );
#447 = DIRECTION( '', ( 1.00000000000000, -6.12323399573676E-17, -0.000000000000000 ) );
#448 = DIRECTION( '', ( 6.12323399573676E-17, 1.00000000000000, 0.000000000000000 ) );
#449 = CARTESIAN_POINT( '', ( 3.00000000000000, 6.43063365679678E-15, 0.000000000000000 ) );
#450 = DIRECTION( '', ( -1.00000000000000, 0.000000000000000, 0.000000000000000 ) );
#451 = DIRECTION( '', ( 0.000000000000000, 0.000000000000000, 1.00000000000000 ) );
#452 = DIRECTION( '', ( 0.000000000000000, 0.000000000000000, 1.00000000000000 ) );
#453 = CARTESIAN_POINT( '', ( 3.00000000000000, 6.43063365679678E-15, 0.000000000000000 ) );
#454 = DIRECTION( '', ( -1.00000000000000, 0.000000000000000, 0.000000000000000 ) );
#455 = DIRECTION( '', ( 0.000000000000000, 0.000000000000000, 1.00000000000000 ) );
#456 = DIRECTION( '', ( 0.000000000000000, 0.000000000000000, -1.00000000000000 ) );
#457 = CARTESIAN_POINT( '', ( 0.766999999999997, 6.56736547192158E-15, 0.000000000000000 ) );
#458 = DIRECTION( '', ( 1.00000000000000, -6.12323399573676E-17, -0.000000000000000 ) );
#459 = DIRECTION( '', ( 6.12323399573676E-17, 1.00000000000000, 0.000000000000000 ) );
#460 = CARTESIAN_POINT( '', ( 0.000000000000000, 6.61433067666888E-15, 0.000000000000000 ) );
#461 = DIRECTION( '', ( 1.00000000000000, -6.12323399573676E-17, -0.000000000000000 ) );
#462 = DIRECTION( '', ( 6.12323399573676E-17, 1.00000000000000, 0.000000000000000 ) );
#463 = CARTESIAN_POINT( '', ( 0.766999999999997, 6.56736547192158E-15, 0.000000000000000 ) );
#464 = DIRECTION( '', ( 1.00000000000000, -6.12323399573676E-17, -0.000000000000000 ) );
#465 = DIRECTION( '', ( 6.12323399573676E-17, 1.00000000000000, 0.000000000000000 ) );
#466 = CARTESIAN_POINT( '', ( 47.0000000000000, 3.73641069867260E-15, 0.000000000000000 ) );
#467 = DIRECTION( '', ( 1.00000000000000, -6.12323399573676E-17, -0.000000000000000 ) );
#468 = DIRECTION( '', ( 6.12323399573677E-17, 1.00000000000000, 0.000000000000000 ) );
#469 = DIRECTION( '', ( 0.000000000000000, 0.000000000000000, 1.00000000000000 ) );
#470 = DIRECTION( '', ( 1.00000000000000, -6.12323399573676E-17, -0.000000000000000 ) );
#471 = DIRECTION( '', ( 1.00000000000000, -6.12323399573676E-17, -0.000000000000000 ) );
#472 = CARTESIAN_POINT( '', ( 49.0079778228192, 3.61345751799888E-15, 0.000000000000000 ) );
#473 = DIRECTION( '', ( 1.00000000000000, -6.12323399573676E-17, -0.000000000000000 ) );
#474 = DIRECTION( '', ( 6.12323399573677E-17, 1.00000000000000, 0.000000000000000 ) );
#475 = CARTESIAN_POINT( '', ( 42.5000000000000, 4.01195622848076E-15, 0.000000000000000 ) );
#476 = DIRECTION( '', ( 1.00000000000000, -6.12323399573676E-17, -0.000000000000000 ) );
#477 = DIRECTION( '', ( 6.12323399573676E-17, 1.00000000000000, 0.000000000000000 ) );
#478 = DIRECTION( '', ( 1.00000000000000, -6.12323399573676E-17, -0.000000000000000 ) );
#479 = DIRECTION( '', ( 1.00000000000000, -6.12323399573676E-17, -0.000000000000000 ) );
ENDSEC;
END-ISO-10303-21;
